  0
SECTION
  2
HEADER
  9
$ACADVER
  1
AC1006
  9
$INSBASE
 10
0.0
 20
0.0
 30
0.0
  9
$EXTMIN
 10
-81.239053
 20
-82.55
  9
$EXTMAX
 10
297.0
 20
210.0
  9
$LIMMIN
 10
0.0
 20
0.0
  9
$LIMMAX
 10
297.0
 20
210.0
  9
$ORTHOMODE
 70
     0
  9
$REGENMODE
 70
     1
  9
$FILLMODE
 70
     1
  9
$QTEXTMODE
 70
     0
  9
$MIRRTEXT
 70
     1
  9
$DRAGMODE
 70
     2
  9
$LTSCALE
 40
10.0
  9
$OSMODE
 70
     0
  9
$ATTMODE
 70
     1
  9
$TEXTSIZE
 40
0.2
  9
$TRACEWID
 40
0.05
  9
$TEXTSTYLE
  7
STANDARD
  9
$CLAYER
  8
0
  9
$CELTYPE
  6
BYLAYER
  9
$CECOLOR
 62
   256
  9
$DIMSCALE
 40
1.0
  9
$DIMASZ
 40
0.18
  9
$DIMEXO
 40
0.0625
  9
$DIMDLI
 40
0.38
  9
$DIMRND
 40
0.0
  9
$DIMDLE
 40
0.0
  9
$DIMEXE
 40
0.18
  9
$DIMTP
 40
0.0
  9
$DIMTM
 40
0.0
  9
$DIMTXT
 40
0.18
  9
$DIMCEN
 40
0.09
  9
$DIMTSZ
 40
0.0
  9
$DIMTOL
 70
     0
  9
$DIMLIM
 70
     0
  9
$DIMTIH
 70
     1
  9
$DIMTOH
 70
     1
  9
$DIMSE1
 70
     0
  9
$DIMSE2
 70
     0
  9
$DIMTAD
 70
     0
  9
$DIMZIN
 70
     0
  9
$DIMBLK
  1

  9
$DIMASO
 70
     1
  9
$DIMSHO
 70
     0
  9
$DIMPOST
  1

  9
$DIMAPOST
  1

  9
$DIMALT
 70
     0
  9
$DIMALTD
 70
     2
  9
$DIMALTF
 40
25.4
  9
$DIMLFAC
 40
1.0
  9
$DIMTOFL
 70
     0
  9
$DIMTVP
 40
0.0
  9
$DIMTIX
 70
     0
  9
$DIMSOXD
 70
     0
  9
$DIMSAH
 70
     0
  9
$DIMBLK1
  1

  9
$DIMBLK2
  1

  9
$LUNITS
 70
     2
  9
$LUPREC
 70
     4
  9
$AXISMODE
 70
     0
  9
$AXISUNIT
 10
0.0
 20
0.0
  9
$SKETCHINC
 40
0.1
  9
$FILLETRAD
 40
0.0
  9
$AUNITS
 70
     0
  9
$AUPREC
 70
     0
  9
$MENU
  1
sitopluk
  9
$ELEVATION
 40
0.0
  9
$THICKNESS
 40
0.0
  9
$LIMCHECK
 70
     0
  9
$BLIPMODE
 70
     1
  9
$CHAMFERA
 40
0.0
  9
$CHAMFERB
 40
0.0
  9
$SKPOLY
 70
     0
  9
$TDCREATE
 40
2450480.6348427082
  9
$TDUPDATE
 40
2450480.6348427082
  9
$TDINDWG
 40
0.0000000000
  9
$TDUSRTIMER
 40
0.0000000000
  9
$USRTIMER
 70
     1
  9
$ANGBASE
 50
0.0
  9
$ANGDIR
 70
     0
  9
$PDMODE
 70
     0
  9
$PDSIZE
 40
0.0
  9
$PLINEWID
 40
0.0
  9
$COORDS
 70
     2
  9
$SPLFRAME
 70
     0
  9
$SPLINETYPE
 70
     6
  9
$SPLINESEGS
 70
     8
  9
$ATTDIA
 70
     0
  9
$ATTREQ
 70
     1
  9
$HANDLING
 70
     0
  9
$HANDSEED
  5
0
  9
$SURFTAB1
 70
     6
  9
$SURFTAB2
 70
     6
  9
$SURFTYPE
 70
     6
  9
$SURFU
 70
     6
  9
$SURFV
 70
     6
  9
$FLATLAND
 70
     0
  9
$UCSNAME
  2

  9
$UCSORG
 10
0.0
 20
0.0
 30
0.0
  9
$UCSXDIR
 10
1.0
 20
0.0
 30
0.0
  9
$UCSYDIR
 10
0.0
 20
1.0
 30
0.0
  9
$USERI1
 70
     0
  9
$USERI2
 70
     0
  9
$USERI3
 70
     0
  9
$USERI4
 70
     0
  9
$USERI5
 70
     0
  9
$USERR1
 40
0.0
  9
$USERR2
 40
0.0
  9
$USERR3
 40
0.0
  9
$USERR4
 40
0.0
  9
$USERR5
 40
0.0
  9
$WORLDVIEW
 70
     1
  0
ENDSEC
  0
SECTION
  2
TABLES
  0
TABLE
  2
VPORT
 70
     2
  0
VPORT
  2
*ACTIVE
 70
     0
 10
0.0
 20
0.0
 11
1.0
 21
1.0
 12
61.25
 22
20.525742
 13
0.0
 23
0.0
 14
0.5
 24
0.5
 15
0.0
 25
0.0
 16
0.0
 26
0.0
 36
1.0
 17
0.0
 27
0.0
 37
0.0
 40
206.051483
 41
1.380723
 42
50.0
 43
0.0
 44
0.0
 50
0.0
 51
0.0
 71
     0
 72
   100
 73
     1
 74
     1
 75
     1
 76
     0
 77
     0
 78
     0
  0
ENDTAB
  0
TABLE
  2
LTYPE
 70
     2
  0
LTYPE
  2
CONTINUOUS
 70
    64
  3
Solid line
 72
    65
 73
     0
 40
0.0
  0
LTYPE
  2
HIDDEN
 70
    64
  3
_ _ _ _ _ _ _ _ _ _ _ _ _ _ _ _ _ _ _ _ _ _ _
 72
    65
 73
     2
 40
0.375
 49
0.25
 49
-0.125
  0
ENDTAB
  0
TABLE
  2
LAYER
 70
     4
  0
LAYER
  2
0
 70
    64
 62
     7
  6
CONTINUOUS
  0
LAYER
  2
PROFILI
 70
     0
 62
     7
  6
CONTINUOUS
  0
LAYER
  2
FISSAGGI
 70
     0
 62
     2
  6
CONTINUOUS
  0
LAYER
  2
PANNELLI
 70
     0
 62
     6
  6
CONTINUOUS
  0
ENDTAB
  0
TABLE
  2
STYLE
 70
     1
  0
STYLE
  2
STANDARD
 70
     0
 40
0.0
 41
1.0
 50
0.0
 71
     0
 42
0.2
  3
txt
  4

  0
ENDTAB
  0
TABLE
  2
VIEW
 70
     0
  0
ENDTAB
  0
TABLE
  2
UCS
 70
     0
  0
ENDTAB
  0
TABLE
  2
DWGMGR
 70
     0
  0
ENDTAB
  0
ENDSEC
  0
SECTION
  2
BLOCKS
  0
BLOCK
  8
0
  2
BORDER
 70
    64
 10
0.0
 20
0.0
 30
0.0
  0
LINE
  8
0
 10
0.0
 20
0.0
 30
0.0
 11
1.0
 21
0.0
 31
0.0
  0
LINE
  8
0
 10
1.0
 20
0.0
 30
0.0
 11
1.0
 21
1.0
 31
0.0
  0
LINE
  8
0
 10
1.0
 20
1.0
 30
0.0
 11
0.0
 21
1.0
 31
0.0
  0
LINE
  8
0
 10
0.0
 20
1.0
 30
0.0
 11
0.0
 21
0.0
 31
0.0
  0
ENDBLK
  8
0
  0
BLOCK
  8
0
  2
118C
 70
    64
 10
0.0
 20
0.0
 30
0.0
  0
LINE
  8
0
 62
     1
 10
56.273615
 20
59.066829
 30
0.0
 11
38.786389
 21
71.772042
 31
0.0
  0
LINE
  8
0
 62
     1
 10
80.244921
 20
14.709267
 30
0.0
 11
73.565396
 21
35.266734
 31
0.0
  0
LINE
  8
0
 62
     1
 10
73.565396
 20
-35.266734
 30
0.0
 11
80.244921
 21
-14.709267
 31
0.0
  0
LINE
  8
0
 62
     1
 10
38.786389
 20
-71.772042
 30
0.0
 11
56.273615
 21
-59.066829
 31
0.0
  0
LINE
  8
0
 62
     1
 10
-10.8077
 20
-80.862869
 30
0.0
 11
10.8077
 21
-80.862869
 31
0.0
  0
LINE
  8
0
 62
     1
 10
-56.273615
 20
-59.066829
 30
0.0
 11
-38.786389
 21
-71.772042
 31
0.0
  0
LINE
  8
0
 62
     1
 10
-80.244921
 20
-14.709267
 30
0.0
 11
-73.565396
 21
-35.266734
 31
0.0
  0
LINE
  8
0
 62
     1
 10
-73.565396
 20
35.266734
 30
0.0
 11
-80.244921
 21
14.709267
 31
0.0
  0
LINE
  8
0
 62
     1
 10
-38.786389
 20
71.772042
 30
0.0
 11
-56.273615
 21
59.066829
 31
0.0
  0
LINE
  8
0
 62
     1
 10
10.8077
 20
80.862869
 30
0.0
 11
-10.8077
 21
80.862869
 31
0.0
  0
CIRCLE
  8
0
 62
     1
 10
0.0
 20
0.0
 30
0.0
 40
10.0
  0
CIRCLE
  8
0
 62
     1
 10
0.0
 20
0.0
 30
0.0
 40
34.5
  0
POLYLINE
  8
0
 62
     1
 66
     1
 10
0.0
 20
0.0
 30
0.0
 70
     1
  0
VERTEX
  8
0
 62
     1
 10
38.786389
 20
71.772042
 30
0.0
  0
VERTEX
  8
0
 62
     1
 10
35.133505
 20
68.119158
 30
0.0
 42
-0.282029
  0
VERTEX
  8
0
 62
     1
 10
33.101257
 20
67.631258
 30
0.0
  0
VERTEX
  8
0
 62
     1
 10
12.973176
 20
74.171268
 30
0.0
 42
-0.282029
  0
VERTEX
  8
0
 62
     1
 10
11.615834
 20
75.760512
 30
0.0
  0
VERTEX
  8
0
 62
     1
 10
10.8077
 20
80.862869
 30
0.0
 42
0.368919
  0
VERTEX
  8
0
 62
     1
 10
8.832323
 20
82.55
 30
0.0
  0
VERTEX
  8
0
 62
     1
 10
-8.832323
 20
82.55
 30
0.0
 42
0.368919
  0
VERTEX
  8
0
 62
     1
 10
-10.8077
 20
80.862869
 30
0.0
  0
VERTEX
  8
0
 62
     1
 10
-11.615834
 20
75.760512
 30
0.0
 42
-0.282029
  0
VERTEX
  8
0
 62
     1
 10
-12.973176
 20
74.171268
 30
0.0
  0
VERTEX
  8
0
 62
     1
 10
-33.101257
 20
67.631258
 30
0.0
 42
-0.282029
  0
VERTEX
  8
0
 62
     1
 10
-35.133505
 20
68.119158
 30
0.0
  0
VERTEX
  8
0
 62
     1
 10
-38.786389
 20
71.772042
 30
0.0
 42
0.368919
  0
VERTEX
  8
0
 62
     1
 10
-41.376173
 20
71.975862
 30
0.0
  0
VERTEX
  8
0
 62
     1
 10
-55.667172
 20
61.592844
 30
0.0
 42
0.368919
  0
VERTEX
  8
0
 62
     1
 10
-56.273615
 20
59.066829
 30
0.0
  0
VERTEX
  8
0
 62
     1
 10
-53.928319
 20
54.463926
 30
0.0
 42
-0.282029
  0
VERTEX
  8
0
 62
     1
 10
-54.092298
 20
52.380375
 30
0.0
  0
VERTEX
  8
0
 62
     1
 10
-66.532136
 20
35.258406
 30
0.0
 42
-0.282029
  0
VERTEX
  8
0
 62
     1
 10
-68.463039
 20
34.4586
 30
0.0
  0
VERTEX
  8
0
 62
     1
 10
-73.565396
 20
35.266734
 30
0.0
 42
0.368919
  0
VERTEX
  8
0
 62
     1
 10
-75.780377
 20
33.909391
 30
0.0
  0
VERTEX
  8
0
 62
     1
 10
-81.239053
 20
17.109314
 30
0.0
 42
0.368919
  0
VERTEX
  8
0
 62
     1
 10
-80.244921
 20
14.709267
 30
0.0
  0
VERTEX
  8
0
 62
     1
 10
-75.642019
 20
12.363971
 30
0.0
 42
-0.282029
  0
VERTEX
  8
0
 62
     1
 10
-74.55
 20
10.581958
 30
0.0
  0
VERTEX
  8
0
 62
     1
 10
-74.55
 20
-10.581958
 30
0.0
 42
-0.282029
  0
VERTEX
  8
0
 62
     1
 10
-75.642019
 20
-12.363971
 30
0.0
  0
VERTEX
  8
0
 62
     1
 10
-80.244921
 20
-14.709267
 30
0.0
 42
0.368919
  0
VERTEX
  8
0
 62
     1
 10
-81.239053
 20
-17.109314
 30
0.0
  0
VERTEX
  8
0
 62
     1
 10
-75.780377
 20
-33.909391
 30
0.0
 42
0.368919
  0
VERTEX
  8
0
 62
     1
 10
-73.565396
 20
-35.266734
 30
0.0
  0
VERTEX
  8
0
 62
     1
 10
-68.463039
 20
-34.4586
 30
0.0
 42
-0.282029
  0
VERTEX
  8
0
 62
     1
 10
-66.532136
 20
-35.258406
 30
0.0
  0
VERTEX
  8
0
 62
     1
 10
-54.092298
 20
-52.380375
 30
0.0
 42
-0.282029
  0
VERTEX
  8
0
 62
     1
 10
-53.928319
 20
-54.463926
 30
0.0
  0
VERTEX
  8
0
 62
     1
 10
-56.273615
 20
-59.066829
 30
0.0
 42
0.368919
  0
VERTEX
  8
0
 62
     1
 10
-55.667172
 20
-61.592844
 30
0.0
  0
VERTEX
  8
0
 62
     1
 10
-41.376173
 20
-71.975862
 30
0.0
 42
0.368919
  0
VERTEX
  8
0
 62
     1
 10
-38.786389
 20
-71.772042
 30
0.0
  0
VERTEX
  8
0
 62
     1
 10
-35.133505
 20
-68.119158
 30
0.0
 42
-0.282029
  0
VERTEX
  8
0
 62
     1
 10
-33.101257
 20
-67.631258
 30
0.0
  0
VERTEX
  8
0
 62
     1
 10
-12.973176
 20
-74.171268
 30
0.0
 42
-0.282029
  0
VERTEX
  8
0
 62
     1
 10
-11.615834
 20
-75.760512
 30
0.0
  0
VERTEX
  8
0
 62
     1
 10
-10.8077
 20
-80.862869
 30
0.0
 42
0.368919
  0
VERTEX
  8
0
 62
     1
 10
-8.832323
 20
-82.55
 30
0.0
  0
VERTEX
  8
0
 62
     1
 10
8.832323
 20
-82.55
 30
0.0
 42
0.368919
  0
VERTEX
  8
0
 62
     1
 10
10.8077
 20
-80.862869
 30
0.0
  0
VERTEX
  8
0
 62
     1
 10
11.615834
 20
-75.760512
 30
0.0
 42
-0.282029
  0
VERTEX
  8
0
 62
     1
 10
12.973176
 20
-74.171268
 30
0.0
  0
VERTEX
  8
0
 62
     1
 10
33.101257
 20
-67.631258
 30
0.0
 42
-0.282029
  0
VERTEX
  8
0
 62
     1
 10
35.133505
 20
-68.119158
 30
0.0
  0
VERTEX
  8
0
 62
     1
 10
38.786389
 20
-71.772042
 30
0.0
 42
0.368919
  0
VERTEX
  8
0
 62
     1
 10
41.376173
 20
-71.975862
 30
0.0
  0
VERTEX
  8
0
 62
     1
 10
55.667172
 20
-61.592844
 30
0.0
 42
0.368919
  0
VERTEX
  8
0
 62
     1
 10
56.273615
 20
-59.066829
 30
0.0
  0
VERTEX
  8
0
 62
     1
 10
53.928319
 20
-54.463926
 30
0.0
 42
-0.282029
  0
VERTEX
  8
0
 62
     1
 10
54.092298
 20
-52.380375
 30
0.0
  0
VERTEX
  8
0
 62
     1
 10
66.532136
 20
-35.258406
 30
0.0
 42
-0.282029
  0
VERTEX
  8
0
 62
     1
 10
68.463039
 20
-34.4586
 30
0.0
  0
VERTEX
  8
0
 62
     1
 10
73.565396
 20
-35.266734
 30
0.0
 42
0.368919
  0
VERTEX
  8
0
 62
     1
 10
75.780377
 20
-33.909391
 30
0.0
  0
VERTEX
  8
0
 62
     1
 10
81.239053
 20
-17.109314
 30
0.0
 42
0.368919
  0
VERTEX
  8
0
 62
     1
 10
80.244921
 20
-14.709267
 30
0.0
  0
VERTEX
  8
0
 62
     1
 10
75.642019
 20
-12.363971
 30
0.0
 42
-0.282029
  0
VERTEX
  8
0
 62
     1
 10
74.55
 20
-10.581958
 30
0.0
  0
VERTEX
  8
0
 62
     1
 10
74.55
 20
10.581958
 30
0.0
 42
-0.282029
  0
VERTEX
  8
0
 62
     1
 10
75.642019
 20
12.363971
 30
0.0
  0
VERTEX
  8
0
 62
     1
 10
80.244921
 20
14.709267
 30
0.0
 42
0.368919
  0
VERTEX
  8
0
 62
     1
 10
81.239053
 20
17.109314
 30
0.0
  0
VERTEX
  8
0
 62
     1
 10
75.780377
 20
33.909391
 30
0.0
 42
0.368919
  0
VERTEX
  8
0
 62
     1
 10
73.565396
 20
35.266734
 30
0.0
  0
VERTEX
  8
0
 62
     1
 10
68.463039
 20
34.4586
 30
0.0
 42
-0.282029
  0
VERTEX
  8
0
 62
     1
 10
66.532136
 20
35.258406
 30
0.0
  0
VERTEX
  8
0
 62
     1
 10
54.092298
 20
52.380375
 30
0.0
 42
-0.282029
  0
VERTEX
  8
0
 62
     1
 10
53.928319
 20
54.463926
 30
0.0
  0
VERTEX
  8
0
 62
     1
 10
56.273615
 20
59.066829
 30
0.0
 42
0.368919
  0
VERTEX
  8
0
 62
     1
 10
55.667172
 20
61.592844
 30
0.0
  0
VERTEX
  8
0
 62
     1
 10
41.376173
 20
71.975862
 30
0.0
  0
SEQEND
  8
0
 62
     1
  0
ENDBLK
  8
0
  0
BLOCK
  8
0
  2
118D
 70
    64
 10
0.0
 20
0.0
 30
0.0
  0
LINE
  8
0
  6
HIDDEN
 62
     1
 10
0.0
 20
-10.0
 30
0.0
 11
44.0
 21
-10.0
 31
0.0
  0
LINE
  8
0
  6
HIDDEN
 62
     1
 10
0.0
 20
10.0
 30
0.0
 11
44.0
 21
10.0
 31
0.0
  0
LINE
  8
0
 62
     1
 10
27.5
 20
-34.5
 30
0.0
 11
44.0
 21
-34.5
 31
0.0
  0
LINE
  8
0
 62
     1
 10
27.5
 20
34.5
 30
0.0
 11
44.0
 21
34.5
 31
0.0
  0
LINE
  8
0
 62
     1
 10
44.0
 20
-34.5
 30
0.0
 11
44.0
 21
34.5
 31
0.0
  0
LINE
  8
0
 62
     1
 10
0.0
 20
-34.5
 30
0.0
 11
0.0
 21
34.5
 31
0.0
  0
LINE
  8
0
 62
     1
 10
0.0
 20
-34.5
 30
0.0
 11
16.5
 21
-34.5
 31
0.0
  0
LINE
  8
0
 62
     1
 10
0.0
 20
34.5
 30
0.0
 11
16.5
 21
34.5
 31
0.0
  0
LINE
  8
0
 62
     1
 10
16.5
 20
82.55
 30
0.0
 11
27.5
 21
82.55
 31
0.0
  0
LINE
  8
0
 62
     1
 10
16.5
 20
-82.55
 30
0.0
 11
27.5
 21
-82.55
 31
0.0
  0
LINE
  8
0
 62
     1
 10
16.5
 20
82.55
 30
0.0
 11
16.5
 21
-82.55
 31
0.0
  0
LINE
  8
0
 62
     1
 10
27.5
 20
82.55
 30
0.0
 11
27.5
 21
-82.55
 31
0.0
  0
LINE
  8
0
 62
     1
 10
16.5
 20
74.774485
 30
0.0
 11
27.5
 21
74.774485
 31
0.0
  0
LINE
  8
0
 62
     1
 10
16.5
 20
72.351663
 30
0.0
 11
27.5
 21
72.351663
 31
0.0
  0
LINE
  8
0
 62
     1
 10
16.5
 20
60.4417
 30
0.0
 11
27.5
 21
60.4417
 31
0.0
  0
LINE
  8
0
 62
     1
 10
16.5
 20
53.399027
 30
0.0
 11
27.5
 21
53.399027
 31
0.0
  0
LINE
  8
0
 62
     1
 10
16.5
 20
34.996638
 30
0.0
 11
27.5
 21
34.996638
 31
0.0
  0
LINE
  8
0
 62
     1
 10
16.5
 20
15.725914
 30
0.0
 11
27.5
 21
15.725914
 31
0.0
  0
LINE
  8
0
 62
     1
 10
16.5
 20
11.626956
 30
0.0
 11
27.5
 21
11.626956
 31
0.0
  0
LINE
  8
0
 62
     1
 10
16.5
 20
-11.626956
 30
0.0
 11
27.5
 21
-11.626956
 31
0.0
  0
LINE
  8
0
 62
     1
 10
16.5
 20
-15.725914
 30
0.0
 11
27.5
 21
-15.725914
 31
0.0
  0
LINE
  8
0
 62
     1
 10
16.5
 20
-34.996638
 30
0.0
 11
27.5
 21
-34.996638
 31
0.0
  0
LINE
  8
0
 62
     1
 10
16.5
 20
-35.258406
 30
0.0
 11
27.5
 21
-35.258406
 31
0.0
  0
LINE
  8
0
 62
     1
 10
16.5
 20
-53.399027
 30
0.0
 11
27.5
 21
-53.399027
 31
0.0
  0
LINE
  8
0
 62
     1
 10
16.5
 20
-60.4417
 30
0.0
 11
27.5
 21
-60.4417
 31
0.0
  0
LINE
  8
0
 62
     1
 10
16.5
 20
-72.351663
 30
0.0
 11
27.5
 21
-72.351663
 31
0.0
  0
LINE
  8
0
 62
     1
 10
16.5
 20
-74.774485
 30
0.0
 11
27.5
 21
-74.774485
 31
0.0
  0
LINE
  8
0
 62
     1
 10
18.5
 20
72.351663
 30
0.0
 11
18.5
 21
60.4417
 31
0.0
  0
LINE
  8
0
 62
     1
 10
25.5
 20
72.351663
 30
0.0
 11
25.5
 21
60.4417
 31
0.0
  0
LINE
  8
0
 62
     1
 10
18.5
 20
34.996638
 30
0.0
 11
18.5
 21
15.725914
 31
0.0
  0
LINE
  8
0
 62
     1
 10
25.5
 20
34.996638
 30
0.0
 11
25.5
 21
15.725914
 31
0.0
  0
LINE
  8
0
 62
     1
 10
18.5
 20
-15.725914
 30
0.0
 11
18.5
 21
-34.996638
 31
0.0
  0
LINE
  8
0
 62
     1
 10
25.5
 20
-15.725914
 30
0.0
 11
25.5
 21
-34.996638
 31
0.0
  0
LINE
  8
0
 62
     1
 10
18.5
 20
-60.4417
 30
0.0
 11
18.5
 21
-72.351663
 31
0.0
  0
LINE
  8
0
 62
     1
 10
25.5
 20
-60.4417
 30
0.0
 11
25.5
 21
-72.351663
 31
0.0
  0
ENDBLK
  8
0
  0
ENDSEC
  0
SECTION
  2
ENTITIES
  0
INSERT
  8
0
  2
118C
 10
0.0
 20
0.0
 30
0.0
  0
INSERT
  8
0
  2
118D
 10
120.0
 20
0.0
 30
0.0
  0
ENDSEC
  0
EOF
