  0
SECTION
  2
HEADER
  9
$ACADVER
  1
AC1006
  9
$INSBASE
 10
0.0
 20
0.0
 30
0.0
  9
$EXTMIN
 10
-81.239053
 20
-82.55
  9
$EXTMAX
 10
297.0
 20
210.0
  9
$LIMMIN
 10
0.0
 20
0.0
  9
$LIMMAX
 10
297.0
 20
210.0
  9
$ORTHOMODE
 70
     0
  9
$REGENMODE
 70
     1
  9
$FILLMODE
 70
     1
  9
$QTEXTMODE
 70
     0
  9
$MIRRTEXT
 70
     1
  9
$DRAGMODE
 70
     2
  9
$LTSCALE
 40
10.0
  9
$OSMODE
 70
     0
  9
$ATTMODE
 70
     1
  9
$TEXTSIZE
 40
0.2
  9
$TRACEWID
 40
0.05
  9
$TEXTSTYLE
  7
STANDARD
  9
$CLAYER
  8
0
  9
$CELTYPE
  6
BYLAYER
  9
$CECOLOR
 62
   256
  9
$DIMSCALE
 40
1.0
  9
$DIMASZ
 40
0.18
  9
$DIMEXO
 40
0.0625
  9
$DIMDLI
 40
0.38
  9
$DIMRND
 40
0.0
  9
$DIMDLE
 40
0.0
  9
$DIMEXE
 40
0.18
  9
$DIMTP
 40
0.0
  9
$DIMTM
 40
0.0
  9
$DIMTXT
 40
0.18
  9
$DIMCEN
 40
0.09
  9
$DIMTSZ
 40
0.0
  9
$DIMTOL
 70
     0
  9
$DIMLIM
 70
     0
  9
$DIMTIH
 70
     1
  9
$DIMTOH
 70
     1
  9
$DIMSE1
 70
     0
  9
$DIMSE2
 70
     0
  9
$DIMTAD
 70
     0
  9
$DIMZIN
 70
     0
  9
$DIMBLK
  1

  9
$DIMASO
 70
     1
  9
$DIMSHO
 70
     0
  9
$DIMPOST
  1

  9
$DIMAPOST
  1

  9
$DIMALT
 70
     0
  9
$DIMALTD
 70
     2
  9
$DIMALTF
 40
25.4
  9
$DIMLFAC
 40
1.0
  9
$DIMTOFL
 70
     0
  9
$DIMTVP
 40
0.0
  9
$DIMTIX
 70
     0
  9
$DIMSOXD
 70
     0
  9
$DIMSAH
 70
     0
  9
$DIMBLK1
  1

  9
$DIMBLK2
  1

  9
$LUNITS
 70
     2
  9
$LUPREC
 70
     4
  9
$AXISMODE
 70
     0
  9
$AXISUNIT
 10
0.0
 20
0.0
  9
$SKETCHINC
 40
0.1
  9
$FILLETRAD
 40
0.0
  9
$AUNITS
 70
     0
  9
$AUPREC
 70
     0
  9
$MENU
  1
sitopluk
  9
$ELEVATION
 40
0.0
  9
$THICKNESS
 40
0.0
  9
$LIMCHECK
 70
     0
  9
$BLIPMODE
 70
     1
  9
$CHAMFERA
 40
0.0
  9
$CHAMFERB
 40
0.0
  9
$SKPOLY
 70
     0
  9
$TDCREATE
 40
2450480.6339532407
  9
$TDUPDATE
 40
2450480.6339532407
  9
$TDINDWG
 40
0.0000000000
  9
$TDUSRTIMER
 40
0.0000000000
  9
$USRTIMER
 70
     1
  9
$ANGBASE
 50
0.0
  9
$ANGDIR
 70
     0
  9
$PDMODE
 70
     0
  9
$PDSIZE
 40
0.0
  9
$PLINEWID
 40
0.0
  9
$COORDS
 70
     2
  9
$SPLFRAME
 70
     0
  9
$SPLINETYPE
 70
     6
  9
$SPLINESEGS
 70
     8
  9
$ATTDIA
 70
     0
  9
$ATTREQ
 70
     1
  9
$HANDLING
 70
     0
  9
$HANDSEED
  5
0
  9
$SURFTAB1
 70
     6
  9
$SURFTAB2
 70
     6
  9
$SURFTYPE
 70
     6
  9
$SURFU
 70
     6
  9
$SURFV
 70
     6
  9
$FLATLAND
 70
     0
  9
$UCSNAME
  2

  9
$UCSORG
 10
0.0
 20
0.0
 30
0.0
  9
$UCSXDIR
 10
1.0
 20
0.0
 30
0.0
  9
$UCSYDIR
 10
0.0
 20
1.0
 30
0.0
  9
$USERI1
 70
     0
  9
$USERI2
 70
     0
  9
$USERI3
 70
     0
  9
$USERI4
 70
     0
  9
$USERI5
 70
     0
  9
$USERR1
 40
0.0
  9
$USERR2
 40
0.0
  9
$USERR3
 40
0.0
  9
$USERR4
 40
0.0
  9
$USERR5
 40
0.0
  9
$WORLDVIEW
 70
     1
  0
ENDSEC
  0
SECTION
  2
TABLES
  0
TABLE
  2
VPORT
 70
     2
  0
VPORT
  2
*ACTIVE
 70
     0
 10
0.0
 20
0.0
 11
1.0
 21
1.0
 12
52.58494
 22
14.25
 13
0.0
 23
0.0
 14
0.5
 24
0.5
 15
0.0
 25
0.0
 16
0.0
 26
0.0
 36
1.0
 17
0.0
 27
0.0
 37
0.0
 40
193.5
 41
1.380723
 42
50.0
 43
0.0
 44
0.0
 50
0.0
 51
0.0
 71
     0
 72
   100
 73
     1
 74
     1
 75
     1
 76
     0
 77
     0
 78
     0
  0
ENDTAB
  0
TABLE
  2
LTYPE
 70
     2
  0
LTYPE
  2
CONTINUOUS
 70
    64
  3
Solid line
 72
    65
 73
     0
 40
0.0
  0
LTYPE
  2
HIDDEN
 70
    64
  3
_ _ _ _ _ _ _ _ _ _ _ _ _ _ _ _ _ _ _ _ _ _ _
 72
    65
 73
     2
 40
0.375
 49
0.25
 49
-0.125
  0
ENDTAB
  0
TABLE
  2
LAYER
 70
     4
  0
LAYER
  2
0
 70
    64
 62
     7
  6
CONTINUOUS
  0
LAYER
  2
PROFILI
 70
     0
 62
     7
  6
CONTINUOUS
  0
LAYER
  2
FISSAGGI
 70
     0
 62
     2
  6
CONTINUOUS
  0
LAYER
  2
PANNELLI
 70
     0
 62
     6
  6
CONTINUOUS
  0
ENDTAB
  0
TABLE
  2
STYLE
 70
     1
  0
STYLE
  2
STANDARD
 70
     0
 40
0.0
 41
1.0
 50
0.0
 71
     0
 42
0.2
  3
txt
  4

  0
ENDTAB
  0
TABLE
  2
VIEW
 70
     0
  0
ENDTAB
  0
TABLE
  2
UCS
 70
     0
  0
ENDTAB
  0
TABLE
  2
DWGMGR
 70
     0
  0
ENDTAB
  0
ENDSEC
  0
SECTION
  2
BLOCKS
  0
BLOCK
  8
0
  2
BORDER
 70
    64
 10
0.0
 20
0.0
 30
0.0
  0
LINE
  8
0
 10
0.0
 20
0.0
 30
0.0
 11
1.0
 21
0.0
 31
0.0
  0
LINE
  8
0
 10
1.0
 20
0.0
 30
0.0
 11
1.0
 21
1.0
 31
0.0
  0
LINE
  8
0
 10
1.0
 20
1.0
 30
0.0
 11
0.0
 21
1.0
 31
0.0
  0
LINE
  8
0
 10
0.0
 20
1.0
 30
0.0
 11
0.0
 21
0.0
 31
0.0
  0
ENDBLK
  8
0
  0
BLOCK
  8
0
  2
93AA
 70
    64
 10
0.0
 20
0.0
 30
0.0
  0
CIRCLE
  8
0
 62
     1
 10
0.0
 20
0.0
 30
0.0
 40
25.0
  0
CIRCLE
  8
0
 62
     1
 10
0.0
 20
0.0
 30
0.0
 40
12.5
  0
ARC
  8
0
 62
     1
 10
51.02768
 20
49.054378
 30
0.0
 40
1.831893
 50
153.0
 51
216.0
  0
LINE
  8
0
 62
     1
 10
49.395452
 20
49.88604
 30
0.0
 11
50.048291
 21
51.167308
 31
0.0
  0
LINE
  8
0
 62
     1
 10
33.197229
 20
63.410321
 30
0.0
 11
32.180409
 21
62.3935
 31
0.0
  0
ARC
  8
0
 62
     1
 10
30.885065
 20
63.688844
 30
0.0
 40
1.831893
 50
252.0
 51
315.0
  0
LINE
  8
0
 62
     1
 10
35.787013
 20
63.614141
 30
0.0
 11
49.441848
 21
53.693323
 31
0.0
  0
ARC
  8
0
 62
     1
 10
48.266278
 20
52.075289
 30
0.0
 40
2.0
 50
333.0
 51
54.0
  0
ARC
  8
0
 62
     1
 10
34.611443
 20
61.996107
 30
0.0
 40
2.0
 50
54.0
 51
135.0
  0
ARC
  8
0
 62
     1
 10
70.1157
 20
9.692507
 30
0.0
 40
1.831893
 50
117.0
 51
180.0
  0
LINE
  8
0
 62
     1
 10
69.284038
 20
11.324736
 30
0.0
 11
70.565307
 21
11.977575
 31
0.0
  0
LINE
  8
0
 62
     1
 10
64.128774
 20
31.787185
 30
0.0
 11
62.708477
 21
31.562232
 31
0.0
  0
ARC
  8
0
 62
     1
 10
62.421906
 20
33.371572
 30
0.0
 40
1.831893
 50
216.0
 51
279.0
  0
LINE
  8
0
 62
     1
 10
66.343756
 20
30.429843
 30
0.0
 11
71.559439
 21
14.377622
 31
0.0
  0
ARC
  8
0
 62
     1
 10
69.657326
 20
13.759588
 30
0.0
 40
2.0
 50
297.0
 51
18.0
  0
ARC
  8
0
 62
     1
 10
64.441643
 20
29.811809
 30
0.0
 40
2.0
 50
18.0
 51
99.0
  0
ARC
  8
0
 62
     1
 10
62.421906
 20
-33.371572
 30
0.0
 40
1.831893
 50
81.0
 51
144.0
  0
LINE
  8
0
 62
     1
 10
62.708477
 20
-31.562232
 30
0.0
 11
64.128774
 21
-31.787185
 31
0.0
  0
LINE
  8
0
 62
     1
 10
70.565307
 20
-11.977575
 30
0.0
 11
69.284038
 21
-11.324736
 31
0.0
  0
ARC
  8
0
 62
     1
 10
70.1157
 20
-9.692507
 30
0.0
 40
1.831893
 50
180.0
 51
243.0
  0
LINE
  8
0
 62
     1
 10
71.559439
 20
-14.377622
 30
0.0
 11
66.343756
 21
-30.429843
 31
0.0
  0
ARC
  8
0
 62
     1
 10
64.441643
 20
-29.811809
 30
0.0
 40
2.0
 50
261.0
 51
342.0
  0
ARC
  8
0
 62
     1
 10
69.657326
 20
-13.759588
 30
0.0
 40
2.0
 50
342.0
 51
63.0
  0
ARC
  8
0
 62
     1
 10
30.885065
 20
-63.688844
 30
0.0
 40
1.831893
 50
45.0
 51
108.0
  0
LINE
  8
0
 62
     1
 10
32.180409
 20
-62.3935
 30
0.0
 11
33.197229
 21
-63.410321
 31
0.0
  0
LINE
  8
0
 62
     1
 10
50.048291
 20
-51.167308
 30
0.0
 11
49.395452
 21
-49.88604
 31
0.0
  0
ARC
  8
0
 62
     1
 10
51.02768
 20
-49.054378
 30
0.0
 40
1.831893
 50
144.0
 51
207.0
  0
LINE
  8
0
 62
     1
 10
49.441848
 20
-53.693323
 30
0.0
 11
35.787013
 21
-63.614141
 31
0.0
  0
ARC
  8
0
 62
     1
 10
34.611443
 20
-61.996107
 30
0.0
 40
2.0
 50
225.0
 51
306.0
  0
ARC
  8
0
 62
     1
 10
48.266278
 20
-52.075289
 30
0.0
 40
2.0
 50
306.0
 51
27.0
  0
ARC
  8
0
 62
     1
 10
-12.448821
 20
-69.679143
 30
0.0
 40
1.831893
 50
9.0
 51
72.0
  0
LINE
  8
0
 62
     1
 10
-10.639482
 20
-69.392572
 30
0.0
 11
-10.414529
 21
-70.812869
 31
0.0
  0
LINE
  8
0
 62
     1
 10
10.414529
 20
-70.812869
 30
0.0
 11
10.639482
 21
-69.392572
 31
0.0
  0
ARC
  8
0
 62
     1
 10
12.448821
 20
-69.679143
 30
0.0
 40
1.831893
 50
108.0
 51
171.0
  0
LINE
  8
0
 62
     1
 10
8.439152
 20
-72.5
 30
0.0
 11
-8.439152
 21
-72.5
 31
0.0
  0
ARC
  8
0
 62
     1
 10
-8.439152
 20
-70.5
 30
0.0
 40
2.0
 50
189.0
 51
270.0
  0
ARC
  8
0
 62
     1
 10
8.439152
 20
-70.5
 30
0.0
 40
2.0
 50
270.0
 51
351.0
  0
ARC
  8
0
 62
     1
 10
-51.02768
 20
-49.054378
 30
0.0
 40
1.831893
 50
333.0
 51
36.0
  0
LINE
  8
0
 62
     1
 10
-49.395452
 20
-49.88604
 30
0.0
 11
-50.048291
 21
-51.167308
 31
0.0
  0
LINE
  8
0
 62
     1
 10
-33.197229
 20
-63.410321
 30
0.0
 11
-32.180409
 21
-62.3935
 31
0.0
  0
ARC
  8
0
 62
     1
 10
-30.885065
 20
-63.688844
 30
0.0
 40
1.831893
 50
72.0
 51
135.0
  0
LINE
  8
0
 62
     1
 10
-35.787013
 20
-63.614141
 30
0.0
 11
-49.441848
 21
-53.693323
 31
0.0
  0
ARC
  8
0
 62
     1
 10
-48.266278
 20
-52.075289
 30
0.0
 40
2.0
 50
153.0
 51
234.0
  0
ARC
  8
0
 62
     1
 10
-34.611443
 20
-61.996107
 30
0.0
 40
2.0
 50
234.0
 51
315.0
  0
ARC
  8
0
 62
     1
 10
-70.1157
 20
-9.692507
 30
0.0
 40
1.831893
 50
297.0
 51
0.0
  0
LINE
  8
0
 62
     1
 10
-69.284038
 20
-11.324736
 30
0.0
 11
-70.565307
 21
-11.977575
 31
0.0
  0
LINE
  8
0
 62
     1
 10
-64.128774
 20
-31.787185
 30
0.0
 11
-62.708477
 21
-31.562232
 31
0.0
  0
ARC
  8
0
 62
     1
 10
-62.421906
 20
-33.371572
 30
0.0
 40
1.831893
 50
36.0
 51
99.0
  0
LINE
  8
0
 62
     1
 10
-66.343756
 20
-30.429843
 30
0.0
 11
-71.559439
 21
-14.377622
 31
0.0
  0
ARC
  8
0
 62
     1
 10
-69.657326
 20
-13.759588
 30
0.0
 40
2.0
 50
117.0
 51
198.0
  0
ARC
  8
0
 62
     1
 10
-64.441643
 20
-29.811809
 30
0.0
 40
2.0
 50
198.0
 51
279.0
  0
ARC
  8
0
 62
     1
 10
-62.421906
 20
33.371572
 30
0.0
 40
1.831893
 50
261.0
 51
324.0
  0
LINE
  8
0
 62
     1
 10
-62.708477
 20
31.562232
 30
0.0
 11
-64.128774
 21
31.787185
 31
0.0
  0
LINE
  8
0
 62
     1
 10
-70.565307
 20
11.977575
 30
0.0
 11
-69.284038
 21
11.324736
 31
0.0
  0
ARC
  8
0
 62
     1
 10
-70.1157
 20
9.692507
 30
0.0
 40
1.831893
 50
360.0
 51
63.0
  0
LINE
  8
0
 62
     1
 10
-71.559439
 20
14.377622
 30
0.0
 11
-66.343756
 21
30.429843
 31
0.0
  0
ARC
  8
0
 62
     1
 10
-64.441643
 20
29.811809
 30
0.0
 40
2.0
 50
81.0
 51
162.0
  0
ARC
  8
0
 62
     1
 10
-69.657326
 20
13.759588
 30
0.0
 40
2.0
 50
162.0
 51
243.0
  0
ARC
  8
0
 62
     1
 10
-30.885065
 20
63.688844
 30
0.0
 40
1.831893
 50
225.0
 51
288.0
  0
LINE
  8
0
 62
     1
 10
-32.180409
 20
62.3935
 30
0.0
 11
-33.197229
 21
63.410321
 31
0.0
  0
LINE
  8
0
 62
     1
 10
-50.048291
 20
51.167308
 30
0.0
 11
-49.395452
 21
49.88604
 31
0.0
  0
ARC
  8
0
 62
     1
 10
-51.02768
 20
49.054378
 30
0.0
 40
1.831893
 50
324.0
 51
27.0
  0
LINE
  8
0
 62
     1
 10
-49.441848
 20
53.693323
 30
0.0
 11
-35.787013
 21
63.614141
 31
0.0
  0
ARC
  8
0
 62
     1
 10
-34.611443
 20
61.996107
 30
0.0
 40
2.0
 50
45.0
 51
126.0
  0
ARC
  8
0
 62
     1
 10
-48.266278
 20
52.075289
 30
0.0
 40
2.0
 50
126.0
 51
207.0
  0
ARC
  8
0
 62
     1
 10
-8.439152
 20
70.5
 30
0.0
 40
2.0
 50
90.0
 51
171.0
  0
ARC
  8
0
 62
     1
 10
8.439152
 20
70.5
 30
0.0
 40
2.0
 50
9.0
 51
90.0
  0
LINE
  8
0
 62
     1
 10
-8.439152
 20
72.5
 30
0.0
 11
8.439152
 21
72.5
 31
0.0
  0
LINE
  8
0
 62
     1
 10
60.939874
 20
32.294812
 30
0.0
 11
49.545648
 21
47.977618
 31
0.0
  0
LINE
  8
0
 62
     1
 10
68.283808
 20
-9.692507
 30
0.0
 11
68.283808
 21
9.692507
 31
0.0
  0
LINE
  8
0
 62
     1
 10
49.545648
 20
-47.977618
 30
0.0
 11
60.939874
 21
-32.294812
 31
0.0
  0
LINE
  8
0
 62
     1
 10
11.882735
 20
-67.93691
 30
0.0
 11
30.318979
 21
-61.946611
 31
0.0
  0
LINE
  8
0
 62
     1
 10
-30.318979
 20
-61.946611
 30
0.0
 11
-11.882735
 21
-67.93691
 31
0.0
  0
LINE
  8
0
 62
     1
 10
-60.939874
 20
-32.294812
 30
0.0
 11
-49.545648
 21
-47.977618
 31
0.0
  0
LINE
  8
0
 62
     1
 10
-68.283808
 20
9.692507
 30
0.0
 11
-68.283808
 21
-9.692507
 31
0.0
  0
LINE
  8
0
 62
     1
 10
-49.545648
 20
47.977618
 30
0.0
 11
-60.939874
 21
32.294812
 31
0.0
  0
LINE
  8
0
 62
     1
 10
-11.882735
 20
67.93691
 30
0.0
 11
-30.318979
 21
61.946611
 31
0.0
  0
ARC
  8
0
 62
     1
 10
-12.448821
 20
69.679143
 30
0.0
 40
1.831893
 50
288.0
 51
351.0
  0
LINE
  8
0
 62
     1
 10
-10.414529
 20
70.812869
 30
0.0
 11
-10.639482
 21
69.392572
 31
0.0
  0
LINE
  8
0
 62
     1
 10
10.639482
 20
69.392572
 30
0.0
 11
10.414529
 21
70.812869
 31
0.0
  0
ARC
  8
0
 62
     1
 10
12.448821
 20
69.679143
 30
0.0
 40
1.831893
 50
189.0
 51
252.0
  0
LINE
  8
0
 62
     1
 10
30.318979
 20
61.946611
 30
0.0
 11
11.882735
 21
67.93691
 31
0.0
  0
POLYLINE
  8
0
 62
     1
 66
     1
 10
0.0
 20
0.0
 30
0.0
 70
     1
  0
VERTEX
  8
0
 62
     1
 10
38.786389
 20
71.772042
 30
0.0
  0
VERTEX
  8
0
 62
     1
 10
35.133505
 20
68.119158
 30
0.0
 42
-0.282029
  0
VERTEX
  8
0
 62
     1
 10
33.101257
 20
67.631258
 30
0.0
  0
VERTEX
  8
0
 62
     1
 10
12.973176
 20
74.171268
 30
0.0
 42
-0.282029
  0
VERTEX
  8
0
 62
     1
 10
11.615834
 20
75.760512
 30
0.0
  0
VERTEX
  8
0
 62
     1
 10
10.8077
 20
80.862869
 30
0.0
 42
0.368919
  0
VERTEX
  8
0
 62
     1
 10
8.832323
 20
82.55
 30
0.0
  0
VERTEX
  8
0
 62
     1
 10
-8.832323
 20
82.55
 30
0.0
 42
0.368919
  0
VERTEX
  8
0
 62
     1
 10
-10.8077
 20
80.862869
 30
0.0
  0
VERTEX
  8
0
 62
     1
 10
-11.615834
 20
75.760512
 30
0.0
 42
-0.282029
  0
VERTEX
  8
0
 62
     1
 10
-12.973176
 20
74.171268
 30
0.0
  0
VERTEX
  8
0
 62
     1
 10
-33.101257
 20
67.631258
 30
0.0
 42
-0.282029
  0
VERTEX
  8
0
 62
     1
 10
-35.133505
 20
68.119158
 30
0.0
  0
VERTEX
  8
0
 62
     1
 10
-38.786389
 20
71.772042
 30
0.0
 42
0.368919
  0
VERTEX
  8
0
 62
     1
 10
-41.376173
 20
71.975862
 30
0.0
  0
VERTEX
  8
0
 62
     1
 10
-55.667172
 20
61.592844
 30
0.0
 42
0.368919
  0
VERTEX
  8
0
 62
     1
 10
-56.273615
 20
59.066829
 30
0.0
  0
VERTEX
  8
0
 62
     1
 10
-53.928319
 20
54.463926
 30
0.0
 42
-0.282029
  0
VERTEX
  8
0
 62
     1
 10
-54.092298
 20
52.380375
 30
0.0
  0
VERTEX
  8
0
 62
     1
 10
-66.532136
 20
35.258406
 30
0.0
 42
-0.282029
  0
VERTEX
  8
0
 62
     1
 10
-68.463039
 20
34.4586
 30
0.0
  0
VERTEX
  8
0
 62
     1
 10
-73.565396
 20
35.266734
 30
0.0
 42
0.368919
  0
VERTEX
  8
0
 62
     1
 10
-75.780377
 20
33.909391
 30
0.0
  0
VERTEX
  8
0
 62
     1
 10
-81.239053
 20
17.109314
 30
0.0
 42
0.368919
  0
VERTEX
  8
0
 62
     1
 10
-80.244921
 20
14.709267
 30
0.0
  0
VERTEX
  8
0
 62
     1
 10
-75.642019
 20
12.363971
 30
0.0
 42
-0.282029
  0
VERTEX
  8
0
 62
     1
 10
-74.55
 20
10.581958
 30
0.0
  0
VERTEX
  8
0
 62
     1
 10
-74.55
 20
-10.581958
 30
0.0
 42
-0.282029
  0
VERTEX
  8
0
 62
     1
 10
-75.642019
 20
-12.363971
 30
0.0
  0
VERTEX
  8
0
 62
     1
 10
-80.244921
 20
-14.709267
 30
0.0
 42
0.368919
  0
VERTEX
  8
0
 62
     1
 10
-81.239053
 20
-17.109314
 30
0.0
  0
VERTEX
  8
0
 62
     1
 10
-75.780377
 20
-33.909391
 30
0.0
 42
0.368919
  0
VERTEX
  8
0
 62
     1
 10
-73.565396
 20
-35.266734
 30
0.0
  0
VERTEX
  8
0
 62
     1
 10
-68.463039
 20
-34.4586
 30
0.0
 42
-0.282029
  0
VERTEX
  8
0
 62
     1
 10
-66.532136
 20
-35.258406
 30
0.0
  0
VERTEX
  8
0
 62
     1
 10
-54.092298
 20
-52.380375
 30
0.0
 42
-0.282029
  0
VERTEX
  8
0
 62
     1
 10
-53.928319
 20
-54.463926
 30
0.0
  0
VERTEX
  8
0
 62
     1
 10
-56.273615
 20
-59.066829
 30
0.0
 42
0.368919
  0
VERTEX
  8
0
 62
     1
 10
-55.667172
 20
-61.592844
 30
0.0
  0
VERTEX
  8
0
 62
     1
 10
-41.376173
 20
-71.975862
 30
0.0
 42
0.368919
  0
VERTEX
  8
0
 62
     1
 10
-38.786389
 20
-71.772042
 30
0.0
  0
VERTEX
  8
0
 62
     1
 10
-35.133505
 20
-68.119158
 30
0.0
 42
-0.282029
  0
VERTEX
  8
0
 62
     1
 10
-33.101257
 20
-67.631258
 30
0.0
  0
VERTEX
  8
0
 62
     1
 10
-12.973176
 20
-74.171268
 30
0.0
 42
-0.282029
  0
VERTEX
  8
0
 62
     1
 10
-11.615834
 20
-75.760512
 30
0.0
  0
VERTEX
  8
0
 62
     1
 10
-10.8077
 20
-80.862869
 30
0.0
 42
0.368919
  0
VERTEX
  8
0
 62
     1
 10
-8.832323
 20
-82.55
 30
0.0
  0
VERTEX
  8
0
 62
     1
 10
8.832323
 20
-82.55
 30
0.0
 42
0.368919
  0
VERTEX
  8
0
 62
     1
 10
10.8077
 20
-80.862869
 30
0.0
  0
VERTEX
  8
0
 62
     1
 10
11.615834
 20
-75.760512
 30
0.0
 42
-0.282029
  0
VERTEX
  8
0
 62
     1
 10
12.973176
 20
-74.171268
 30
0.0
  0
VERTEX
  8
0
 62
     1
 10
33.101257
 20
-67.631258
 30
0.0
 42
-0.282029
  0
VERTEX
  8
0
 62
     1
 10
35.133505
 20
-68.119158
 30
0.0
  0
VERTEX
  8
0
 62
     1
 10
38.786389
 20
-71.772042
 30
0.0
 42
0.368919
  0
VERTEX
  8
0
 62
     1
 10
41.376173
 20
-71.975862
 30
0.0
  0
VERTEX
  8
0
 62
     1
 10
55.667172
 20
-61.592844
 30
0.0
 42
0.368919
  0
VERTEX
  8
0
 62
     1
 10
56.273615
 20
-59.066829
 30
0.0
  0
VERTEX
  8
0
 62
     1
 10
53.928319
 20
-54.463926
 30
0.0
 42
-0.282029
  0
VERTEX
  8
0
 62
     1
 10
54.092298
 20
-52.380375
 30
0.0
  0
VERTEX
  8
0
 62
     1
 10
66.532136
 20
-35.258406
 30
0.0
 42
-0.282029
  0
VERTEX
  8
0
 62
     1
 10
68.463039
 20
-34.4586
 30
0.0
  0
VERTEX
  8
0
 62
     1
 10
73.565396
 20
-35.266734
 30
0.0
 42
0.368919
  0
VERTEX
  8
0
 62
     1
 10
75.780377
 20
-33.909391
 30
0.0
  0
VERTEX
  8
0
 62
     1
 10
81.239053
 20
-17.109314
 30
0.0
 42
0.368919
  0
VERTEX
  8
0
 62
     1
 10
80.244921
 20
-14.709267
 30
0.0
  0
VERTEX
  8
0
 62
     1
 10
75.642019
 20
-12.363971
 30
0.0
 42
-0.282029
  0
VERTEX
  8
0
 62
     1
 10
74.55
 20
-10.581958
 30
0.0
  0
VERTEX
  8
0
 62
     1
 10
74.55
 20
10.581958
 30
0.0
 42
-0.282029
  0
VERTEX
  8
0
 62
     1
 10
75.642019
 20
12.363971
 30
0.0
  0
VERTEX
  8
0
 62
     1
 10
80.244921
 20
14.709267
 30
0.0
 42
0.368919
  0
VERTEX
  8
0
 62
     1
 10
81.239053
 20
17.109314
 30
0.0
  0
VERTEX
  8
0
 62
     1
 10
75.780377
 20
33.909391
 30
0.0
 42
0.368919
  0
VERTEX
  8
0
 62
     1
 10
73.565396
 20
35.266734
 30
0.0
  0
VERTEX
  8
0
 62
     1
 10
68.463039
 20
34.4586
 30
0.0
 42
-0.282029
  0
VERTEX
  8
0
 62
     1
 10
66.532136
 20
35.258406
 30
0.0
  0
VERTEX
  8
0
 62
     1
 10
54.092298
 20
52.380375
 30
0.0
 42
-0.282029
  0
VERTEX
  8
0
 62
     1
 10
53.928319
 20
54.463926
 30
0.0
  0
VERTEX
  8
0
 62
     1
 10
56.273615
 20
59.066829
 30
0.0
 42
0.368919
  0
VERTEX
  8
0
 62
     1
 10
55.667172
 20
61.592844
 30
0.0
  0
VERTEX
  8
0
 62
     1
 10
41.376173
 20
71.975862
 30
0.0
  0
SEQEND
  8
0
 62
     1
  0
ENDBLK
  8
0
  0
BLOCK
  8
0
  2
93BB
 70
    64
 10
0.0
 20
0.0
 30
0.0
  0
LINE
  8
0
 62
     1
 10
38.0
 20
25.0
 30
0.0
 11
38.0
 21
-25.0
 31
0.0
  0
LINE
  8
0
 62
     1
 10
11.0
 20
-25.0
 30
0.0
 11
38.0
 21
-25.0
 31
0.0
  0
LINE
  8
0
 62
     1
 10
11.0
 20
25.0
 30
0.0
 11
38.0
 21
25.0
 31
0.0
  0
LINE
  8
0
  6
HIDDEN
 62
     1
 10
0.0
 20
12.5
 30
0.0
 11
38.0
 21
12.5
 31
0.0
  0
LINE
  8
0
  6
HIDDEN
 62
     1
 10
0.0
 20
-12.5
 30
0.0
 11
38.0
 21
-12.5
 31
0.0
  0
LINE
  8
0
 62
     1
 10
9.0
 20
-60.4417
 30
0.0
 11
9.0
 21
-72.351663
 31
0.0
  0
LINE
  8
0
 62
     1
 10
2.0
 20
-60.4417
 30
0.0
 11
2.0
 21
-72.351663
 31
0.0
  0
LINE
  8
0
 62
     1
 10
9.0
 20
-15.725914
 30
0.0
 11
9.0
 21
-34.996638
 31
0.0
  0
LINE
  8
0
 62
     1
 10
2.0
 20
-15.725914
 30
0.0
 11
2.0
 21
-34.996638
 31
0.0
  0
LINE
  8
0
 62
     1
 10
9.0
 20
34.996638
 30
0.0
 11
9.0
 21
15.725914
 31
0.0
  0
LINE
  8
0
 62
     1
 10
2.0
 20
34.996638
 30
0.0
 11
2.0
 21
15.725914
 31
0.0
  0
LINE
  8
0
 62
     1
 10
9.0
 20
72.351663
 30
0.0
 11
9.0
 21
60.4417
 31
0.0
  0
LINE
  8
0
 62
     1
 10
2.0
 20
72.351663
 30
0.0
 11
2.0
 21
60.4417
 31
0.0
  0
LINE
  8
0
 62
     1
 10
0.0
 20
-74.774485
 30
0.0
 11
11.0
 21
-74.774485
 31
0.0
  0
LINE
  8
0
 62
     1
 10
0.0
 20
-72.351663
 30
0.0
 11
11.0
 21
-72.351663
 31
0.0
  0
LINE
  8
0
 62
     1
 10
0.0
 20
-60.4417
 30
0.0
 11
11.0
 21
-60.4417
 31
0.0
  0
LINE
  8
0
 62
     1
 10
0.0
 20
-53.399027
 30
0.0
 11
11.0
 21
-53.399027
 31
0.0
  0
LINE
  8
0
 62
     1
 10
0.0
 20
-35.258406
 30
0.0
 11
11.0
 21
-35.258406
 31
0.0
  0
LINE
  8
0
 62
     1
 10
0.0
 20
-34.996638
 30
0.0
 11
11.0
 21
-34.996638
 31
0.0
  0
LINE
  8
0
 62
     1
 10
0.0
 20
-15.725914
 30
0.0
 11
11.0
 21
-15.725914
 31
0.0
  0
LINE
  8
0
 62
     1
 10
0.0
 20
-11.626956
 30
0.0
 11
11.0
 21
-11.626956
 31
0.0
  0
LINE
  8
0
 62
     1
 10
0.0
 20
11.626956
 30
0.0
 11
11.0
 21
11.626956
 31
0.0
  0
LINE
  8
0
 62
     1
 10
0.0
 20
15.725914
 30
0.0
 11
11.0
 21
15.725914
 31
0.0
  0
LINE
  8
0
 62
     1
 10
0.0
 20
34.996638
 30
0.0
 11
11.0
 21
34.996638
 31
0.0
  0
LINE
  8
0
 62
     1
 10
0.0
 20
53.399027
 30
0.0
 11
11.0
 21
53.399027
 31
0.0
  0
LINE
  8
0
 62
     1
 10
0.0
 20
60.4417
 30
0.0
 11
11.0
 21
60.4417
 31
0.0
  0
LINE
  8
0
 62
     1
 10
0.0
 20
72.351663
 30
0.0
 11
11.0
 21
72.351663
 31
0.0
  0
LINE
  8
0
 62
     1
 10
0.0
 20
74.774485
 30
0.0
 11
11.0
 21
74.774485
 31
0.0
  0
LINE
  8
0
 62
     1
 10
11.0
 20
82.55
 30
0.0
 11
11.0
 21
-82.55
 31
0.0
  0
LINE
  8
0
 62
     1
 10
0.0
 20
82.55
 30
0.0
 11
0.0
 21
-82.55
 31
0.0
  0
LINE
  8
0
 62
     1
 10
0.0
 20
-82.55
 30
0.0
 11
11.0
 21
-82.55
 31
0.0
  0
LINE
  8
0
 62
     1
 10
0.0
 20
82.55
 30
0.0
 11
11.0
 21
82.55
 31
0.0
  0
ENDBLK
  8
0
  0
ENDSEC
  0
SECTION
  2
ENTITIES
  0
INSERT
  8
0
  2
93AA
 10
0.0
 20
0.0
 30
0.0
  0
INSERT
  8
0
  2
93BB
 10
120.0
 20
0.0
 30
0.0
  0
ENDSEC
  0
EOF
