  0
SECTION
  2
HEADER
  9
$ACADVER
  1
AC1014
  9
$ACADMAINTVER
 70
     9
  9
$DWGCODEPAGE
  3
ANSI_1252
  9
$INSBASE
 10
0.0
 20
0.0
 30
0.0
  9
$EXTMIN
 10
-185.975
 20
-143.85
 30
0.0
  9
$EXTMAX
 10
47.475
 20
8.799999999999997
 30
0.0
  9
$LIMMIN
 10
0.0
 20
0.0
  9
$LIMMAX
 10
0.0
 20
0.0
  9
$ORTHOMODE
 70
     0
  9
$REGENMODE
 70
     1
  9
$FILLMODE
 70
     1
  9
$QTEXTMODE
 70
     0
  9
$MIRRTEXT
 70
     1
  9
$DRAGMODE
 70
     2
  9
$LTSCALE
 40
1.959751999999999
  9
$OSMODE
 70
    37
  9
$ATTMODE
 70
     1
  9
$TEXTSIZE
 40
0.0
  9
$TRACEWID
 40
0.05
  9
$TEXTSTYLE
  7
STANDARD
  9
$CLAYER
  8
0
  9
$CELTYPE
  6
CONTINUOUS
  9
$CECOLOR
 62
   256
  9
$CELTSCALE
 40
1.0
  9
$DELOBJ
 70
     1
  9
$DISPSILH
 70
     0
  9
$DIMSCALE
 40
1.0
  9
$DIMASZ
 40
0.18
  9
$DIMEXO
 40
0.0625
  9
$DIMDLI
 40
0.38
  9
$DIMRND
 40
0.0
  9
$DIMDLE
 40
0.0
  9
$DIMEXE
 40
0.18
  9
$DIMTP
 40
0.0
  9
$DIMTM
 40
0.0
  9
$DIMTXT
 40
0.18
  9
$DIMCEN
 40
0.09
  9
$DIMTSZ
 40
0.0
  9
$DIMTOL
 70
     0
  9
$DIMLIM
 70
     0
  9
$DIMTIH
 70
     1
  9
$DIMTOH
 70
     1
  9
$DIMSE1
 70
     0
  9
$DIMSE2
 70
     0
  9
$DIMTAD
 70
     0
  9
$DIMZIN
 70
     0
  9
$DIMBLK
  1

  9
$DIMASO
 70
     1
  9
$DIMSHO
 70
     1
  9
$DIMPOST
  1

  9
$DIMAPOST
  1

  9
$DIMALT
 70
     0
  9
$DIMALTD
 70
     2
  9
$DIMALTF
 40
25.4
  9
$DIMLFAC
 40
1.0
  9
$DIMTOFL
 70
     0
  9
$DIMTVP
 40
0.0
  9
$DIMTIX
 70
     0
  9
$DIMSOXD
 70
     0
  9
$DIMSAH
 70
     0
  9
$DIMBLK1
  1

  9
$DIMBLK2
  1

  9
$DIMSTYLE
  2
STANDARD
  9
$DIMCLRD
 70
     0
  9
$DIMCLRE
 70
     0
  9
$DIMCLRT
 70
     0
  9
$DIMTFAC
 40
1.0
  9
$DIMGAP
 40
0.09
  9
$DIMJUST
 70
     0
  9
$DIMSD1
 70
     0
  9
$DIMSD2
 70
     0
  9
$DIMTOLJ
 70
     1
  9
$DIMTZIN
 70
     0
  9
$DIMALTZ
 70
     0
  9
$DIMALTTZ
 70
     0
  9
$DIMFIT
 70
     5
  9
$DIMUPT
 70
     0
  9
$DIMUNIT
 70
     2
  9
$DIMDEC
 70
     4
  9
$DIMTDEC
 70
     4
  9
$DIMALTU
 70
     2
  9
$DIMALTTD
 70
     2
  9
$DIMTXSTY
  7
STANDARD
  9
$DIMAUNIT
 70
     0
  9
$LUNITS
 70
     2
  9
$LUPREC
 70
     4
  9
$SKETCHINC
 40
0.1
  9
$FILLETRAD
 40
0.0
  9
$AUNITS
 70
     0
  9
$AUPREC
 70
     0
  9
$MENU
  1
acad
  9
$ELEVATION
 40
0.0
  9
$PELEVATION
 40
0.0
  9
$THICKNESS
 40
0.0
  9
$LIMCHECK
 70
     0
  9
$BLIPMODE
 70
     0
  9
$CHAMFERA
 40
0.0
  9
$CHAMFERB
 40
0.0
  9
$CHAMFERC
 40
0.0
  9
$CHAMFERD
 40
0.0
  9
$SKPOLY
 70
     0
  9
$TDCREATE
 40
2444975.083333333
  9
$TDUPDATE
 40
2452495.410213530
  9
$TDINDWG
 40
0.0015502662
  9
$TDUSRTIMER
 40
0.0015502662
  9
$USRTIMER
 70
     1
  9
$ANGBASE
 50
0.0
  9
$ANGDIR
 70
     0
  9
$PDMODE
 70
     0
  9
$PDSIZE
 40
0.0
  9
$PLINEWID
 40
0.0
  9
$COORDS
 70
     1
  9
$SPLFRAME
 70
     0
  9
$SPLINETYPE
 70
     6
  9
$SPLINESEGS
 70
     8
  9
$ATTDIA
 70
     0
  9
$ATTREQ
 70
     1
  9
$HANDLING
 70
  4097
  9
$HANDSEED
  5
6A4
  9
$SURFTAB1
 70
     6
  9
$SURFTAB2
 70
     6
  9
$SURFTYPE
 70
     6
  9
$SURFU
 70
     6
  9
$SURFV
 70
     6
  9
$UCSNAME
  2

  9
$UCSORG
 10
0.0
 20
0.0
 30
0.0
  9
$UCSXDIR
 10
1.0
 20
0.0
 30
0.0
  9
$UCSYDIR
 10
0.0
 20
1.0
 30
0.0
  9
$PUCSNAME
  2

  9
$PUCSORG
 10
0.0
 20
0.0
 30
0.0
  9
$PUCSXDIR
 10
1.0
 20
0.0
 30
0.0
  9
$PUCSYDIR
 10
0.0
 20
1.0
 30
0.0
  9
$USERI1
 70
     0
  9
$USERI2
 70
     0
  9
$USERI3
 70
     0
  9
$USERI4
 70
     0
  9
$USERI5
 70
     0
  9
$USERR1
 40
0.0
  9
$USERR2
 40
0.0
  9
$USERR3
 40
0.0
  9
$USERR4
 40
0.0
  9
$USERR5
 40
0.0
  9
$WORLDVIEW
 70
     1
  9
$SHADEDGE
 70
     3
  9
$SHADEDIF
 70
    70
  9
$TILEMODE
 70
     1
  9
$MAXACTVP
 70
    16
  9
$PINSBASE
 10
0.0
 20
0.0
 30
0.0
  9
$PLIMCHECK
 70
     0
  9
$PEXTMIN
 10
1.000000000000000E+20
 20
1.000000000000000E+20
 30
1.000000000000000E+20
  9
$PEXTMAX
 10
-1.000000000000000E+20
 20
-1.000000000000000E+20
 30
-1.000000000000000E+20
  9
$PLIMMIN
 10
0.0
 20
0.0
  9
$PLIMMAX
 10
12.0
 20
9.0
  9
$UNITMODE
 70
     0
  9
$VISRETAIN
 70
     0
  9
$PLINEGEN
 70
     1
  9
$PSLTSCALE
 70
     0
  9
$TREEDEPTH
 70
  3020
  9
$PICKSTYLE
 70
     1
  9
$CMLSTYLE
  2
STANDARD
  9
$CMLJUST
 70
     0
  9
$CMLSCALE
 40
1.0
  9
$PROXYGRAPHICS
 70
     1
  9
$MEASUREMENT
 70
     0
  0
ENDSEC
  0
SECTION
  2
CLASSES
  0
CLASS
  1
ACDBDICTIONARYWDFLT
  2
AcDbDictionaryWithDefault
  3
AutoCAD 2000
 90
        0
280
     0
281
     0
  0
CLASS
  1
ACDBPLACEHOLDER
  2
AcDbPlaceHolder
  3
AutoCAD 2000
 90
        0
280
     0
281
     0
  0
CLASS
  1
LAYOUT
  2
AcDbLayout
  3
AutoCAD 2000
 90
        0
280
     0
281
     0
  0
CLASS
  1
LONG_TRANSACTION
  2
AcDbLongTransaction
  3
AutoCAD 2000
 90
        0
280
     0
281
     0
  0
CLASS
  1
LWPOLYLINE
  2
AcDbPolyline
  3
AutoCAD 2000
 90
        0
280
     0
281
     1
  0
CLASS
  1
HATCH
  2
AcDbHatch
  3
AutoCAD 2000
 90
        0
280
     0
281
     1
  0
CLASS
  1
XRECORD
  2
AcDbXrecord
  3
AutoCAD 2000
 90
        0
280
     0
281
     0
  0
CLASS
  1
LONG_TRANSACTION
  2
AcDbLongTransaction
  3
AutoCAD 2000
 90
        0
280
     0
281
     0
  0
CLASS
  1
LWPOLYLINE
  2
AcDbPolyline
  3
AutoCAD 2000
 90
        0
280
     0
281
     1
  0
CLASS
  1
HATCH
  2
AcDbHatch
  3
AutoCAD 2000
 90
        0
280
     0
281
     1
  0
CLASS
  1
XRECORD
  2
AcDbXrecord
  3
AutoCAD 2000
 90
        0
280
     0
281
     0
  0
ENDSEC
  0
SECTION
  2
TABLES
  0
TABLE
  2
VPORT
  5
5B6
330
0
100
AcDbSymbolTable
 70
     2
  0
VPORT
  5
680
330
5B6
100
AcDbSymbolTableRecord
100
AcDbViewportTableRecord
  2
*ACTIVE
 70
     0
 10
0.0
 20
0.0
 11
1.0
 21
1.0
 12
-69.25000000000003
 22
-67.52500000000001
 13
0.0
 23
0.0
 14
1.0
 24
1.0
 15
0.0
 25
0.0
 16
0.0
 26
0.0
 36
1.0
 17
0.0
 27
0.0
 37
0.0
 40
155.3758928571429
 41
2.080597014925372
 42
50.0
 43
0.0
 44
0.0
 50
0.0
 51
0.0
 71
     0
 72
   100
 73
     1
 74
     1
 75
     0
 76
     0
 77
     0
 78
     0
  0
ENDTAB
  0
TABLE
  2
LTYPE
  5
5B3
330
0
100
AcDbSymbolTable
 70
     9
  0
LTYPE
  5
5C1
330
5B3
100
AcDbSymbolTableRecord
100
AcDbLinetypeTableRecord
  2
BYBLOCK
 70
     0
  3

 72
    65
 73
     0
 40
0.0
  0
LTYPE
  5
5C2
330
5B3
100
AcDbSymbolTableRecord
100
AcDbLinetypeTableRecord
  2
BYLAYER
 70
     0
  3

 72
    65
 73
     0
 40
0.0
  0
LTYPE
  5
5C3
330
5B3
100
AcDbSymbolTableRecord
100
AcDbLinetypeTableRecord
  2
CONTINUOUS
 70
     0
  3
Solid Line
 72
    65
 73
     0
 40
0.0
  0
LTYPE
  5
5E4
330
5B3
100
AcDbSymbolTableRecord
100
AcDbLinetypeTableRecord
  2
MCDASH1
 70
     0
  3
MiniCad+ Generated
 72
    65
 73
     2
 40
2.116537
 49
1.058075
 74
     0
 49
-1.058462999999999
 74
     0
  0
LTYPE
  5
5E5
330
5B3
100
AcDbSymbolTableRecord
100
AcDbLinetypeTableRecord
  2
MCDASH2
 70
     0
  3
MiniCad+ Generated
 72
    65
 73
     2
 40
3.527692
 49
2.469228999999999
 74
     0
 49
-1.058462999999999
 74
     0
  0
LTYPE
  5
5E6
330
5B3
100
AcDbSymbolTableRecord
100
AcDbLinetypeTableRecord
  2
MCDASH3
 70
     0
  3
MiniCad+ Generated
 72
    65
 73
     2
 40
6.349999999999999
 49
5.291536999999999
 74
     0
 49
-1.058462999999999
 74
     0
  0
LTYPE
  5
5E7
330
5B3
100
AcDbSymbolTableRecord
100
AcDbLinetypeTableRecord
  2
MCDASH4
 70
     0
  3
MiniCad+ Generated
 72
    65
 73
     2
 40
7.760767
 49
6.702691999999999
 74
     0
 49
-1.058075
 74
     0
  0
LTYPE
  5
5E8
330
5B3
100
AcDbSymbolTableRecord
100
AcDbLinetypeTableRecord
  2
MCDASH5
 70
     0
  3
MiniCad+ Generated
 72
    65
 73
     2
 40
1.058075
 49
0.352692
 74
     0
 49
-0.705383
 74
     0
  0
LTYPE
  5
5E9
330
5B3
100
AcDbSymbolTableRecord
100
AcDbLinetypeTableRecord
  2
MCDASH6
 70
     0
  3
MiniCad+ Generated
 72
    65
 73
     4
 40
5.291536999999999
 49
3.174999999999999
 74
     0
 49
-1.058075
 74
     0
 49
0.352692
 74
     0
 49
-0.7057710000000001
 74
     0
  0
LTYPE
  5
5EA
330
5B3
100
AcDbSymbolTableRecord
100
AcDbLinetypeTableRecord
  2
MCDASH7
 70
     0
  3
MiniCad+ Generated
 72
    65
 73
     6
 40
9.525
 49
3.174999999999999
 74
     0
 49
-1.058075
 74
     0
 49
3.174999999999999
 74
     0
 49
-1.058462999999999
 74
     0
 49
0.352692
 74
     0
 49
-0.7057710000000001
 74
     0
  0
LTYPE
  5
5EB
330
5B3
100
AcDbSymbolTableRecord
100
AcDbLinetypeTableRecord
  2
MCDASH8
 70
     0
  3
MiniCad+ Generated
 72
    65
 73
     6
 40
6.349999999999999
 49
3.174999999999999
 74
     0
 49
-1.058075
 74
     0
 49
0.352692
 74
     0
 49
-0.7057710000000001
 74
     0
 49
0.352692
 74
     0
 49
-0.7057710000000001
 74
     0
  0
ENDTAB
  0
TABLE
  2
LAYER
  5
5B0
330
0
100
AcDbSymbolTable
 70
     4
  0
LAYER
  5
5BE
330
5B0
100
AcDbSymbolTableRecord
100
AcDbLayerTableRecord
  2
0
 70
     0
 62
     0
  6
CONTINUOUS
  0
LAYER
  5
5EE
330
5B0
100
AcDbSymbolTableRecord
100
AcDbLayerTableRecord
  2
PROFILI
 70
     0
 62
     0
  6
CONTINUOUS
  0
LAYER
  5
5EF
330
5B0
100
AcDbSymbolTableRecord
100
AcDbLayerTableRecord
  2
FISSAGGI
 70
     0
 62
     2
  6
CONTINUOUS
  0
LAYER
  5
5F0
330
5B0
100
AcDbSymbolTableRecord
100
AcDbLayerTableRecord
  2
PANNELLI
 70
     0
 62
     6
  6
CONTINUOUS
  0
ENDTAB
  0
TABLE
  2
STYLE
  5
5B1
330
0
100
AcDbSymbolTable
 70
     1
  0
STYLE
  5
5BF
330
5B1
100
AcDbSymbolTableRecord
100
AcDbTextStyleTableRecord
  2
STANDARD
 70
     0
 40
0.0
 41
1.0
 50
0.0
 71
     0
 42
0.0
  3
txt
  4

  0
ENDTAB
  0
TABLE
  2
VIEW
  5
5B4
330
0
100
AcDbSymbolTable
 70
     0
  0
ENDTAB
  0
TABLE
  2
UCS
  5
5B5
330
0
100
AcDbSymbolTable
 70
     0
  0
ENDTAB
  0
TABLE
  2
APPID
  5
5B7
330
0
100
AcDbSymbolTable
 70
     1
  0
APPID
  5
5C0
330
5B7
100
AcDbSymbolTableRecord
100
AcDbRegAppTableRecord
  2
ACAD
 70
     0
  0
ENDTAB
  0
TABLE
  2
DIMSTYLE
  5
5B8
330
0
100
AcDbSymbolTable
 70
     1
  0
DIMSTYLE
105
5ED
330
5B8
100
AcDbSymbolTableRecord
100
AcDbDimStyleTableRecord
  2
STANDARD
 70
     0
  3

  4

  5

  6

  7

 40
1.0
 41
0.18
 42
0.0625
 43
0.38
 44
0.18
 45
0.0
 46
0.0
 47
0.0
 48
0.0
140
0.18
141
0.09
142
0.0
143
25.4
144
1.0
145
0.0
146
1.0
147
0.09
 71
     0
 72
     0
 73
     1
 74
     1
 75
     0
 76
     0
 77
     0
 78
     0
170
     0
171
     2
172
     0
173
     0
174
     0
175
     0
176
     0
177
     0
178
     0
270
     2
271
     4
272
     4
273
     2
274
     2
340
5BF
275
     0
280
     0
281
     0
282
     0
283
     1
284
     0
285
     0
286
     0
287
     5
288
     0
  0
ENDTAB
  0
TABLE
  2
BLOCK_RECORD
  5
5AF
330
0
100
AcDbSymbolTable
 70
    20
  0
BLOCK_RECORD
  5
5CC
102
{ACAD_XDICTIONARY
360
64A
102
}
330
5AF
100
AcDbSymbolTableRecord
100
AcDbBlockTableRecord
  2
*MODEL_SPACE
  0
BLOCK_RECORD
  5
5C8
102
{ACAD_XDICTIONARY
360
64C
102
}
330
5AF
100
AcDbSymbolTableRecord
100
AcDbBlockTableRecord
  2
*PAPER_SPACE
  0
BLOCK_RECORD
  5
5D0
330
5AF
100
AcDbSymbolTableRecord
100
AcDbBlockTableRecord
  2
$ARROW1$
  0
BLOCK_RECORD
  5
5D1
330
5AF
100
AcDbSymbolTableRecord
100
AcDbBlockTableRecord
  2
$ARROW2$
  0
BLOCK_RECORD
  5
5D2
330
5AF
100
AcDbSymbolTableRecord
100
AcDbBlockTableRecord
  2
$ARROW3$
  0
BLOCK_RECORD
  5
5D3
330
5AF
100
AcDbSymbolTableRecord
100
AcDbBlockTableRecord
  2
$ARROW4$
  0
BLOCK_RECORD
  5
5D4
330
5AF
100
AcDbSymbolTableRecord
100
AcDbBlockTableRecord
  2
$ARROW5$
  0
BLOCK_RECORD
  5
5D5
330
5AF
100
AcDbSymbolTableRecord
100
AcDbBlockTableRecord
  2
__25
  0
BLOCK_RECORD
  5
5D6
330
5AF
100
AcDbSymbolTableRecord
100
AcDbBlockTableRecord
  2
__30
  0
BLOCK_RECORD
  5
5D7
330
5AF
100
AcDbSymbolTableRecord
100
AcDbBlockTableRecord
  2
__35
  0
BLOCK_RECORD
  5
5D8
330
5AF
100
AcDbSymbolTableRecord
100
AcDbBlockTableRecord
  2
__40
  0
BLOCK_RECORD
  5
5D9
330
5AF
100
AcDbSymbolTableRecord
100
AcDbBlockTableRecord
  2
__45
  0
BLOCK_RECORD
  5
5DA
330
5AF
100
AcDbSymbolTableRecord
100
AcDbBlockTableRecord
  2
__50
  0
BLOCK_RECORD
  5
5DB
330
5AF
100
AcDbSymbolTableRecord
100
AcDbBlockTableRecord
  2
__60
  0
BLOCK_RECORD
  5
5DC
330
5AF
100
AcDbSymbolTableRecord
100
AcDbBlockTableRecord
  2
__1_
  0
BLOCK_RECORD
  5
5DD
330
5AF
100
AcDbSymbolTableRecord
100
AcDbBlockTableRecord
  2
_1_1_2_
  0
BLOCK_RECORD
  5
5DE
330
5AF
100
AcDbSymbolTableRecord
100
AcDbBlockTableRecord
  2
_1_3_4_
  0
BLOCK_RECORD
  5
5DF
330
5AF
100
AcDbSymbolTableRecord
100
AcDbBlockTableRecord
  2
__2_
  0
BLOCK_RECORD
  5
5E0
330
5AF
100
AcDbSymbolTableRecord
100
AcDbBlockTableRecord
  2
__1_1_4_
  0
BLOCK_RECORD
  5
5E1
330
5AF
100
AcDbSymbolTableRecord
100
AcDbBlockTableRecord
  2
BORDER
  0
BLOCK_RECORD
  5
5E2
330
5AF
100
AcDbSymbolTableRecord
100
AcDbBlockTableRecord
  2
324A
  0
BLOCK_RECORD
  5
5E3
330
5AF
100
AcDbSymbolTableRecord
100
AcDbBlockTableRecord
  2
324B
  0
ENDTAB
  0
ENDSEC
  0
SECTION
  2
BLOCKS
  0
BLOCK
  5
5F3
330
5CC
100
AcDbEntity
  8
0
100
AcDbBlockBegin
  2
*MODEL_SPACE
 70
     0
 10
0.0
 20
0.0
 30
0.0
  3
*MODEL_SPACE
  1

  0
ENDBLK
  5
5F4
330
5CC
100
AcDbEntity
  8
0
100
AcDbBlockEnd
  0
BLOCK
  5
5F1
330
5C8
100
AcDbEntity
 67
     1
  8
0
100
AcDbBlockBegin
  2
*PAPER_SPACE
 70
     0
 10
0.0
 20
0.0
 30
0.0
  3
*PAPER_SPACE
  1

  0
ENDBLK
  5
5F2
330
5C8
100
AcDbEntity
 67
     1
  8
0
100
AcDbBlockEnd
  0
BLOCK
  5
3C
330
5D0
100
AcDbEntity
  8
0
100
AcDbBlockBegin
  2
$ARROW1$
 70
     0
 10
0.0
 20
0.0
 30
0.0
  3
$ARROW1$
  1

  0
SOLID
  5
3D
330
5D0
100
AcDbEntity
  8
0
 62
     0
100
AcDbTrace
 10
-25.4
 20
4.317999999999999
 30
0.0
 11
-25.4
 21
-4.317999999999999
 31
0.0
 12
0.0
 22
0.0
 32
0.0
 13
0.0
 23
0.0
 33
0.0
  0
ENDBLK
  5
3E
330
5D0
100
AcDbEntity
  8
0
100
AcDbBlockEnd
  0
BLOCK
  5
3F
330
5D1
100
AcDbEntity
  8
0
100
AcDbBlockBegin
  2
$ARROW2$
 70
     0
 10
0.0
 20
0.0
 30
0.0
  3
$ARROW2$
  1

  0
SOLID
  5
40
330
5D1
100
AcDbEntity
  8
0
 62
     0
100
AcDbTrace
 10
-25.4
 20
12.7
 30
0.0
 11
-25.4
 21
-12.7
 31
0.0
 12
0.0
 22
0.0
 32
0.0
 13
0.0
 23
0.0
 33
0.0
  0
ENDBLK
  5
41
330
5D1
100
AcDbEntity
  8
0
100
AcDbBlockEnd
  0
BLOCK
  5
42
330
5D2
100
AcDbEntity
  8
0
100
AcDbBlockBegin
  2
$ARROW3$
 70
     0
 10
0.0
 20
0.0
 30
0.0
  3
$ARROW3$
  1

  0
LWPOLYLINE
  5
43
330
5D2
100
AcDbEntity
  8
0
  6
BYBLOCK
 62
     0
100
AcDbPolyline
 90
        2
 70
     1
 43
0.5
 10
-6.349999999999999
 20
0.0
 42
1.0
 10
6.349999999999999
 20
0.0
 42
1.0
  0
ENDBLK
  5
47
330
5D2
100
AcDbEntity
  8
0
100
AcDbBlockEnd
  0
BLOCK
  5
48
330
5D3
100
AcDbEntity
  8
0
100
AcDbBlockBegin
  2
$ARROW4$
 70
     0
 10
0.0
 20
0.0
 30
0.0
  3
$ARROW4$
  1

  0
LINE
  5
49
330
5D3
100
AcDbEntity
  8
0
  6
BYBLOCK
 62
     0
100
AcDbLine
 10
12.7
 20
12.7
 30
0.0
 11
-12.7
 21
-12.7
 31
0.0
  0
ENDBLK
  5
4A
330
5D3
100
AcDbEntity
  8
0
100
AcDbBlockEnd
  0
BLOCK
  5
4B
330
5D4
100
AcDbEntity
  8
0
100
AcDbBlockBegin
  2
$ARROW5$
 70
     0
 10
0.0
 20
0.0
 30
0.0
  3
$ARROW5$
  1

  0
LINE
  5
4C
330
5D4
100
AcDbEntity
  8
0
  6
BYBLOCK
 62
     0
100
AcDbLine
 10
12.7
 20
12.7
 30
0.0
 11
-12.7
 21
-12.7
 31
0.0
  0
LINE
  5
4D
330
5D4
100
AcDbEntity
  8
0
  6
BYBLOCK
 62
     0
100
AcDbLine
 10
-12.7
 20
12.7
 30
0.0
 11
12.7
 21
-12.7
 31
0.0
  0
ENDBLK
  5
4E
330
5D4
100
AcDbEntity
  8
0
100
AcDbBlockEnd
  0
BLOCK
  5
4F
330
5D5
100
AcDbEntity
  8
0
100
AcDbBlockBegin
  2
__25
 70
     0
 10
0.0
 20
0.0
 30
0.0
  3
__25
  1

  0
LINE
  5
50
330
5D5
100
AcDbEntity
  8
0
 62
     1
100
AcDbLine
 10
-4.099999999999999
 20
15.84999999999999
 30
0.0
 11
3.9
 21
15.84999999999999
 31
0.0
  0
LINE
  5
51
330
5D5
100
AcDbEntity
  8
0
 62
     1
100
AcDbLine
 10
-4.099999999999999
 20
11.89272
 30
0.0
 11
-4.099999999999999
 21
15.84999999999999
 31
0.0
  0
LINE
  5
52
330
5D5
100
AcDbEntity
  8
0
 62
     1
100
AcDbLine
 10
3.9
 20
11.89272
 30
0.0
 11
3.9
 21
15.84999999999999
 31
0.0
  0
ARC
  5
53
330
5D5
100
AcDbEntity
  8
0
 62
     1
100
AcDbCircle
 10
-0.1
 20
0.05
 30
0.0
 40
12.5
100
AcDbArc
 50
108.666656
 51
71.33332799999999
  0
LINE
  5
54
330
5D5
100
AcDbEntity
  8
0
 62
     0
100
AcDbLine
 10
-3.274999999999999
 20
0.05
 30
0.0
 11
3.075
 21
0.05
 31
0.0
  0
LINE
  5
55
330
5D5
100
AcDbEntity
  8
0
 62
     0
100
AcDbLine
 10
-0.1
 20
-3.125
 30
0.0
 11
-0.1
 21
3.225
 31
0.0
  0
LINE
  5
56
330
5D5
100
AcDbEntity
  8
0
 62
     0
100
AcDbLine
 10
-18.27499999999999
 20
0.05
 30
0.0
 11
-4.862499999999999
 21
0.05
 31
0.0
  0
LINE
  5
57
330
5D5
100
AcDbEntity
  8
0
 62
     0
100
AcDbLine
 10
4.662499999999999
 20
0.05
 30
0.0
 11
18.075
 21
0.05
 31
0.0
  0
LINE
  5
58
330
5D5
100
AcDbEntity
  8
0
 62
     0
100
AcDbLine
 10
-0.1
 20
18.225
 30
0.0
 11
-0.1
 21
4.8125
 31
0.0
  0
LINE
  5
59
330
5D5
100
AcDbEntity
  8
0
 62
     0
100
AcDbLine
 10
-0.1
 20
-4.7125
 30
0.0
 11
-0.1
 21
-18.125
 31
0.0
  0
ENDBLK
  5
5A
330
5D5
100
AcDbEntity
  8
0
100
AcDbBlockEnd
  0
BLOCK
  5
5B
330
5D6
100
AcDbEntity
  8
0
100
AcDbBlockBegin
  2
__30
 70
     0
 10
0.0
 20
0.0
 30
0.0
  3
__30
  1

  0
LINE
  5
5C
330
5D6
100
AcDbEntity
  8
0
 62
     0
100
AcDbLine
 10
-3.174999999999999
 20
0.0
 30
0.0
 11
3.174999999999999
 21
0.0
 31
0.0
  0
LINE
  5
5D
330
5D6
100
AcDbEntity
  8
0
 62
     0
100
AcDbLine
 10
0.0
 20
-3.174999999999999
 30
0.0
 11
0.0
 21
3.174999999999999
 31
0.0
  0
LINE
  5
5E
330
5D6
100
AcDbEntity
  8
0
 62
     0
100
AcDbLine
 10
-18.175
 20
0.0
 30
0.0
 11
-4.7625
 21
0.0
 31
0.0
  0
LINE
  5
5F
330
5D6
100
AcDbEntity
  8
0
 62
     0
100
AcDbLine
 10
4.7625
 20
0.0
 30
0.0
 11
18.175
 21
0.0
 31
0.0
  0
LINE
  5
60
330
5D6
100
AcDbEntity
  8
0
 62
     0
100
AcDbLine
 10
0.0
 20
19.9
 30
0.0
 11
0.0
 21
4.7625
 31
0.0
  0
LINE
  5
61
330
5D6
100
AcDbEntity
  8
0
 62
     0
100
AcDbLine
 10
0.0
 20
-4.7625
 30
0.0
 11
0.0
 21
-18.175
 31
0.0
  0
LINE
  5
62
330
5D6
100
AcDbEntity
  8
0
 62
     1
100
AcDbLine
 10
-4.0
 20
18.3
 30
0.0
 11
4.0
 21
18.3
 31
0.0
  0
LINE
  5
63
330
5D6
100
AcDbEntity
  8
0
 62
     1
100
AcDbLine
 10
-4.0
 20
18.3
 30
0.0
 11
-4.0
 21
14.45683
 31
0.0
  0
LINE
  5
64
330
5D6
100
AcDbEntity
  8
0
 62
     1
100
AcDbLine
 10
4.0
 20
18.3
 30
0.0
 11
4.0
 21
14.45683
 31
0.0
  0
ARC
  5
65
330
5D6
100
AcDbEntity
  8
0
 62
     1
100
AcDbCircle
 10
0.0
 20
0.0
 30
0.0
 40
15.0
100
AcDbArc
 50
105.466049
 51
74.53396600000001
  0
ENDBLK
  5
66
330
5D6
100
AcDbEntity
  8
0
100
AcDbBlockEnd
  0
BLOCK
  5
67
330
5D7
100
AcDbEntity
  8
0
100
AcDbBlockBegin
  2
__35
 70
     0
 10
0.0
 20
0.0
 30
0.0
  3
__35
  1

  0
LINE
  5
68
330
5D7
100
AcDbEntity
  8
0
 62
     0
100
AcDbLine
 10
-3.174999999999999
 20
0.0
 30
0.0
 11
3.174999999999999
 21
0.0
 31
0.0
  0
LINE
  5
69
330
5D7
100
AcDbEntity
  8
0
 62
     0
100
AcDbLine
 10
0.0
 20
-3.174999999999999
 30
0.0
 11
0.0
 21
3.174999999999999
 31
0.0
  0
LINE
  5
6A
330
5D7
100
AcDbEntity
  8
0
 62
     0
100
AcDbLine
 10
-20.675
 20
0.0
 30
0.0
 11
-4.7625
 21
0.0
 31
0.0
  0
LINE
  5
6B
330
5D7
100
AcDbEntity
  8
0
 62
     0
100
AcDbLine
 10
4.7625
 20
0.0
 30
0.0
 11
20.675
 21
0.0
 31
0.0
  0
LINE
  5
6C
330
5D7
100
AcDbEntity
  8
0
 62
     0
100
AcDbLine
 10
0.0
 20
22.6
 30
0.0
 11
0.0
 21
4.7625
 31
0.0
  0
LINE
  5
6D
330
5D7
100
AcDbEntity
  8
0
 62
     0
100
AcDbLine
 10
0.0
 20
-4.7625
 30
0.0
 11
0.0
 21
-20.675
 31
0.0
  0
LINE
  5
6E
330
5D7
100
AcDbEntity
  8
0
 62
     1
100
AcDbLine
 10
-5.0
 20
20.8
 30
0.0
 11
5.0
 21
20.8
 31
0.0
  0
LINE
  5
6F
330
5D7
100
AcDbEntity
  8
0
 62
     1
100
AcDbLine
 10
-5.0
 20
20.8
 30
0.0
 11
-5.0
 21
16.77051
 31
0.0
  0
LINE
  5
70
330
5D7
100
AcDbEntity
  8
0
 62
     1
100
AcDbLine
 10
5.0
 20
20.8
 30
0.0
 11
5.0
 21
16.77051
 31
0.0
  0
ARC
  5
71
330
5D7
100
AcDbEntity
  8
0
 62
     1
100
AcDbCircle
 10
0.0
 20
0.0
 30
0.0
 40
17.5
100
AcDbArc
 50
106.6015469999999
 51
73.398453
  0
ENDBLK
  5
72
330
5D7
100
AcDbEntity
  8
0
100
AcDbBlockEnd
  0
BLOCK
  5
73
330
5D8
100
AcDbEntity
  8
0
100
AcDbBlockBegin
  2
__40
 70
     0
 10
0.0
 20
0.0
 30
0.0
  3
__40
  1

  0
LINE
  5
74
330
5D8
100
AcDbEntity
  8
0
 62
     0
100
AcDbLine
 10
-3.174999999999999
 20
0.0
 30
0.0
 11
3.174999999999999
 21
0.0
 31
0.0
  0
LINE
  5
75
330
5D8
100
AcDbEntity
  8
0
 62
     0
100
AcDbLine
 10
0.0
 20
-3.174999999999999
 30
0.0
 11
0.0
 21
3.174999999999999
 31
0.0
  0
LINE
  5
76
330
5D8
100
AcDbEntity
  8
0
 62
     0
100
AcDbLine
 10
-23.175
 20
0.0
 30
0.0
 11
-4.7625
 21
0.0
 31
0.0
  0
LINE
  5
77
330
5D8
100
AcDbEntity
  8
0
 62
     0
100
AcDbLine
 10
4.7625
 20
0.0
 30
0.0
 11
23.175
 21
0.0
 31
0.0
  0
LINE
  5
78
330
5D8
100
AcDbEntity
  8
0
 62
     0
100
AcDbLine
 10
0.0
 20
24.5
 30
0.0
 11
0.0
 21
4.7625
 31
0.0
  0
LINE
  5
79
330
5D8
100
AcDbEntity
  8
0
 62
     0
100
AcDbLine
 10
0.0
 20
-4.7625
 30
0.0
 11
0.0
 21
-23.175
 31
0.0
  0
LINE
  5
7A
330
5D8
100
AcDbEntity
  8
0
 62
     1
100
AcDbLine
 10
-6.0
 20
23.3
 30
0.0
 11
6.0
 21
23.3
 31
0.0
  0
LINE
  5
7B
330
5D8
100
AcDbEntity
  8
0
 62
     1
100
AcDbLine
 10
-6.0
 20
23.3
 30
0.0
 11
-6.0
 21
19.07878
 31
0.0
  0
LINE
  5
7C
330
5D8
100
AcDbEntity
  8
0
 62
     1
100
AcDbLine
 10
6.0
 20
23.3
 30
0.0
 11
6.0
 21
19.07878
 31
0.0
  0
ARC
  5
7D
330
5D8
100
AcDbEntity
  8
0
 62
     1
100
AcDbCircle
 10
0.0
 20
0.0
 30
0.0
 40
20.0
100
AcDbArc
 50
107.457642
 51
72.542358
  0
ENDBLK
  5
7E
330
5D8
100
AcDbEntity
  8
0
100
AcDbBlockEnd
  0
BLOCK
  5
7F
330
5D9
100
AcDbEntity
  8
0
100
AcDbBlockBegin
  2
__45
 70
     0
 10
0.0
 20
0.0
 30
0.0
  3
__45
  1

  0
LINE
  5
80
330
5D9
100
AcDbEntity
  8
0
 62
     0
100
AcDbLine
 10
-3.174999999999999
 20
0.0
 30
0.0
 11
3.174999999999999
 21
0.0
 31
0.0
  0
LINE
  5
81
330
5D9
100
AcDbEntity
  8
0
 62
     0
100
AcDbLine
 10
0.0
 20
-3.174999999999999
 30
0.0
 11
0.0
 21
3.174999999999999
 31
0.0
  0
LINE
  5
82
330
5D9
100
AcDbEntity
  8
0
 62
     0
100
AcDbLine
 10
-25.675
 20
0.0
 30
0.0
 11
-4.7625
 21
0.0
 31
0.0
  0
LINE
  5
83
330
5D9
100
AcDbEntity
  8
0
 62
     0
100
AcDbLine
 10
4.7625
 20
0.0
 30
0.0
 11
25.675
 21
0.0
 31
0.0
  0
LINE
  5
84
330
5D9
100
AcDbEntity
  8
0
 62
     0
100
AcDbLine
 10
0.0
 20
28.2
 30
0.0
 11
0.0
 21
4.7625
 31
0.0
  0
LINE
  5
85
330
5D9
100
AcDbEntity
  8
0
 62
     0
100
AcDbLine
 10
0.0
 20
-4.7625
 30
0.0
 11
0.0
 21
-25.675
 31
0.0
  0
LINE
  5
86
330
5D9
100
AcDbEntity
  8
0
 62
     1
100
AcDbLine
 10
-7.0
 20
26.3
 30
0.0
 11
7.0
 21
26.3
 31
0.0
  0
LINE
  5
87
330
5D9
100
AcDbEntity
  8
0
 62
     1
100
AcDbLine
 10
-7.0
 20
26.3
 30
0.0
 11
-7.0
 21
21.3834
 31
0.0
  0
LINE
  5
88
330
5D9
100
AcDbEntity
  8
0
 62
     1
100
AcDbLine
 10
7.0
 20
26.3
 30
0.0
 11
7.0
 21
21.3834
 31
0.0
  0
ARC
  5
89
330
5D9
100
AcDbEntity
  8
0
 62
     1
100
AcDbCircle
 10
0.0
 20
0.0
 30
0.0
 40
22.5
100
AcDbArc
 50
108.1262359999999
 51
71.873749
  0
ENDBLK
  5
8A
330
5D9
100
AcDbEntity
  8
0
100
AcDbBlockEnd
  0
BLOCK
  5
8B
330
5DA
100
AcDbEntity
  8
0
100
AcDbBlockBegin
  2
__50
 70
     0
 10
0.0
 20
0.0
 30
0.0
  3
__50
  1

  0
LINE
  5
8C
330
5DA
100
AcDbEntity
  8
0
 62
     0
100
AcDbLine
 10
-3.174999999999999
 20
0.0
 30
0.0
 11
3.174999999999999
 21
0.0
 31
0.0
  0
LINE
  5
8D
330
5DA
100
AcDbEntity
  8
0
 62
     0
100
AcDbLine
 10
0.0
 20
-3.174999999999999
 30
0.0
 11
0.0
 21
3.174999999999999
 31
0.0
  0
LINE
  5
8E
330
5DA
100
AcDbEntity
  8
0
 62
     0
100
AcDbLine
 10
-28.175
 20
0.0
 30
0.0
 11
-4.7625
 21
0.0
 31
0.0
  0
LINE
  5
8F
330
5DA
100
AcDbEntity
  8
0
 62
     0
100
AcDbLine
 10
4.7625
 20
0.0
 30
0.0
 11
28.175
 21
0.0
 31
0.0
  0
LINE
  5
90
330
5DA
100
AcDbEntity
  8
0
 62
     0
100
AcDbLine
 10
0.0
 20
31.05
 30
0.0
 11
0.0
 21
4.7625
 31
0.0
  0
LINE
  5
91
330
5DA
100
AcDbEntity
  8
0
 62
     0
100
AcDbLine
 10
0.0
 20
-4.7625
 30
0.0
 11
0.0
 21
-28.175
 31
0.0
  0
LINE
  5
92
330
5DA
100
AcDbEntity
  8
0
 62
     1
100
AcDbLine
 10
-7.0
 20
28.8
 30
0.0
 11
7.0
 21
28.8
 31
0.0
  0
LINE
  5
93
330
5DA
100
AcDbEntity
  8
0
 62
     1
100
AcDbLine
 10
-7.0
 20
28.8
 30
0.0
 11
-7.0
 21
23.99997
 31
0.0
  0
LINE
  5
94
330
5DA
100
AcDbEntity
  8
0
 62
     1
100
AcDbLine
 10
7.0
 20
28.8
 30
0.0
 11
7.0
 21
23.99987
 31
0.0
  0
ARC
  5
95
330
5DA
100
AcDbEntity
  8
0
 62
     1
100
AcDbCircle
 10
0.0
 20
0.0
 30
0.0
 40
25.0
100
AcDbArc
 50
106.260208
 51
73.73979199999999
  0
ENDBLK
  5
96
330
5DA
100
AcDbEntity
  8
0
100
AcDbBlockEnd
  0
BLOCK
  5
97
330
5DB
100
AcDbEntity
  8
0
100
AcDbBlockBegin
  2
__60
 70
     0
 10
0.0
 20
0.0
 30
0.0
  3
__60
  1

  0
LINE
  5
98
330
5DB
100
AcDbEntity
  8
0
 62
     0
100
AcDbLine
 10
-3.174999999999999
 20
0.0
 30
0.0
 11
3.174999999999999
 21
0.0
 31
0.0
  0
LINE
  5
99
330
5DB
100
AcDbEntity
  8
0
 62
     0
100
AcDbLine
 10
0.0
 20
-3.174999999999999
 30
0.0
 11
0.0
 21
3.174999999999999
 31
0.0
  0
LINE
  5
9A
330
5DB
100
AcDbEntity
  8
0
 62
     0
100
AcDbLine
 10
-33.17499999999999
 20
0.0
 30
0.0
 11
-4.7625
 21
0.0
 31
0.0
  0
LINE
  5
9B
330
5DB
100
AcDbEntity
  8
0
 62
     0
100
AcDbLine
 10
4.7625
 20
0.0
 30
0.0
 11
33.17499999999999
 21
0.0
 31
0.0
  0
LINE
  5
9C
330
5DB
100
AcDbEntity
  8
0
 62
     0
100
AcDbLine
 10
0.0
 20
37.1
 30
0.0
 11
0.0
 21
4.7625
 31
0.0
  0
LINE
  5
9D
330
5DB
100
AcDbEntity
  8
0
 62
     0
100
AcDbLine
 10
0.0
 20
-4.7625
 30
0.0
 11
0.0
 21
-33.17499999999999
 31
0.0
  0
LINE
  5
9E
330
5DB
100
AcDbEntity
  8
0
 62
     1
100
AcDbLine
 10
-9.0
 20
34.39999999999999
 30
0.0
 11
9.0
 21
34.39999999999999
 31
0.0
  0
LINE
  5
9F
330
5DB
100
AcDbEntity
  8
0
 62
     1
100
AcDbLine
 10
-9.0
 20
34.39999999999999
 30
0.0
 11
-9.0
 21
28.61822
 31
0.0
  0
LINE
  5
A0
330
5DB
100
AcDbEntity
  8
0
 62
     1
100
AcDbLine
 10
9.0
 20
34.39999999999999
 30
0.0
 11
9.0
 21
28.61809
 31
0.0
  0
ARC
  5
A1
330
5DB
100
AcDbEntity
  8
0
 62
     1
100
AcDbCircle
 10
0.0
 20
0.0
 30
0.0
 40
30.0
100
AcDbArc
 50
107.457581
 51
72.542419
  0
ENDBLK
  5
A2
330
5DB
100
AcDbEntity
  8
0
100
AcDbBlockEnd
  0
BLOCK
  5
A3
330
5DC
100
AcDbEntity
  8
0
100
AcDbBlockBegin
  2
__1_
 70
     0
 10
0.0
 20
0.0
 30
0.0
  3
__1_
  1

  0
LINE
  5
A4
330
5DC
100
AcDbEntity
  8
0
 62
     0
100
AcDbLine
 10
-3.174999999999999
 20
0.0
 30
0.0
 11
3.174999999999999
 21
0.0
 31
0.0
  0
LINE
  5
A5
330
5DC
100
AcDbEntity
  8
0
 62
     0
100
AcDbLine
 10
0.0
 20
-3.174999999999999
 30
0.0
 11
0.0
 21
3.174999999999999
 31
0.0
  0
LINE
  5
A6
330
5DC
100
AcDbEntity
  8
0
 62
     0
100
AcDbLine
 10
-15.875
 20
0.0
 30
0.0
 11
-4.7625
 21
0.0
 31
0.0
  0
LINE
  5
A7
330
5DC
100
AcDbEntity
  8
0
 62
     0
100
AcDbLine
 10
4.7625
 20
0.0
 30
0.0
 11
15.875
 21
0.0
 31
0.0
  0
LINE
  5
A8
330
5DC
100
AcDbEntity
  8
0
 62
     0
100
AcDbLine
 10
0.0
 20
16.69999999999999
 30
0.0
 11
0.0
 21
4.7625
 31
0.0
  0
LINE
  5
A9
330
5DC
100
AcDbEntity
  8
0
 62
     0
100
AcDbLine
 10
0.0
 20
-4.7625
 30
0.0
 11
0.0
 21
-15.875
 31
0.0
  0
LINE
  5
AA
330
5DC
100
AcDbEntity
  8
0
 62
     1
100
AcDbLine
 10
-3.174999999999999
 20
15.59
 30
0.0
 11
3.174999999999999
 21
15.59
 31
0.0
  0
LINE
  5
AB
330
5DC
100
AcDbEntity
  8
0
 62
     1
100
AcDbLine
 10
-3.174999999999999
 20
15.59
 30
0.0
 11
-3.174999999999999
 21
12.29672
 31
0.0
  0
LINE
  5
AC
330
5DC
100
AcDbEntity
  8
0
 62
     1
100
AcDbLine
 10
3.174999999999999
 20
15.59
 30
0.0
 11
3.174999999999999
 21
12.29672
 31
0.0
  0
ARC
  5
AD
330
5DC
100
AcDbEntity
  8
0
 62
     1
100
AcDbCircle
 10
0.0
 20
0.0
 30
0.0
 40
12.7
100
AcDbArc
 50
104.477554
 51
75.522446
  0
ENDBLK
  5
AE
330
5DC
100
AcDbEntity
  8
0
100
AcDbBlockEnd
  0
BLOCK
  5
AF
330
5DD
100
AcDbEntity
  8
0
100
AcDbBlockBegin
  2
_1_1_2_
 70
     0
 10
0.0
 20
0.0
 30
0.0
  3
_1_1_2_
  1

  0
LINE
  5
B0
330
5DD
100
AcDbEntity
  8
0
 62
     0
100
AcDbLine
 10
-3.174999999999999
 20
0.0
 30
0.0
 11
3.174999999999999
 21
0.0
 31
0.0
  0
LINE
  5
B1
330
5DD
100
AcDbEntity
  8
0
 62
     0
100
AcDbLine
 10
0.0
 20
-3.174999999999999
 30
0.0
 11
0.0
 21
3.174999999999999
 31
0.0
  0
LINE
  5
B2
330
5DD
100
AcDbEntity
  8
0
 62
     0
100
AcDbLine
 10
-22.225
 20
0.0
 30
0.0
 11
-4.7625
 21
0.0
 31
0.0
  0
LINE
  5
B3
330
5DD
100
AcDbEntity
  8
0
 62
     0
100
AcDbLine
 10
4.7625
 20
0.0
 30
0.0
 11
22.225
 21
0.0
 31
0.0
  0
LINE
  5
B4
330
5DD
100
AcDbEntity
  8
0
 62
     0
100
AcDbLine
 10
0.0
 20
24.8
 30
0.0
 11
0.0
 21
4.7625
 31
0.0
  0
LINE
  5
B5
330
5DD
100
AcDbEntity
  8
0
 62
     0
100
AcDbLine
 10
0.0
 20
-4.7625
 30
0.0
 11
0.0
 21
-22.225
 31
0.0
  0
LINE
  5
B6
330
5DD
100
AcDbEntity
  8
0
 62
     1
100
AcDbLine
 10
-4.7625
 20
23.35
 30
0.0
 11
4.7625
 21
23.35
 31
0.0
  0
LINE
  5
B7
330
5DD
100
AcDbEntity
  8
0
 62
     1
100
AcDbLine
 10
-4.7625
 20
23.35
 30
0.0
 11
-4.7625
 21
18.44508
 31
0.0
  0
LINE
  5
B8
330
5DD
100
AcDbEntity
  8
0
 62
     1
100
AcDbLine
 10
4.7625
 20
23.35
 30
0.0
 11
4.7625
 21
18.44508
 31
0.0
  0
ARC
  5
B9
330
5DD
100
AcDbEntity
  8
0
 62
     1
100
AcDbCircle
 10
0.0
 20
0.0
 30
0.0
 40
19.05
100
AcDbArc
 50
104.477554
 51
75.522446
  0
ENDBLK
  5
BA
330
5DD
100
AcDbEntity
  8
0
100
AcDbBlockEnd
  0
BLOCK
  5
BB
330
5DE
100
AcDbEntity
  8
0
100
AcDbBlockBegin
  2
_1_3_4_
 70
     0
 10
0.0
 20
0.0
 30
0.0
  3
_1_3_4_
  1

  0
LINE
  5
BC
330
5DE
100
AcDbEntity
  8
0
 62
     0
100
AcDbLine
 10
-3.174999999999999
 20
0.0
 30
0.0
 11
3.174999999999999
 21
0.0
 31
0.0
  0
LINE
  5
BD
330
5DE
100
AcDbEntity
  8
0
 62
     0
100
AcDbLine
 10
0.0
 20
-3.174999999999999
 30
0.0
 11
0.0
 21
3.174999999999999
 31
0.0
  0
LINE
  5
BE
330
5DE
100
AcDbEntity
  8
0
 62
     0
100
AcDbLine
 10
-25.4
 20
0.0
 30
0.0
 11
-4.7625
 21
0.0
 31
0.0
  0
LINE
  5
BF
330
5DE
100
AcDbEntity
  8
0
 62
     0
100
AcDbLine
 10
4.7625
 20
0.0
 30
0.0
 11
25.4
 21
0.0
 31
0.0
  0
LINE
  5
C0
330
5DE
100
AcDbEntity
  8
0
 62
     0
100
AcDbLine
 10
0.0
 20
28.8
 30
0.0
 11
0.0
 21
4.7625
 31
0.0
  0
LINE
  5
C1
330
5DE
100
AcDbEntity
  8
0
 62
     0
100
AcDbLine
 10
0.0
 20
-4.7625
 30
0.0
 11
0.0
 21
-25.4
 31
0.0
  0
LINE
  5
C2
330
5DE
100
AcDbEntity
  8
0
 62
     1
100
AcDbLine
 10
-4.7625
 20
26.59499999999999
 30
0.0
 11
4.7625
 21
26.59499999999999
 31
0.0
  0
LINE
  5
C3
330
5DE
100
AcDbEntity
  8
0
 62
     1
100
AcDbLine
 10
-4.7625
 20
26.59499999999999
 30
0.0
 11
-4.7625
 21
21.70875
 31
0.0
  0
LINE
  5
C4
330
5DE
100
AcDbEntity
  8
0
 62
     1
100
AcDbLine
 10
4.7625
 20
26.59499999999999
 30
0.0
 11
4.7625
 21
21.70868
 31
0.0
  0
ARC
  5
C5
330
5DE
100
AcDbEntity
  8
0
 62
     1
100
AcDbCircle
 10
0.0
 20
0.0
 30
0.0
 40
22.225
100
AcDbArc
 50
102.373581
 51
77.626434
  0
ENDBLK
  5
C6
330
5DE
100
AcDbEntity
  8
0
100
AcDbBlockEnd
  0
BLOCK
  5
C7
330
5DF
100
AcDbEntity
  8
0
100
AcDbBlockBegin
  2
__2_
 70
     0
 10
0.0
 20
0.0
 30
0.0
  3
__2_
  1

  0
LINE
  5
C8
330
5DF
100
AcDbEntity
  8
0
 62
     0
100
AcDbLine
 10
-3.174999999999999
 20
0.0
 30
0.0
 11
3.174999999999999
 21
0.0
 31
0.0
  0
LINE
  5
C9
330
5DF
100
AcDbEntity
  8
0
 62
     0
100
AcDbLine
 10
0.0
 20
-3.174999999999999
 30
0.0
 11
0.0
 21
3.174999999999999
 31
0.0
  0
LINE
  5
CA
330
5DF
100
AcDbEntity
  8
0
 62
     0
100
AcDbLine
 10
-28.57499999999999
 20
0.0
 30
0.0
 11
-4.7625
 21
0.0
 31
0.0
  0
LINE
  5
CB
330
5DF
100
AcDbEntity
  8
0
 62
     0
100
AcDbLine
 10
4.7625
 20
0.0
 30
0.0
 11
28.57499999999999
 21
0.0
 31
0.0
  0
LINE
  5
CC
330
5DF
100
AcDbEntity
  8
0
 62
     0
100
AcDbLine
 10
0.0
 20
32.79999999999999
 30
0.0
 11
0.0
 21
4.7625
 31
0.0
  0
LINE
  5
CD
330
5DF
100
AcDbEntity
  8
0
 62
     0
100
AcDbLine
 10
0.0
 20
-4.7625
 30
0.0
 11
0.0
 21
-28.57499999999999
 31
0.0
  0
LINE
  5
CE
330
5DF
100
AcDbEntity
  8
0
 62
     1
100
AcDbLine
 10
-6.349999999999999
 20
31.05999999999999
 30
0.0
 11
6.349999999999999
 21
31.05999999999999
 31
0.0
  0
LINE
  5
CF
330
5DF
100
AcDbEntity
  8
0
 62
     1
100
AcDbLine
 10
-6.349999999999999
 20
31.05999999999999
 30
0.0
 11
-6.349999999999999
 21
24.59344
 31
0.0
  0
LINE
  5
D0
330
5DF
100
AcDbEntity
  8
0
 62
     1
100
AcDbLine
 10
6.349999999999999
 20
31.05999999999999
 30
0.0
 11
6.349999999999999
 21
24.59344
 31
0.0
  0
ARC
  5
D1
330
5DF
100
AcDbEntity
  8
0
 62
     1
100
AcDbCircle
 10
0.0
 20
0.0
 30
0.0
 40
25.4
100
AcDbArc
 50
104.477554
 51
75.522446
  0
ENDBLK
  5
D2
330
5DF
100
AcDbEntity
  8
0
100
AcDbBlockEnd
  0
BLOCK
  5
D3
330
5E0
100
AcDbEntity
  8
0
100
AcDbBlockBegin
  2
__1_1_4_
 70
     0
 10
0.0
 20
0.0
 30
0.0
  3
__1_1_4_
  1

  0
LINE
  5
D4
330
5E0
100
AcDbEntity
  8
0
 62
     0
100
AcDbLine
 10
-3.174999999999999
 20
0.0
 30
0.0
 11
3.174999999999999
 21
0.0
 31
0.0
  0
LINE
  5
D5
330
5E0
100
AcDbEntity
  8
0
 62
     0
100
AcDbLine
 10
0.0
 20
-3.174999999999999
 30
0.0
 11
0.0
 21
3.174999999999999
 31
0.0
  0
LINE
  5
D6
330
5E0
100
AcDbEntity
  8
0
 62
     0
100
AcDbLine
 10
-19.05
 20
0.0
 30
0.0
 11
-4.7625
 21
0.0
 31
0.0
  0
LINE
  5
D7
330
5E0
100
AcDbEntity
  8
0
 62
     0
100
AcDbLine
 10
4.7625
 20
0.0
 30
0.0
 11
19.05
 21
0.0
 31
0.0
  0
LINE
  5
D8
330
5E0
100
AcDbEntity
  8
0
 62
     0
100
AcDbLine
 10
0.0
 20
20.0
 30
0.0
 11
0.0
 21
4.7625
 31
0.0
  0
LINE
  5
D9
330
5E0
100
AcDbEntity
  8
0
 62
     0
100
AcDbLine
 10
0.0
 20
-4.7625
 30
0.0
 11
0.0
 21
-19.05
 31
0.0
  0
LINE
  5
DA
330
5E0
100
AcDbEntity
  8
0
 62
     1
100
AcDbLine
 10
-3.174999999999999
 20
18.845
 30
0.0
 11
3.174999999999999
 21
18.845
 31
0.0
  0
LINE
  5
DB
330
5E0
100
AcDbEntity
  8
0
 62
     1
100
AcDbLine
 10
-3.174999999999999
 20
18.845
 30
0.0
 11
-3.174999999999999
 21
15.55425999999999
 31
0.0
  0
LINE
  5
DC
330
5E0
100
AcDbEntity
  8
0
 62
     1
100
AcDbLine
 10
3.174999999999999
 20
18.845
 30
0.0
 11
3.174999999999999
 21
15.55425999999999
 31
0.0
  0
ARC
  5
DD
330
5E0
100
AcDbEntity
  8
0
 62
     1
100
AcDbCircle
 10
0.0
 20
0.0
 30
0.0
 40
15.875
100
AcDbArc
 50
101.536957
 51
78.46304299999999
  0
ENDBLK
  5
DE
330
5E0
100
AcDbEntity
  8
0
100
AcDbBlockEnd
  0
BLOCK
  5
DF
330
5E1
100
AcDbEntity
  8
0
100
AcDbBlockBegin
  2
BORDER
 70
     0
 10
0.0
 20
0.0
 30
0.0
  3
BORDER
  1

  0
LINE
  5
E0
330
5E1
100
AcDbEntity
  8
0
 62
     6
100
AcDbLine
 10
0.0
 20
0.0
 30
0.0
 11
1.0
 21
0.0
 31
0.0
  0
LINE
  5
E1
330
5E1
100
AcDbEntity
  8
0
 62
     6
100
AcDbLine
 10
1.0
 20
0.0
 30
0.0
 11
1.0
 21
1.0
 31
0.0
  0
LINE
  5
E2
330
5E1
100
AcDbEntity
  8
0
 62
     6
100
AcDbLine
 10
1.0
 20
1.0
 30
0.0
 11
0.0
 21
1.0
 31
0.0
  0
LINE
  5
E3
330
5E1
100
AcDbEntity
  8
0
 62
     6
100
AcDbLine
 10
0.0
 20
1.0
 30
0.0
 11
0.0
 21
0.0
 31
0.0
  0
ENDBLK
  5
E4
330
5E1
100
AcDbEntity
  8
0
100
AcDbBlockEnd
  0
BLOCK
  5
E5
330
5E2
100
AcDbEntity
  8
0
100
AcDbBlockBegin
  2
324A
 70
     0
 10
0.0
 20
0.0
 30
0.0
  3
324A
  1

  0
LINE
  5
E6
330
5E2
100
AcDbEntity
  8
0
 62
     1
100
AcDbLine
 10
22.5
 20
0.0
 30
0.0
 11
64.1
 21
0.0
 31
0.0
  0
LINE
  5
E7
330
5E2
100
AcDbEntity
  8
0
 62
     1
100
AcDbLine
 10
-26.5
 20
-16.5
 30
0.0
 11
-36.0
 21
-16.5
 31
0.0
  0
LINE
  5
E8
330
5E2
100
AcDbEntity
  8
0
 62
     1
100
AcDbLine
 10
-36.0
 20
19.5
 30
0.0
 11
-36.0
 21
14.5
 31
0.0
  0
LINE
  5
E9
330
5E2
100
AcDbEntity
  8
0
 62
     1
100
AcDbLine
 10
-36.0
 20
14.5
 30
0.0
 11
-26.5
 21
14.5
 31
0.0
  0
LINE
  5
EA
330
5E2
100
AcDbEntity
  8
0
 62
     1
100
AcDbLine
 10
-26.5
 20
14.5
 30
0.0
 11
-26.5
 21
19.5
 31
0.0
  0
LINE
  5
EB
330
5E2
100
AcDbEntity
  8
0
 62
     1
100
AcDbLine
 10
-26.5
 20
-16.5
 30
0.0
 11
-26.5
 21
-11.5
 31
0.0
  0
LINE
  5
EC
330
5E2
100
AcDbEntity
  8
0
 62
     1
100
AcDbLine
 10
-36.0
 20
-11.5
 30
0.0
 11
-36.0
 21
-16.5
 31
0.0
  0
LINE
  5
ED
330
5E2
100
AcDbEntity
  8
0
 62
     1
100
AcDbLine
 10
-26.5
 20
-11.5
 30
0.0
 11
-36.0
 21
-11.5
 31
0.0
  0
LINE
  5
EE
330
5E2
100
AcDbEntity
  8
0
 62
     1
100
AcDbLine
 10
26.5
 20
-14.5
 30
0.0
 11
36.0
 21
-14.5
 31
0.0
  0
LINE
  5
EF
330
5E2
100
AcDbEntity
  8
0
 62
     1
100
AcDbLine
 10
36.0
 20
-14.5
 30
0.0
 11
36.0
 21
-19.5
 31
0.0
  0
LINE
  5
F0
330
5E2
100
AcDbEntity
  8
0
 62
     1
100
AcDbLine
 10
26.5
 20
-19.5
 30
0.0
 11
26.5
 21
-14.5
 31
0.0
  0
LINE
  5
F1
330
5E2
100
AcDbEntity
  8
0
 62
     1
100
AcDbLine
 10
26.5
 20
11.5
 30
0.0
 11
26.5
 21
16.5
 31
0.0
  0
LINE
  5
F2
330
5E2
100
AcDbEntity
  8
0
 62
     1
100
AcDbLine
 10
36.0
 20
11.5
 30
0.0
 11
26.5
 21
11.5
 31
0.0
  0
LINE
  5
F3
330
5E2
100
AcDbEntity
  8
0
 62
     1
100
AcDbLine
 10
36.0
 20
16.5
 30
0.0
 11
36.0
 21
11.5
 31
0.0
  0
LINE
  5
F4
330
5E2
100
AcDbEntity
  8
0
 62
     1
100
AcDbLine
 10
26.5
 20
16.5
 30
0.0
 11
36.0
 21
16.5
 31
0.0
  0
ARC
  5
F5
330
5E2
100
AcDbEntity
  8
0
 62
     1
100
AcDbCircle
 10
0.0
 20
0.0
 30
0.0
 40
30.0
100
AcDbArc
 50
122.2309569999999
 51
139.4584049999999
  0
ARC
  5
F6
330
5E2
100
AcDbEntity
  8
0
 62
     1
100
AcDbCircle
 10
12.0
 20
31.5
 30
0.0
 40
4.0
100
AcDbArc
 50
0.0
 51
90.0
  0
ARC
  5
F7
330
5E2
100
AcDbEntity
  8
0
 62
     1
100
AcDbCircle
 10
-12.0
 20
31.5
 30
0.0
 40
4.0
100
AcDbArc
 50
90.0
 51
180.0
  0
LINE
  5
F8
330
5E2
100
AcDbEntity
  8
0
 62
     1
100
AcDbLine
 10
-12.0
 20
35.5
 30
0.0
 11
12.0
 21
35.5
 31
0.0
  0
LINE
  5
F9
330
5E2
100
AcDbEntity
  8
0
 62
     1
100
AcDbLine
 10
16.0
 20
25.37716
 30
0.0
 11
16.0
 21
31.5
 31
0.0
  0
LINE
  5
FA
330
5E2
100
AcDbEntity
  8
0
 62
     1
100
AcDbLine
 10
-16.0
 20
25.37716
 30
0.0
 11
-16.0
 21
31.5
 31
0.0
  0
LINE
  5
FB
330
5E2
100
AcDbEntity
  8
0
 62
     1
100
AcDbLine
 10
18.7274
 20
-23.43682
 30
0.0
 11
34.09339
 21
-50.05149
 31
0.0
  0
LINE
  5
FC
330
5E2
100
AcDbEntity
  8
0
 62
     1
100
AcDbLine
 10
24.35289
 20
-51.18044
 30
0.0
 11
32.14710999999999
 21
-46.68044
 31
0.0
  0
LINE
  5
FD
330
5E2
100
AcDbEntity
  8
0
 62
     1
100
AcDbLine
 10
10.93318
 20
-27.93682
 30
0.0
 11
26.29916
 21
-54.55149
 31
0.0
  0
LINE
  5
FE
330
5E2
100
AcDbEntity
  8
0
 62
     1
100
AcDbLine
 10
-18.7274
 20
-23.43682
 30
0.0
 11
-34.09339
 21
-50.05149
 31
0.0
  0
LINE
  5
FF
330
5E2
100
AcDbEntity
  8
0
 62
     1
100
AcDbLine
 10
-10.93318
 20
-27.93682
 30
0.0
 11
-26.29916
 21
-54.55149
 31
0.0
  0
LINE
  5
100
330
5E2
100
AcDbEntity
  8
0
 62
     1
100
AcDbLine
 10
-24.35289
 20
-51.18044
 30
0.0
 11
-32.14710999999999
 21
-46.68044
 31
0.0
  0
LINE
  5
101
330
5E2
100
AcDbEntity
  8
0
 62
     1
100
AcDbLine
 10
14.69627
 20
34.45468
 30
0.0
 11
26.29916
 21
54.55149
 31
0.0
  0
LINE
  5
102
330
5E2
100
AcDbEntity
  8
0
 62
     1
100
AcDbLine
 10
18.7274
 20
23.43682
 30
0.0
 11
34.09339
 21
50.05149
 31
0.0
  0
LINE
  5
103
330
5E2
100
AcDbEntity
  8
0
 62
     1
100
AcDbLine
 10
24.35289
 20
51.18044
 30
0.0
 11
32.14710999999999
 21
46.68044
 31
0.0
  0
LINE
  5
104
330
5E2
100
AcDbEntity
  8
0
 62
     1
100
AcDbLine
 10
-18.7274
 20
23.43682
 30
0.0
 11
-34.09339
 21
50.05149
 31
0.0
  0
LINE
  5
105
330
5E2
100
AcDbEntity
  8
0
 62
     1
100
AcDbLine
 10
-14.69627
 20
34.45468
 30
0.0
 11
-26.29916
 21
54.55149
 31
0.0
  0
LINE
  5
106
330
5E2
100
AcDbEntity
  8
0
 62
     1
100
AcDbLine
 10
-24.35289
 20
51.18044
 30
0.0
 11
-32.14710999999999
 21
46.68044
 31
0.0
  0
LINE
  5
107
330
5E2
100
AcDbEntity
  8
0
 62
     1
100
AcDbLine
 10
38.0
 20
4.5
 30
0.0
 11
60.39255
 21
4.5
 31
0.0
  0
LINE
  5
108
330
5E2
100
AcDbEntity
  8
0
 62
     1
100
AcDbLine
 10
56.5
 20
-4.5
 30
0.0
 11
56.5
 21
4.5
 31
0.0
  0
LINE
  5
109
330
5E2
100
AcDbEntity
  8
0
 62
     1
100
AcDbLine
 10
38.0
 20
-4.5
 30
0.0
 11
60.39255
 21
-4.5
 31
0.0
  0
LINE
  5
10A
330
5E2
100
AcDbEntity
  8
0
 62
     1
100
AcDbLine
 10
-22.5
 20
0.0
 30
0.0
 11
-64.1
 21
0.0
 31
0.0
  0
LINE
  5
10B
330
5E2
100
AcDbEntity
  8
0
 62
     1
100
AcDbLine
 10
-56.5
 20
4.5
 30
0.0
 11
-56.5
 21
-4.5
 31
0.0
  0
LINE
  5
10C
330
5E2
100
AcDbEntity
  8
0
 62
     1
100
AcDbLine
 10
-38.0
 20
-4.5
 30
0.0
 11
-60.39255
 21
-4.5
 31
0.0
  0
LINE
  5
10D
330
5E2
100
AcDbEntity
  8
0
 62
     1
100
AcDbLine
 10
38.0
 20
19.5
 30
0.0
 11
38.0
 21
-19.5
 31
0.0
  0
LINE
  5
10E
330
5E2
100
AcDbEntity
  8
0
 62
     1
100
AcDbLine
 10
38.0
 20
-19.5
 30
0.0
 11
22.79803
 21
-19.5
 31
0.0
  0
LINE
  5
10F
330
5E2
100
AcDbEntity
  8
0
 62
     1
100
AcDbLine
 10
38.0
 20
19.5
 30
0.0
 11
22.79803
 21
19.5
 31
0.0
  0
LINE
  5
110
330
5E2
100
AcDbEntity
  8
0
 62
     1
100
AcDbLine
 10
-38.0
 20
4.5
 30
0.0
 11
-60.39255
 21
4.5
 31
0.0
  0
ARC
  5
111
330
5E2
100
AcDbEntity
  8
0
 62
     1
100
AcDbCircle
 10
0.0
 20
0.0
 30
0.0
 40
30.0
100
AcDbArc
 50
220.541611
 51
319.458405
  0
LINE
  5
112
330
5E2
100
AcDbEntity
  8
0
 62
     1
100
AcDbLine
 10
-38.0
 20
19.5
 30
0.0
 11
-22.79803
 21
19.5
 31
0.0
  0
LINE
  5
113
330
5E2
100
AcDbEntity
  8
0
 62
     1
100
AcDbLine
 10
-38.0
 20
-19.5
 30
0.0
 11
-22.79803
 21
-19.5
 31
0.0
  0
LINE
  5
114
330
5E2
100
AcDbEntity
  8
0
 62
     1
100
AcDbLine
 10
-38.0
 20
19.5
 30
0.0
 11
-38.0
 21
-19.5
 31
0.0
  0
LWPOLYLINE
  5
115
330
5E2
100
AcDbEntity
  8
0
 62
     1
100
AcDbPolyline
 90
      282
 70
     1
 43
0.0
 10
2.356339999999999
 20
-60.1
 10
-2.356339999999999
 20
-60.1
 10
-3.496239999999999
 20
-60.18163
 10
-4.613
 20
-60.42488
 10
-5.6836
 20
-60.82474
 10
-6.686259999999999
 20
-61.37306
 10
-6.68627
 20
-61.37306
 10
-7.600799999999999
 20
-62.05884
 10
-8.40806
 20
-62.86773
 10
-9.091839999999999
 20
-63.7834
 10
-9.63813
 20
-64.78704999999999
 10
-9.63813
 20
-64.78705999999999
 10
-12.10505
 20
-70.20931
 10
-24.62137999999999
 20
-66.85557
 10
-24.04666999999999
 20
-60.92631
 10
-24.01794
 20
-59.78378
 10
-24.15231
 20
-58.64888
 10
-24.44701
 20
-57.54469
 10
-24.89603999999999
 20
-56.49376
 10
-24.89605
 20
-56.49376
 10
-25.49029
 20
-55.5175
 10
-26.21753
 20
-54.63593
 10
-27.06294
 20
-53.86699
 10
-28.00934
 20
-53.22631
 10
-28.00935
 20
-53.2263
 10
-32.09064999999999
 20
-50.86996
 10
-33.11872
 20
-50.37067
 10
-34.20736999999999
 20
-50.02299
 10
-35.33444999999999
 20
-49.83398
 10
-36.47701
 20
-49.8075
 10
-37.61186
 20
-49.94413
 10
-38.71544
 20
-50.24102
 10
-39.76545999999999
 20
-50.69213
 10
-40.74038999999999
 20
-51.28817
 10
-40.7404
 20
-51.28817999999999
 10
-45.58793
 20
-54.75052
 10
-54.75052
 20
-45.58793
 10
-51.28817999999999
 20
-40.7404
 10
-51.28817
 20
-40.74038999999999
 10
-50.69201
 20
-39.76525
 10
-50.24094
 20
-38.71520999999999
 10
-49.94407999999999
 20
-37.61162
 10
-49.8075
 20
-36.47701
 10
-49.83399
 20
-35.33433
 10
-50.02302
 20
-34.20725
 10
-50.37071
 20
-33.11860999999999
 10
-50.86996
 20
-32.09064999999999
 10
-53.2263
 20
-28.00935
 10
-53.22631
 20
-28.00934
 10
-53.86706
 20
-27.06284
 10
-54.63601
 20
-26.21744
 10
-55.5176
 20
-25.49022
 10
-56.49376
 20
-24.89605
 10
-57.54469
 20
-24.44701
 10
-58.64888
 20
-24.15231
 10
-59.78378
 20
-24.01794
 10
-60.92625
 20
-24.04666
 10
-60.92631
 20
-24.04666999999999
 10
-66.85557
 20
-24.62137999999999
 10
-70.20931
 20
-12.10505
 10
-64.78705999999999
 20
-9.63813
 10
-64.78704999999999
 20
-9.63813
 10
-63.78319
 20
-9.09171
 10
-62.86754
 20
-8.407899999999999
 10
-62.05868
 20
-7.60062
 10
-61.37306
 20
-6.68627
 10
-61.37306
 20
-6.686259999999999
 10
-60.82468999999999
 20
-5.683489999999999
 10
-60.42485
 20
-4.61289
 10
-60.18163
 20
-3.496239999999999
 10
-60.1
 20
-2.356339999999999
 10
-60.1
 20
2.356339999999999
 10
-60.18164999999999
 20
3.49636
 10
-60.42488
 20
4.613
 10
-60.82474
 20
5.6836
 10
-61.37306
 20
6.686259999999999
 10
-61.37306
 20
6.68627
 10
-62.05875999999999
 20
7.60071
 10
-62.86763
 20
8.40798
 10
-63.7833
 20
9.091779999999999
 10
-64.78704999999999
 20
9.63813
 10
-64.78705999999999
 20
9.63813
 10
-70.20931
 20
12.10505
 10
-66.85557
 20
24.62137999999999
 10
-60.92631
 20
24.04666999999999
 10
-59.78378
 20
24.01794
 10
-58.64888
 20
24.15231
 10
-57.54469
 20
24.44701
 10
-56.49376
 20
24.89603999999999
 10
-56.49376
 20
24.89605
 10
-55.5175
 20
25.49029
 10
-54.63593
 20
26.21753
 10
-53.86699
 20
27.06294
 10
-53.22631
 20
28.00934
 10
-53.2263
 20
28.00935
 10
-50.86996
 20
32.09064999999999
 10
-50.37067
 20
33.11872
 10
-50.02299
 20
34.20736999999999
 10
-49.83398
 20
35.33444999999999
 10
-49.8075
 20
36.47701
 10
-49.94411
 20
37.61174
 10
-50.24098
 20
38.71533
 10
-50.69207
 20
39.76536
 10
-51.28817
 20
40.74038999999999
 10
-51.28817999999999
 20
40.7404
 10
-54.75052
 20
45.58793
 10
-45.58793
 20
54.75052
 10
-40.7404
 20
51.28817999999999
 10
-40.74038999999999
 20
51.28817
 10
-39.76525
 20
50.69201
 10
-38.71520999999999
 20
50.24094
 10
-37.61162
 20
49.94407999999999
 10
-36.47701
 20
49.8075
 10
-35.33433
 20
49.83399
 10
-34.20725
 20
50.02302
 10
-33.11860999999999
 20
50.37071
 10
-32.09064999999999
 20
50.86996
 10
-28.00935
 20
53.2263
 10
-28.00934
 20
53.22631
 10
-27.06284
 20
53.86706
 10
-26.21744
 20
54.63601
 10
-25.49022
 20
55.5176
 10
-24.89605
 20
56.49376
 10
-24.44701
 20
57.54469
 10
-24.15231
 20
58.64888
 10
-24.01794
 20
59.78378
 10
-24.04666
 20
60.92625
 10
-24.04666999999999
 20
60.92631
 10
-24.62137999999999
 20
66.85557
 10
-12.10505
 20
70.20931
 10
-9.63813
 20
64.78705999999999
 10
-9.63813
 20
64.78704999999999
 10
-9.09171
 20
63.78319
 10
-8.407899999999999
 20
62.86754
 10
-7.60062
 20
62.05868
 10
-6.68627
 20
61.37306
 10
-6.686259999999999
 20
61.37306
 10
-5.683489999999999
 20
60.82468999999999
 10
-4.61289
 20
60.42485
 10
-3.496239999999999
 20
60.18163
 10
-2.356339999999999
 20
60.1
 10
2.356339999999999
 20
60.1
 10
3.49636
 20
60.18164999999999
 10
4.613
 20
60.42488
 10
5.6836
 20
60.82474
 10
6.686259999999999
 20
61.37306
 10
6.68627
 20
61.37306
 10
7.60071
 20
62.05875999999999
 10
8.40798
 20
62.86763
 10
9.091779999999999
 20
63.7833
 10
9.63813
 20
64.78704999999999
 10
9.63813
 20
64.78705999999999
 10
12.10505
 20
70.20931
 10
24.62137999999999
 20
66.85557
 10
24.04666999999999
 20
60.92631
 10
24.01794999999999
 20
59.78366
 10
24.15233
 20
58.64876
 10
24.44705
 20
57.54457
 10
24.89605
 20
56.49376
 10
25.49029
 20
55.5175
 10
26.21753
 20
54.63593
 10
27.06294
 20
53.86699
 10
28.00934
 20
53.22631
 10
28.00935
 20
53.2263
 10
32.09064999999999
 20
50.86996
 10
33.11872
 20
50.37067
 10
34.20736999999999
 20
50.02299
 10
35.33444999999999
 20
49.83398
 10
36.47701
 20
49.8075
 10
37.61174
 20
49.94411
 10
38.71533
 20
50.24098
 10
39.76536
 20
50.69207
 10
40.74038999999999
 20
51.28817
 10
40.7404
 20
51.28817999999999
 10
45.58793
 20
54.75052
 10
54.75052
 20
45.58793
 10
51.28817999999999
 20
40.7404
 10
51.28817
 20
40.74038999999999
 10
50.69196
 20
39.76514
 10
50.24090000000001
 20
38.7151
 10
49.94406
 20
37.6115
 10
49.8075
 20
36.47701
 10
49.83399
 20
35.33433
 10
50.02302
 20
34.20725
 10
50.37071
 20
33.11860999999999
 10
50.86998
 20
32.09061
 10
50.86996
 20
32.09064999999999
 10
53.2263
 20
28.00935
 10
53.22631
 20
28.00934
 10
53.86706
 20
27.06284
 10
54.63601
 20
26.21744
 10
55.5176
 20
25.49022
 10
56.49376
 20
24.89605
 10
57.54469
 20
24.44701
 10
58.64888
 20
24.15231
 10
59.78378
 20
24.01794
 10
60.92625
 20
24.04666
 10
60.92631
 20
24.04666999999999
 10
66.85557
 20
24.62137999999999
 10
70.20931
 20
12.10505
 10
64.78705999999999
 20
9.63813
 10
64.78704999999999
 20
9.63813
 10
63.78309
 20
9.091649999999999
 10
62.86744999999999
 20
8.407819999999999
 10
62.0586
 20
7.60053
 10
61.37306
 20
6.68627
 10
61.37306
 20
6.686259999999999
 10
60.82464
 20
5.683379999999999
 10
60.42481
 20
4.61277
 10
60.18161
 20
3.496119999999999
 10
60.1
 20
2.356339999999999
 10
60.1
 20
-2.356339999999999
 10
60.18164999999999
 20
-3.49636
 10
60.42488
 20
-4.613
 10
60.82474
 20
-5.6836
 10
61.37306999999999
 20
-6.686289999999999
 10
61.37306
 20
-6.686259999999999
 10
61.37306
 20
-6.68627
 10
62.05875999999999
 20
-7.60071
 10
62.86763
 20
-8.40798
 10
63.7833
 20
-9.091779999999999
 10
64.78704999999999
 20
-9.63813
 10
64.78705999999999
 20
-9.63813
 10
70.20931
 20
-12.10505
 10
66.85557
 20
-24.62137999999999
 10
60.92631
 20
-24.04666999999999
 10
59.78378
 20
-24.01794
 10
58.64888
 20
-24.15231
 10
57.54469
 20
-24.44701
 10
56.49376
 20
-24.89603999999999
 10
56.49376
 20
-24.89605
 10
55.5174
 20
-25.49036
 10
54.63584
 20
-26.21761
 10
53.86690999999999
 20
-27.06303
 10
53.22631
 20
-28.00934
 10
53.2263
 20
-28.00935
 10
50.86996
 20
-32.09064999999999
 10
50.37067
 20
-33.11872
 10
50.02299
 20
-34.20736999999999
 10
49.83398
 20
-35.33444999999999
 10
49.80749
 20
-36.47695999999999
 10
49.8075
 20
-36.47701
 10
49.94411
 20
-37.61174
 10
50.24098
 20
-38.71533
 10
50.69207
 20
-39.76536
 10
51.28817
 20
-40.74038999999999
 10
51.28817999999999
 20
-40.7404
 10
54.75052
 20
-45.58793
 10
45.58793
 20
-54.75052
 10
40.7404
 20
-51.28817999999999
 10
40.74038999999999
 20
-51.28817
 10
39.76525
 20
-50.69201
 10
38.71520999999999
 20
-50.24094
 10
37.61162
 20
-49.94407999999999
 10
36.47701
 20
-49.8075
 10
35.33433
 20
-49.83399
 10
34.20725
 20
-50.02302
 10
33.11860999999999
 20
-50.37071
 10
32.09064999999999
 20
-50.86996
 10
28.00935
 20
-53.2263
 10
28.00934
 20
-53.22631
 10
27.06274
 20
-53.86714
 10
26.21736
 20
-54.6361
 10
25.49015
 20
-55.5177
 10
24.89605
 20
-56.49376
 10
24.44697
 20
-57.5448
 10
24.15229
 20
-58.649
 10
24.01794
 20
-59.7839
 10
24.04666999999999
 20
-60.92631
 10
24.62137999999999
 20
-66.85557
 10
12.10505
 20
-70.20931
 10
9.63813
 20
-64.78705999999999
 10
9.63813
 20
-64.78704999999999
 10
9.09171
 20
-63.78319
 10
8.407899999999999
 20
-62.86754
 10
7.60062
 20
-62.05868
 10
6.68627
 20
-61.37306
 10
6.686259999999999
 20
-61.37306
 10
5.6836
 20
-60.82474
 10
4.61289
 20
-60.42485
 10
3.496239999999999
 20
-60.18163
 10
2.356339999999999
 20
-60.1
  0
LWPOLYLINE
  5
231
330
5E2
100
AcDbEntity
  8
0
 62
     1
100
AcDbPolyline
 90
      278
 70
     1
 43
0.0
 10
2.356339999999999
 20
-64.1
 10
-2.356339999999999
 20
-64.1
 10
-2.926289999999999
 20
-64.14081
 10
-3.484679999999999
 20
-64.26244
 10
-4.01998
 20
-64.46237
 10
-4.521309999999999
 20
-64.73653
 10
-4.97857
 20
-65.07940999999999
 10
-5.3822
 20
-65.48386
 10
-5.724099999999999
 20
-65.94171
 10
-5.997239999999999
 20
-66.44352999999999
 10
-9.867359999999999
 20
-74.95
 10
-28.92962
 20
-69.84228
 10
-28.02801
 20
-60.54041
 10
-28.01365
 20
-59.96914
 10
-28.08082999999999
 20
-59.40167999999999
 10
-28.22817999999999
 20
-58.84959
 10
-28.4527
 20
-58.32412
 10
-28.4527
 20
-58.32412999999999
 10
-28.74981
 20
-57.83601
 10
-29.11344
 20
-57.39520999999999
 10
-29.53615
 20
-57.01074
 10
-30.00934
 20
-56.69040999999999
 10
-30.00935
 20
-56.69039999999999
 10
-34.09065
 20
-54.33406
 10
-34.09066
 20
-54.33406
 10
-34.60468
 20
-54.08442
 10
-35.14901
 20
-53.91058000000001
 10
-35.71255
 20
-53.81607999999999
 10
-36.28379999999999
 20
-53.80284
 10
-36.28383
 20
-53.80283
 10
-36.28384
 20
-53.80283
 10
-36.85127
 20
-53.87114
 10
-37.40306
 20
-54.01958
 10
-37.92806
 20
-54.24513000000001
 10
-38.41552999999999
 20
-54.54317
 10
-46.02038
 20
-59.97493
 10
-59.97493
 20
-46.02038
 10
-54.54317
 20
-38.41552999999999
 10
-54.24508
 20
-37.92795
 10
-54.01953999999999
 20
-37.40294
 10
-53.87111
 20
-36.85114999999999
 10
-53.80283
 20
-36.28384
 10
-53.80283
 20
-36.28383
 10
-53.81607999999999
 20
-35.71255
 10
-53.91058000000001
 20
-35.14901
 10
-54.08442
 20
-34.60468
 10
-54.33405
 20
-34.09067999999999
 10
-54.33406
 20
-34.09066
 10
-54.33406
 20
-34.09065
 10
-56.69039999999999
 20
-30.00935
 10
-57.01074
 20
-29.53615
 10
-57.39520999999999
 20
-29.11344
 10
-57.83601
 20
-28.74981
 10
-58.32411
 20
-28.45271
 10
-58.32412999999999
 20
-28.4527
 10
-58.84959
 20
-28.22817999999999
 10
-59.40167999999999
 20
-28.08082999999999
 10
-59.96914
 20
-28.01365
 10
-60.54038
 20
-28.02801
 10
-60.54041
 20
-28.02801
 10
-69.84228
 20
-28.92962
 10
-74.95
 20
-9.867359999999999
 10
-66.44352999999999
 20
-5.997239999999999
 10
-65.94160999999999
 20
-5.724039999999999
 10
-65.48377000000001
 20
-5.382119999999999
 10
-65.07933
 20
-4.978469999999999
 10
-64.73653
 20
-4.521309999999999
 10
-64.46235
 20
-4.019919999999999
 10
-64.26242000000001
 20
-3.48462
 10
-64.14081
 20
-2.926289999999999
 10
-64.1
 20
-2.356339999999999
 10
-64.1
 20
2.356339999999999
 10
-64.14082
 20
2.926349999999999
 10
-64.26244
 20
3.484679999999999
 10
-64.46237
 20
4.01998
 10
-64.73653
 20
4.521309999999999
 10
-65.07937
 20
4.978519999999999
 10
-65.48382
 20
5.382159999999999
 10
-65.94166
 20
5.72407
 10
-66.44352999999999
 20
5.997239999999999
 10
-74.95
 20
9.867359999999999
 10
-69.84228
 20
28.92962
 10
-60.54041
 20
28.02801
 10
-59.96914
 20
28.01365
 10
-59.40167999999999
 20
28.08082999999999
 10
-58.84959
 20
28.22817999999999
 10
-58.32412
 20
28.4527
 10
-58.32412999999999
 20
28.4527
 10
-57.83601
 20
28.74981
 10
-57.39520999999999
 20
29.11344
 10
-57.01074
 20
29.53615
 10
-56.69040999999999
 20
30.00934
 10
-56.69039999999999
 20
30.00935
 10
-54.33406
 20
34.09065
 10
-54.33406
 20
34.09066
 10
-54.08442
 20
34.60468
 10
-53.91058000000001
 20
35.14901
 10
-53.81607999999999
 20
35.71255
 10
-53.80284
 20
36.28379999999999
 10
-53.80283
 20
36.28383
 10
-53.80283
 20
36.28384
 10
-53.87113
 20
36.85121
 10
-54.01956
 20
37.40299999999999
 10
-54.2451
 20
37.92801
 10
-54.54317
 20
38.41552999999999
 10
-59.97493
 20
46.02038
 10
-46.02038
 20
59.97493
 10
-38.41552999999999
 20
54.54317
 10
-37.92795
 20
54.24508
 10
-37.40294
 20
54.01953999999999
 10
-36.85114999999999
 20
53.87111
 10
-36.28384
 20
53.80283
 10
-36.28383
 20
53.80283
 10
-35.71255
 20
53.81607999999999
 10
-35.14901
 20
53.91058000000001
 10
-34.60468
 20
54.08442
 10
-34.09067999999999
 20
54.33405
 10
-34.09066
 20
54.33406
 10
-34.09065
 20
54.33406
 10
-30.00935
 20
56.69039999999999
 10
-29.53615
 20
57.01074
 10
-29.11344
 20
57.39520999999999
 10
-28.74981
 20
57.83601
 10
-28.45271
 20
58.32411
 10
-28.4527
 20
58.32412999999999
 10
-28.22817999999999
 20
58.84959
 10
-28.08082999999999
 20
59.40167999999999
 10
-28.01365
 20
59.96914
 10
-28.02801
 20
60.54038
 10
-28.02801
 20
60.54041
 10
-28.92962
 20
69.84228
 10
-9.867359999999999
 20
74.95
 10
-5.997239999999999
 20
66.44352999999999
 10
-5.724039999999999
 20
65.94160999999999
 10
-5.382119999999999
 20
65.48377000000001
 10
-4.978469999999999
 20
65.07933
 10
-4.521309999999999
 20
64.73653
 10
-4.019919999999999
 20
64.46235
 10
-3.48462
 20
64.26242000000001
 10
-2.926289999999999
 20
64.14081
 10
-2.356339999999999
 20
64.1
 10
2.356339999999999
 20
64.1
 10
2.926349999999999
 20
64.14082
 10
3.484679999999999
 20
64.26244
 10
4.01998
 20
64.46237
 10
4.521309999999999
 20
64.73653
 10
4.978519999999999
 20
65.07937
 10
5.382159999999999
 20
65.48382
 10
5.72407
 20
65.94166
 10
5.997239999999999
 20
66.44352999999999
 10
9.867359999999999
 20
74.95
 10
28.92962
 20
69.84228
 10
28.02801
 20
60.54041
 10
28.01365
 20
59.96908
 10
28.08084
 20
59.40162
 10
28.2282
 20
58.84953
 10
28.4527
 20
58.32412999999999
 10
28.74981
 20
57.83601
 10
29.11344
 20
57.39520999999999
 10
29.53615
 20
57.01074
 10
30.00934
 20
56.69040999999999
 10
30.00935
 20
56.69039999999999
 10
34.09065
 20
54.33406
 10
34.09066
 20
54.33406
 10
34.60468
 20
54.08442
 10
35.14901
 20
53.91058000000001
 10
35.71255
 20
53.81607999999999
 10
36.28379999999999
 20
53.80284
 10
36.28383
 20
53.80283
 10
36.28384
 20
53.80283
 10
36.85121
 20
53.87113
 10
37.40299999999999
 20
54.01956
 10
37.92801
 20
54.2451
 10
38.41552999999999
 20
54.54317
 10
46.02038
 20
59.97493
 10
59.97493
 20
46.02038
 10
54.54317
 20
38.41552999999999
 10
54.24504999999999
 20
37.9279
 10
54.01952
 20
37.40288
 10
53.87109999999999
 20
36.85109
 10
53.80283
 20
36.28384
 10
53.80283
 20
36.28383
 10
53.81609
 20
35.71249
 10
53.9106
 20
35.14895
 10
54.08445
 20
34.60463
 10
54.33406
 20
34.09066
 10
54.33406
 20
34.09065
 10
56.69039999999999
 20
30.00935
 10
57.01074
 20
29.53615
 10
57.39520999999999
 20
29.11344
 10
57.83601
 20
28.74981
 10
58.32411
 20
28.45271
 10
58.32412999999999
 20
28.4527
 10
58.84959
 20
28.22817999999999
 10
59.40167999999999
 20
28.08082999999999
 10
59.96914
 20
28.01365
 10
60.54038
 20
28.02801
 10
60.54041
 20
28.02801
 10
69.84228
 20
28.92962
 10
74.95
 20
9.867359999999999
 10
66.44352999999999
 20
5.997239999999999
 10
65.94155999999999
 20
5.724
 10
65.48372999999999
 20
5.38208
 10
65.07929
 20
4.97843
 10
64.73653
 20
4.521309999999999
 10
64.46232000000001
 20
4.01987
 10
64.26241
 20
3.48456
 10
64.14081
 20
2.926229999999999
 10
64.1
 20
2.356339999999999
 10
64.1
 20
-2.356339999999999
 10
64.14082
 20
-2.926349999999999
 10
64.26244
 20
-3.484679999999999
 10
64.46237
 20
-4.01998
 10
64.73654
 20
-4.52132
 10
64.73653
 20
-4.521309999999999
 10
65.07937
 20
-4.978519999999999
 10
65.48382
 20
-5.382159999999999
 10
65.94166
 20
-5.72407
 10
66.44352999999999
 20
-5.997239999999999
 10
74.95
 20
-9.867359999999999
 10
69.84228
 20
-28.92962
 10
60.54041
 20
-28.02801
 10
59.96914
 20
-28.01365
 10
59.40167999999999
 20
-28.08082999999999
 10
58.84959
 20
-28.22817999999999
 10
58.32412
 20
-28.4527
 10
58.32412999999999
 20
-28.4527
 10
57.83596
 20
-28.74985
 10
57.39517
 20
-29.11348
 10
57.0107
 20
-29.5362
 10
56.69038
 20
-30.00939
 10
56.69039999999999
 20
-30.00935
 10
54.33406
 20
-34.09065
 10
54.33406
 20
-34.09066
 10
54.0844
 20
-34.60474
 10
53.91056999999999
 20
-35.14907
 10
53.81607
 20
-35.71260999999999
 10
53.80283
 20
-36.28383
 10
53.80283
 20
-36.28384
 10
53.87113
 20
-36.85121
 10
54.01956
 20
-37.40299999999999
 10
54.2451
 20
-37.92801
 10
54.54317
 20
-38.41552999999999
 10
59.97493
 20
-46.02038
 10
46.02038
 20
-59.97493
 10
38.41552999999999
 20
-54.54317
 10
37.92795
 20
-54.24508
 10
37.40294
 20
-54.01953999999999
 10
36.85114999999999
 20
-53.87111
 10
36.28384
 20
-53.80283
 10
36.28383
 20
-53.80283
 10
35.71255
 20
-53.81607999999999
 10
35.14901
 20
-53.91058000000001
 10
34.60468
 20
-54.08442
 10
34.09067999999999
 20
-54.33405
 10
34.09066
 20
-54.33406
 10
34.09065
 20
-54.33406
 10
30.00935
 20
-56.69039999999999
 10
29.5361
 20
-57.01077999999999
 10
29.1134
 20
-57.39526
 10
28.74978
 20
-57.83606
 10
28.45268
 20
-58.32417
 10
28.4527
 20
-58.32412999999999
 10
28.22815999999999
 20
-58.84964
 10
28.08082
 20
-59.40173999999999
 10
28.01363999999999
 20
-59.9692
 10
28.02801
 20
-60.54041
 10
28.92962
 20
-69.84228
 10
9.867359999999999
 20
-74.95
 10
5.997239999999999
 20
-66.44352999999999
 10
5.724039999999999
 20
-65.94160999999999
 10
5.382119999999999
 20
-65.48377000000001
 10
4.978469999999999
 20
-65.07933
 10
4.521309999999999
 20
-64.73653
 10
4.01998
 20
-64.46237
 10
3.48462
 20
-64.26242000000001
 10
2.926289999999999
 20
-64.14081
 10
2.356339999999999
 20
-64.1
  0
ARC
  5
349
330
5E2
100
AcDbEntity
  8
0
 62
     1
100
AcDbCircle
 10
0.0
 20
0.0
 30
0.0
 40
30.0
100
AcDbArc
 50
40.54159499999999
 51
57.769043
  0
INSERT
  5
34A
330
5E2
100
AcDbEntity
  8
0
100
AcDbBlockReference
  2
__25
 10
0.0
 20
0.0
 30
0.0
  0
ENDBLK
  5
34B
330
5E2
100
AcDbEntity
  8
0
100
AcDbBlockEnd
  0
BLOCK
  5
34C
330
5E3
100
AcDbEntity
  8
0
100
AcDbBlockBegin
  2
324B
 70
     0
 10
0.0
 20
0.0
 30
0.0
  3
324B
  1

  0
LINE
  5
34D
330
5E3
100
AcDbEntity
  8
0
 62
     1
100
AcDbLine
 10
18.14999999999999
 20
-77.7
 30
0.0
 11
40.35
 21
-77.7
 31
0.0
  0
LINE
  5
34E
330
5E3
100
AcDbEntity
  8
0
 62
     1
100
AcDbLine
 10
18.14999999999999
 20
-72.59228
 30
0.0
 11
40.35
 21
-72.59228
 31
0.0
  0
LINE
  5
34F
330
5E3
100
AcDbEntity
  8
0
 62
     1
100
AcDbLine
 10
18.14999999999999
 20
-62.72493
 30
0.0
 11
40.35
 21
-62.72493
 31
0.0
  0
LINE
  5
350
330
5E3
100
AcDbEntity
  8
0
 62
     1
100
AcDbLine
 10
18.14999999999999
 20
-48.77038
 30
0.0
 11
40.35
 21
-48.77038
 31
0.0
  0
LINE
  5
351
330
5E3
100
AcDbEntity
  8
0
 62
     1
100
AcDbLine
 10
18.14999999999999
 20
-31.67962
 30
0.0
 11
40.35
 21
-31.67962
 31
0.0
  0
LINE
  5
352
330
5E3
100
AcDbEntity
  8
0
 62
     1
100
AcDbLine
 10
18.14999999999999
 20
-12.61735999999999
 30
0.0
 11
40.35
 21
-12.61735999999999
 31
0.0
  0
LINE
  5
353
330
5E3
100
AcDbEntity
  8
0
 62
     1
100
AcDbLine
 10
18.14999999999999
 20
7.117359999999999
 30
0.0
 11
40.35
 21
7.117359999999999
 31
0.0
  0
LINE
  5
354
330
5E3
100
AcDbEntity
  8
0
 62
     1
100
AcDbLine
 10
18.14999999999999
 20
26.17962
 30
0.0
 11
40.35
 21
26.17962
 31
0.0
  0
LINE
  5
355
330
5E3
100
AcDbEntity
  8
0
 62
     1
100
AcDbLine
 10
18.14999999999999
 20
43.27038
 30
0.0
 11
40.35
 21
43.27038
 31
0.0
  0
LINE
  5
356
330
5E3
100
AcDbEntity
  8
0
 62
     1
100
AcDbLine
 10
18.14999999999999
 20
57.22493
 30
0.0
 11
40.35
 21
57.22493
 31
0.0
  0
LINE
  5
357
330
5E3
100
AcDbEntity
  8
0
 62
     1
100
AcDbLine
 10
18.14999999999999
 20
67.09228
 30
0.0
 11
40.35
 21
67.09228
 31
0.0
  0
LINE
  5
358
330
5E3
100
AcDbEntity
  8
0
 62
     1
100
AcDbLine
 10
18.14999999999999
 20
72.2
 30
0.0
 11
40.35
 21
72.2
 31
0.0
  0
LINE
  5
359
330
5E3
100
AcDbEntity
  8
0
 62
     1
100
AcDbLine
 10
47.81309
 20
32.75
 30
0.0
 11
40.35
 21
47.30148999999999
 31
0.0
  0
LINE
  5
35A
330
5E3
100
AcDbEntity
  8
0
 62
     1
100
AcDbLine
 10
10.68691
 20
32.75
 30
0.0
 11
18.14999999999999
 21
47.30148999999999
 31
0.0
  0
LINE
  5
35B
330
5E3
100
AcDbEntity
  8
0
 62
     1
100
AcDbLine
 10
50.63391
 20
-32.75
 30
0.0
 11
40.35
 21
-52.80149
 31
0.0
  0
LINE
  5
35C
330
5E3
100
AcDbEntity
  8
0
 62
     1
100
AcDbLine
 10
7.866089999999999
 20
-32.75
 30
0.0
 11
18.14999999999999
 21
-52.80149
 31
0.0
  0
LINE
  5
35D
330
5E3
100
AcDbEntity
  8
0
 62
     1
100
AcDbLine
 10
0.0
 20
-2.75
 30
0.0
 11
58.5
 21
-2.75
 31
0.0
  0
LINE
  5
35E
330
5E3
100
AcDbEntity
  8
0
 62
     1
100
AcDbLine
 10
40.35
 20
-32.75
 30
0.0
 11
58.5
 21
-32.75
 31
0.0
  0
LINE
  5
35F
330
5E3
100
AcDbEntity
  8
0
 62
     1
100
AcDbLine
 10
40.35
 20
-22.25
 30
0.0
 11
58.5
 21
-22.25
 31
0.0
  0
LINE
  5
360
330
5E3
100
AcDbEntity
  8
0
 62
     1
100
AcDbLine
 10
40.35
 20
16.75
 30
0.0
 11
58.5
 21
16.75
 31
0.0
  0
LINE
  5
361
330
5E3
100
AcDbEntity
  8
0
 62
     1
100
AcDbLine
 10
40.35
 20
32.75
 30
0.0
 11
58.5
 21
32.75
 31
0.0
  0
LINE
  5
362
330
5E3
100
AcDbEntity
  8
0
 62
     1
100
AcDbLine
 10
0.0
 20
-32.75
 30
0.0
 11
18.14999999999999
 21
-32.75
 31
0.0
  0
LINE
  5
363
330
5E3
100
AcDbEntity
  8
0
 62
     1
100
AcDbLine
 10
0.0
 20
-22.25
 30
0.0
 11
18.14999999999999
 21
-22.25
 31
0.0
  0
LINE
  5
364
330
5E3
100
AcDbEntity
  8
0
 62
     1
100
AcDbLine
 10
0.0
 20
16.75
 30
0.0
 11
18.14999999999999
 21
16.75
 31
0.0
  0
LINE
  5
365
330
5E3
100
AcDbEntity
  8
0
 62
     1
100
AcDbLine
 10
0.0
 20
32.75
 30
0.0
 11
18.14999999999999
 21
32.75
 31
0.0
  0
LINE
  5
366
330
5E3
100
AcDbEntity
  8
0
 62
     1
100
AcDbLine
 10
18.14999999999999
 20
72.2
 30
0.0
 11
18.14999999999999
 21
-77.7
 31
0.0
  0
LINE
  5
367
330
5E3
100
AcDbEntity
  8
0
 62
     1
100
AcDbLine
 10
40.35
 20
72.2
 30
0.0
 11
40.35
 21
-77.7
 31
0.0
  0
LINE
  5
368
330
5E3
100
AcDbEntity
  8
0
 62
     1
100
AcDbLine
 10
0.0
 20
32.75
 30
0.0
 11
0.0
 21
-32.75
 31
0.0
  0
LINE
  5
369
330
5E3
100
AcDbEntity
  8
0
 62
     1
100
AcDbLine
 10
18.14999999999999
 20
-77.7
 30
0.0
 11
40.35
 21
-77.7
 31
0.0
  0
LINE
  5
36A
330
5E3
100
AcDbEntity
  8
0
 62
     1
100
AcDbLine
 10
58.5
 20
32.75
 30
0.0
 11
58.5
 21
-32.75
 31
0.0
  0
LINE
  5
36B
330
5E3
100
AcDbEntity
  8
0
 62
     1
100
AcDbLine
 10
18.14999999999999
 20
72.2
 30
0.0
 11
40.35
 21
72.2
 31
0.0
  0
ENDBLK
  5
36C
330
5E3
100
AcDbEntity
  8
0
100
AcDbBlockEnd
  0
ENDSEC
  0
SECTION
  2
ENTITIES
  0
LINE
  5
5F7
330
5CC
100
AcDbEntity
  8
0
 62
     1
100
AcDbLine
 10
-88.525
 20
-66.15000000000001
 30
0.0
 11
-46.92500000000001
 21
-66.15000000000001
 31
0.0
  0
LINE
  5
5F8
330
5CC
100
AcDbEntity
  8
0
 62
     1
100
AcDbLine
 10
-137.525
 20
-82.65
 30
0.0
 11
-147.025
 21
-82.65
 31
0.0
  0
LINE
  5
5F9
330
5CC
100
AcDbEntity
  8
0
 62
     1
100
AcDbLine
 10
-147.025
 20
-46.65
 30
0.0
 11
-147.025
 21
-51.65
 31
0.0
  0
LINE
  5
5FA
330
5CC
100
AcDbEntity
  8
0
 62
     1
100
AcDbLine
 10
-147.025
 20
-51.65
 30
0.0
 11
-137.525
 21
-51.65
 31
0.0
  0
LINE
  5
5FB
330
5CC
100
AcDbEntity
  8
0
 62
     1
100
AcDbLine
 10
-137.525
 20
-51.65
 30
0.0
 11
-137.525
 21
-46.65
 31
0.0
  0
LINE
  5
5FC
330
5CC
100
AcDbEntity
  8
0
 62
     1
100
AcDbLine
 10
-137.525
 20
-82.65
 30
0.0
 11
-137.525
 21
-77.65
 31
0.0
  0
LINE
  5
5FD
330
5CC
100
AcDbEntity
  8
0
 62
     1
100
AcDbLine
 10
-147.025
 20
-77.65
 30
0.0
 11
-147.025
 21
-82.65
 31
0.0
  0
LINE
  5
5FE
330
5CC
100
AcDbEntity
  8
0
 62
     1
100
AcDbLine
 10
-137.525
 20
-77.65
 30
0.0
 11
-147.025
 21
-77.65
 31
0.0
  0
LINE
  5
5FF
330
5CC
100
AcDbEntity
  8
0
 62
     1
100
AcDbLine
 10
-84.525
 20
-80.65000000000001
 30
0.0
 11
-75.02500000000001
 21
-80.65000000000001
 31
0.0
  0
LINE
  5
600
330
5CC
100
AcDbEntity
  8
0
 62
     1
100
AcDbLine
 10
-75.02500000000001
 20
-80.65000000000001
 30
0.0
 11
-75.02500000000001
 21
-85.65000000000001
 31
0.0
  0
LINE
  5
601
330
5CC
100
AcDbEntity
  8
0
 62
     1
100
AcDbLine
 10
-84.525
 20
-85.65000000000001
 30
0.0
 11
-84.525
 21
-80.65000000000001
 31
0.0
  0
LINE
  5
602
330
5CC
100
AcDbEntity
  8
0
 62
     1
100
AcDbLine
 10
-84.525
 20
-54.65
 30
0.0
 11
-84.525
 21
-49.65
 31
0.0
  0
LINE
  5
603
330
5CC
100
AcDbEntity
  8
0
 62
     1
100
AcDbLine
 10
-75.02500000000001
 20
-54.65
 30
0.0
 11
-84.525
 21
-54.65
 31
0.0
  0
LINE
  5
604
330
5CC
100
AcDbEntity
  8
0
 62
     1
100
AcDbLine
 10
-75.02500000000001
 20
-49.65
 30
0.0
 11
-75.02500000000001
 21
-54.65
 31
0.0
  0
LINE
  5
605
330
5CC
100
AcDbEntity
  8
0
 62
     1
100
AcDbLine
 10
-84.525
 20
-49.65
 30
0.0
 11
-75.02500000000001
 21
-49.65
 31
0.0
  0
ARC
  5
606
330
5CC
100
AcDbEntity
  8
0
 62
     1
100
AcDbCircle
 10
-111.025
 20
-66.15000000000001
 30
0.0
 40
30.0
100
AcDbArc
 50
122.230957
 51
139.4584049999996
  0
ARC
  5
607
330
5CC
100
AcDbEntity
  8
0
 62
     1
100
AcDbCircle
 10
-99.02500000000001
 20
-34.65
 30
0.0
 40
4.0
100
AcDbArc
 50
0.0
 51
90.0
  0
ARC
  5
608
330
5CC
100
AcDbEntity
  8
0
 62
     1
100
AcDbCircle
 10
-123.025
 20
-34.65
 30
0.0
 40
4.0
100
AcDbArc
 50
90.0
 51
180.0
  0
LINE
  5
609
330
5CC
100
AcDbEntity
  8
0
 62
     1
100
AcDbLine
 10
-123.025
 20
-30.65
 30
0.0
 11
-99.02500000000001
 21
-30.65
 31
0.0
  0
LINE
  5
60A
330
5CC
100
AcDbEntity
  8
0
 62
     1
100
AcDbLine
 10
-95.02500000000001
 20
-40.77284
 30
0.0
 11
-95.02500000000001
 21
-34.65
 31
0.0
  0
LINE
  5
60B
330
5CC
100
AcDbEntity
  8
0
 62
     1
100
AcDbLine
 10
-127.025
 20
-40.77284
 30
0.0
 11
-127.025
 21
-34.65
 31
0.0
  0
LINE
  5
60C
330
5CC
100
AcDbEntity
  8
0
 62
     1
100
AcDbLine
 10
-92.2976
 20
-89.58682000000001
 30
0.0
 11
-76.93161
 21
-116.20149
 31
0.0
  0
LINE
  5
60D
330
5CC
100
AcDbEntity
  8
0
 62
     1
100
AcDbLine
 10
-86.67210999999999
 20
-117.33044
 30
0.0
 11
-78.87789000000001
 21
-112.83044
 31
0.0
  0
LINE
  5
60E
330
5CC
100
AcDbEntity
  8
0
 62
     1
100
AcDbLine
 10
-100.09182
 20
-94.08682
 30
0.0
 11
-84.72584000000001
 21
-120.70149
 31
0.0
  0
LINE
  5
60F
330
5CC
100
AcDbEntity
  8
0
 62
     1
100
AcDbLine
 10
-129.7523999999999
 20
-89.58682000000001
 30
0.0
 11
-145.11839
 21
-116.20149
 31
0.0
  0
LINE
  5
610
330
5CC
100
AcDbEntity
  8
0
 62
     1
100
AcDbLine
 10
-121.95818
 20
-94.08682
 30
0.0
 11
-137.32416
 21
-120.70149
 31
0.0
  0
LINE
  5
611
330
5CC
100
AcDbEntity
  8
0
 62
     1
100
AcDbLine
 10
-135.37789
 20
-117.33044
 30
0.0
 11
-143.17211
 21
-112.83044
 31
0.0
  0
LINE
  5
612
330
5CC
100
AcDbEntity
  8
0
 62
     1
100
AcDbLine
 10
-96.32873000000001
 20
-31.69532
 30
0.0
 11
-84.72584000000001
 21
-11.59851
 31
0.0
  0
LINE
  5
613
330
5CC
100
AcDbEntity
  8
0
 62
     1
100
AcDbLine
 10
-92.2976
 20
-42.71318
 30
0.0
 11
-76.93161
 21
-16.09851
 31
0.0
  0
LINE
  5
614
330
5CC
100
AcDbEntity
  8
0
 62
     1
100
AcDbLine
 10
-86.67210999999999
 20
-14.96956
 30
0.0
 11
-78.87789000000001
 21
-19.46956000000001
 31
0.0
  0
LINE
  5
615
330
5CC
100
AcDbEntity
  8
0
 62
     1
100
AcDbLine
 10
-129.7523999999999
 20
-42.71318
 30
0.0
 11
-145.11839
 21
-16.09851
 31
0.0
  0
LINE
  5
616
330
5CC
100
AcDbEntity
  8
0
 62
     1
100
AcDbLine
 10
-125.7212699999999
 20
-31.69532
 30
0.0
 11
-137.32416
 21
-11.59851
 31
0.0
  0
LINE
  5
617
330
5CC
100
AcDbEntity
  8
0
 62
     1
100
AcDbLine
 10
-135.37789
 20
-14.96956
 30
0.0
 11
-143.17211
 21
-19.46956000000001
 31
0.0
  0
LINE
  5
618
330
5CC
100
AcDbEntity
  8
0
 62
     1
100
AcDbLine
 10
-73.02500000000001
 20
-61.65
 30
0.0
 11
-50.63245000000001
 21
-61.65
 31
0.0
  0
LINE
  5
619
330
5CC
100
AcDbEntity
  8
0
 62
     1
100
AcDbLine
 10
-54.525
 20
-70.65000000000001
 30
0.0
 11
-54.525
 21
-61.65
 31
0.0
  0
LINE
  5
61A
330
5CC
100
AcDbEntity
  8
0
 62
     1
100
AcDbLine
 10
-73.02500000000001
 20
-70.65000000000001
 30
0.0
 11
-50.63245000000001
 21
-70.65000000000001
 31
0.0
  0
LINE
  5
61B
330
5CC
100
AcDbEntity
  8
0
 62
     1
100
AcDbLine
 10
-133.525
 20
-66.15000000000001
 30
0.0
 11
-175.1249999999999
 21
-66.15000000000001
 31
0.0
  0
LINE
  5
61C
330
5CC
100
AcDbEntity
  8
0
 62
     1
100
AcDbLine
 10
-167.525
 20
-61.65
 30
0.0
 11
-167.525
 21
-70.65000000000001
 31
0.0
  0
LINE
  5
61D
330
5CC
100
AcDbEntity
  8
0
 62
     1
100
AcDbLine
 10
-149.025
 20
-70.65000000000001
 30
0.0
 11
-171.41755
 21
-70.65000000000001
 31
0.0
  0
LINE
  5
61E
330
5CC
100
AcDbEntity
  8
0
 62
     1
100
AcDbLine
 10
-73.02500000000001
 20
-46.65
 30
0.0
 11
-73.02500000000001
 21
-85.65000000000001
 31
0.0
  0
LINE
  5
61F
330
5CC
100
AcDbEntity
  8
0
 62
     1
100
AcDbLine
 10
-73.02500000000001
 20
-85.65000000000001
 30
0.0
 11
-88.22697000000001
 21
-85.65000000000001
 31
0.0
  0
LINE
  5
620
330
5CC
100
AcDbEntity
  8
0
 62
     1
100
AcDbLine
 10
-73.02500000000001
 20
-46.65
 30
0.0
 11
-88.22697000000001
 21
-46.65
 31
0.0
  0
LINE
  5
621
330
5CC
100
AcDbEntity
  8
0
 62
     1
100
AcDbLine
 10
-149.025
 20
-61.65
 30
0.0
 11
-171.41755
 21
-61.65
 31
0.0
  0
ARC
  5
622
330
5CC
100
AcDbEntity
  8
0
 62
     1
100
AcDbCircle
 10
-111.025
 20
-66.15000000000001
 30
0.0
 40
30.0
100
AcDbArc
 50
220.5416110000001
 51
319.4584049999996
  0
LINE
  5
623
330
5CC
100
AcDbEntity
  8
0
 62
     1
100
AcDbLine
 10
-149.025
 20
-46.65
 30
0.0
 11
-133.82303
 21
-46.65
 31
0.0
  0
LINE
  5
624
330
5CC
100
AcDbEntity
  8
0
 62
     1
100
AcDbLine
 10
-149.025
 20
-85.65000000000001
 30
0.0
 11
-133.82303
 21
-85.65000000000001
 31
0.0
  0
LINE
  5
625
330
5CC
100
AcDbEntity
  8
0
 62
     1
100
AcDbLine
 10
-149.025
 20
-46.65
 30
0.0
 11
-149.025
 21
-85.65000000000001
 31
0.0
  0
LWPOLYLINE
  5
626
330
5CC
100
AcDbEntity
  8
0
 62
     1
100
AcDbPolyline
 90
      282
 70
     1
 43
0.0
 10
-108.6686599999999
 20
-126.2499999999999
 10
-113.38134
 20
-126.2499999999999
 10
-114.52124
 20
-126.33163
 10
-115.638
 20
-126.57488
 10
-116.7086
 20
-126.9747399999999
 10
-117.71126
 20
-127.52306
 10
-117.71127
 20
-127.52306
 10
-118.6258
 20
-128.20884
 10
-119.43306
 20
-129.01773
 10
-120.11684
 20
-129.9333999999999
 10
-120.66313
 20
-130.9370499999999
 10
-120.66313
 20
-130.93706
 10
-123.13005
 20
-136.3593099999999
 10
-135.6463799999999
 20
-133.00557
 10
-135.07167
 20
-127.07631
 10
-135.04294
 20
-125.93378
 10
-135.17731
 20
-124.7988799999999
 10
-135.47201
 20
-123.69469
 10
-135.92104
 20
-122.64376
 10
-135.92105
 20
-122.64376
 10
-136.51529
 20
-121.6675
 10
-137.24253
 20
-120.78593
 10
-138.0879399999999
 20
-120.01699
 10
-139.03434
 20
-119.3763099999999
 10
-139.03435
 20
-119.3763
 10
-143.11565
 20
-117.0199599999999
 10
-144.14372
 20
-116.5206699999999
 10
-145.2323699999999
 20
-116.17299
 10
-146.35945
 20
-115.98398
 10
-147.50201
 20
-115.9575
 10
-148.63686
 20
-116.09413
 10
-149.74044
 20
-116.3910199999999
 10
-150.7904599999999
 20
-116.84213
 10
-151.76539
 20
-117.43817
 10
-151.7654
 20
-117.43818
 10
-156.61293
 20
-120.90052
 10
-165.7755199999999
 20
-111.73793
 10
-162.3131799999999
 20
-106.8904
 10
-162.31317
 20
-106.89039
 10
-161.71701
 20
-105.91525
 10
-161.26594
 20
-104.8652099999999
 10
-160.96908
 20
-103.7616199999999
 10
-160.8325
 20
-102.62701
 10
-160.85899
 20
-101.48433
 10
-161.04802
 20
-100.35725
 10
-161.39571
 20
-99.26861
 10
-161.89496
 20
-98.24065
 10
-164.2513
 20
-94.15935000000001
 10
-164.2513099999999
 20
-94.15934000000001
 10
-164.89206
 20
-93.21284
 10
-165.6610099999999
 20
-92.36743999999999
 10
-166.5426
 20
-91.64022000000001
 10
-167.51876
 20
-91.04605000000001
 10
-168.56969
 20
-90.59701000000002
 10
-169.67388
 20
-90.30231
 10
-170.80878
 20
-90.16794
 10
-171.95125
 20
-90.19666
 10
-171.95131
 20
-90.19667000000001
 10
-177.88057
 20
-90.77138000000001
 10
-181.2343099999999
 20
-78.25505000000001
 10
-175.8120599999999
 20
-75.78813000000001
 10
-175.8120499999999
 20
-75.78813000000001
 10
-174.80819
 20
-75.24171000000001
 10
-173.89254
 20
-74.5579
 10
-173.08368
 20
-73.75062000000001
 10
-172.39806
 20
-72.83627000000001
 10
-172.39806
 20
-72.83626000000001
 10
-171.84969
 20
-71.83349000000001
 10
-171.4498499999999
 20
-70.76289
 10
-171.20663
 20
-69.64624
 10
-171.1249999999999
 20
-68.50634000000001
 10
-171.1249999999999
 20
-63.79366
 10
-171.2066499999999
 20
-62.65364
 10
-171.44988
 20
-61.537
 10
-171.8497399999999
 20
-60.4664
 10
-172.39806
 20
-59.46374000000001
 10
-172.39806
 20
-59.46373000000001
 10
-173.08376
 20
-58.54929000000001
 10
-173.8926299999999
 20
-57.74202
 10
-174.8083
 20
-57.05822000000001
 10
-175.8120499999999
 20
-56.51187
 10
-175.8120599999999
 20
-56.51187
 10
-181.2343099999999
 20
-54.04495
 10
-177.88057
 20
-41.52862
 10
-171.95131
 20
-42.10333000000001
 10
-170.80878
 20
-42.13206000000001
 10
-169.67388
 20
-41.99769
 10
-168.56969
 20
-41.70299
 10
-167.51876
 20
-41.25396000000001
 10
-167.51876
 20
-41.25395
 10
-166.5425
 20
-40.65971
 10
-165.66093
 20
-39.93247000000001
 10
-164.89199
 20
-39.08706
 10
-164.2513099999999
 20
-38.14066
 10
-164.2513
 20
-38.14065000000001
 10
-161.89496
 20
-34.05935000000001
 10
-161.3956699999999
 20
-33.03128
 10
-161.04799
 20
-31.94263000000001
 10
-160.85898
 20
-30.81555000000001
 10
-160.8325
 20
-29.67299
 10
-160.96911
 20
-28.53826000000001
 10
-161.26598
 20
-27.43467
 10
-161.71707
 20
-26.38464
 10
-162.31317
 20
-25.40961000000001
 10
-162.3131799999999
 20
-25.4096
 10
-165.7755199999999
 20
-20.56207
 10
-156.61293
 20
-11.39948
 10
-151.7654
 20
-14.86182000000001
 10
-151.76539
 20
-14.86183
 10
-150.79025
 20
-15.45799
 10
-149.7402099999999
 20
-15.90906
 10
-148.6366199999999
 20
-16.20592
 10
-147.50201
 20
-16.3425
 10
-146.35933
 20
-16.31601
 10
-145.23225
 20
-16.12698
 10
-144.1436099999999
 20
-15.77929
 10
-143.11565
 20
-15.28004
 10
-139.03435
 20
-12.9237
 10
-139.03434
 20
-12.92369
 10
-138.08784
 20
-12.28294
 10
-137.24244
 20
-11.51399
 10
-136.51522
 20
-10.6324
 10
-135.92105
 20
-9.656240000000003
 10
-135.47201
 20
-8.605310000000002
 10
-135.17731
 20
-7.501120000000007
 10
-135.04294
 20
-6.366220000000005
 10
-135.07166
 20
-5.223750000000002
 10
-135.07167
 20
-5.223690000000004
 10
-135.6463799999999
 20
0.7055699999999945
 10
-123.13005
 20
4.059309999999996
 10
-120.66313
 20
-1.362940000000008
 10
-120.66313
 20
-1.362950000000012
 10
-120.11671
 20
-2.366810000000008
 10
-119.4328999999999
 20
-3.282460000000007
 10
-118.62562
 20
-4.091320000000003
 10
-117.71127
 20
-4.776940000000003
 10
-117.71126
 20
-4.776940000000003
 10
-116.70849
 20
-5.325310000000008
 10
-115.6378899999999
 20
-5.725150000000006
 10
-114.52124
 20
-5.968370000000007
 10
-113.38134
 20
-6.050000000000004
 10
-108.6686599999999
 20
-6.050000000000004
 10
-107.52864
 20
-5.968350000000008
 10
-106.412
 20
-5.725120000000003
 10
-105.3414
 20
-5.325260000000007
 10
-104.33874
 20
-4.776940000000003
 10
-104.33873
 20
-4.776940000000003
 10
-103.4242899999999
 20
-4.091240000000006
 10
-102.61702
 20
-3.282370000000007
 10
-101.93322
 20
-2.366700000000008
 10
-101.3868699999999
 20
-1.362950000000012
 10
-101.3868699999999
 20
-1.362940000000008
 10
-98.91995000000001
 20
4.059309999999996
 10
-86.40362000000001
 20
0.7055699999999945
 10
-86.97833000000001
 20
-5.223690000000004
 10
-87.00705000000001
 20
-6.366340000000008
 10
-86.87267
 20
-7.501240000000002
 10
-86.57795
 20
-8.605430000000005
 10
-86.12894999999999
 20
-9.656240000000003
 10
-85.53471
 20
-10.6325
 10
-84.80747
 20
-11.51407
 10
-83.96206000000001
 20
-12.28301
 10
-83.01565999999999
 20
-12.92369
 10
-83.01565000000001
 20
-12.9237
 10
-78.93435000000001
 20
-15.28004
 10
-77.90628000000001
 20
-15.77933
 10
-76.81763000000001
 20
-16.12701
 10
-75.69055
 20
-16.31602
 10
-74.54799
 20
-16.3425
 10
-73.41326000000001
 20
-16.20589
 10
-72.30967000000001
 20
-15.90902
 10
-71.25964
 20
-15.45793
 10
-70.28461000000001
 20
-14.86183
 10
-70.28460000000001
 20
-14.86182000000001
 10
-65.43707000000001
 20
-11.39948
 10
-56.27448000000001
 20
-20.56207
 10
-59.73682000000001
 20
-25.4096
 10
-59.73683000000001
 20
-25.40961000000001
 10
-60.33304000000001
 20
-26.38486
 10
-60.7841
 20
-27.4349
 10
-61.08094000000001
 20
-28.5385
 10
-61.21750000000001
 20
-29.67299
 10
-61.19101
 20
-30.81567
 10
-61.00198
 20
-31.94275
 10
-60.65429
 20
-33.03139000000001
 10
-60.15502000000001
 20
-34.05939
 10
-60.15504
 20
-34.05935000000001
 10
-57.7987
 20
-38.14065000000001
 10
-57.79869000000001
 20
-38.14066
 10
-57.15794
 20
-39.08716
 10
-56.38899000000001
 20
-39.93256
 10
-55.50740000000001
 20
-40.65978
 10
-54.53124
 20
-41.25395
 10
-53.48031
 20
-41.70299
 10
-52.37612000000001
 20
-41.99769
 10
-51.24122
 20
-42.13206000000001
 10
-50.09875
 20
-42.10334
 10
-50.09869000000001
 20
-42.10333000000001
 10
-44.16943
 20
-41.52862
 10
-40.81569
 20
-54.04495
 10
-46.23794000000001
 20
-56.51187
 10
-46.23795000000001
 20
-56.51187
 10
-47.24191
 20
-57.05835
 10
-48.15755000000001
 20
-57.74218000000001
 10
-48.96640000000001
 20
-58.54947000000001
 10
-49.65194
 20
-59.46373000000001
 10
-49.65194
 20
-59.46374000000001
 10
-50.20036000000001
 20
-60.46662000000001
 10
-50.60019
 20
-61.53723000000001
 10
-50.84339
 20
-62.65388000000001
 10
-50.92500000000001
 20
-63.79366
 10
-50.92500000000001
 20
-68.50634000000001
 10
-50.84335000000001
 20
-69.64636
 10
-50.60012
 20
-70.763
 10
-50.20026000000001
 20
-71.8336
 10
-49.65193000000001
 20
-72.83629000000001
 10
-49.65194
 20
-72.83626000000001
 10
-49.65194
 20
-72.83627000000001
 10
-48.96624
 20
-73.75071000000001
 10
-48.15737000000001
 20
-74.55798
 10
-47.2417
 20
-75.24178
 10
-46.23795000000001
 20
-75.78813000000001
 10
-46.23794000000001
 20
-75.78813000000001
 10
-40.81569
 20
-78.25505000000001
 10
-44.16943
 20
-90.77138000000001
 10
-50.09869000000001
 20
-90.19667000000001
 10
-51.24122
 20
-90.16794
 10
-52.37612000000001
 20
-90.30231
 10
-53.48031
 20
-90.59701000000002
 10
-54.53124
 20
-91.04604
 10
-54.53124
 20
-91.04605000000001
 10
-55.5076
 20
-91.64036000000001
 10
-56.38916
 20
-92.36761000000001
 10
-57.15809000000001
 20
-93.21303
 10
-57.79869000000001
 20
-94.15934000000001
 10
-57.7987
 20
-94.15935000000001
 10
-60.15504
 20
-98.24065
 10
-60.65433000000001
 20
-99.26872000000001
 10
-61.00201000000001
 20
-100.35737
 10
-61.19102000000001
 20
-101.48445
 10
-61.21751
 20
-102.62696
 10
-61.21750000000001
 20
-102.62701
 10
-61.08089
 20
-103.76174
 10
-60.78402
 20
-104.86533
 10
-60.33293
 20
-105.91536
 10
-59.73683000000001
 20
-106.89039
 10
-59.73682000000001
 20
-106.8904
 10
-56.27448000000001
 20
-111.73793
 10
-65.43707000000001
 20
-120.90052
 10
-70.28460000000001
 20
-117.43818
 10
-70.28461000000001
 20
-117.43817
 10
-71.25975
 20
-116.84201
 10
-72.30979000000001
 20
-116.39094
 10
-73.41338
 20
-116.09408
 10
-74.54799
 20
-115.9575
 10
-75.69067000000001
 20
-115.98399
 10
-76.81775
 20
-116.17302
 10
-77.90639000000002
 20
-116.52071
 10
-78.93435000000001
 20
-117.0199599999999
 10
-83.01565000000001
 20
-119.3763
 10
-83.01565999999999
 20
-119.3763099999999
 10
-83.96226
 20
-120.01714
 10
-84.80764
 20
-120.7861
 10
-85.53485
 20
-121.6677
 10
-86.12894999999999
 20
-122.64376
 10
-86.57803000000001
 20
-123.6948
 10
-86.87271
 20
-124.799
 10
-87.00706000000002
 20
-125.9339
 10
-86.97833000000001
 20
-127.07631
 10
-86.40362000000001
 20
-133.00557
 10
-98.91995000000001
 20
-136.3593099999999
 10
-101.3868699999999
 20
-130.93706
 10
-101.3868699999999
 20
-130.9370499999999
 10
-101.9332899999999
 20
-129.93319
 10
-102.6171
 20
-129.01754
 10
-103.42438
 20
-128.20868
 10
-104.33873
 20
-127.52306
 10
-104.33874
 20
-127.52306
 10
-105.3414
 20
-126.9747399999999
 10
-106.41211
 20
-126.5748499999999
 10
-107.52876
 20
-126.33163
 10
-108.6686599999999
 20
-126.2499999999999
  0
LWPOLYLINE
  5
627
330
5CC
100
AcDbEntity
  8
0
 62
     1
100
AcDbPolyline
 90
      278
 70
     1
 43
0.0
 10
-108.6686599999999
 20
-130.2499999999999
 10
-113.38134
 20
-130.2499999999999
 10
-113.9512899999999
 20
-130.29081
 10
-114.50968
 20
-130.41244
 10
-115.04498
 20
-130.61237
 10
-115.54631
 20
-130.8865299999999
 10
-116.00357
 20
-131.22941
 10
-116.4071999999999
 20
-131.63386
 10
-116.7491
 20
-132.09171
 10
-117.02224
 20
-132.5935299999999
 10
-120.89236
 20
-141.1
 10
-139.95462
 20
-135.9922799999999
 10
-139.05301
 20
-126.69041
 10
-139.03865
 20
-126.11914
 10
-139.10583
 20
-125.55168
 10
-139.25318
 20
-124.99959
 10
-139.4776999999999
 20
-124.4741199999999
 10
-139.4776999999999
 20
-124.47413
 10
-139.77481
 20
-123.98601
 10
-140.1384399999999
 20
-123.54521
 10
-140.56115
 20
-123.16074
 10
-141.03434
 20
-122.84041
 10
-141.03435
 20
-122.8404
 10
-145.11565
 20
-120.48406
 10
-145.11566
 20
-120.48406
 10
-145.62968
 20
-120.2344199999999
 10
-146.17401
 20
-120.06058
 10
-146.7375499999999
 20
-119.9660799999999
 10
-147.3088
 20
-119.95284
 10
-147.30883
 20
-119.95283
 10
-147.3088399999999
 20
-119.95283
 10
-147.87627
 20
-120.02114
 10
-148.42806
 20
-120.1695799999999
 10
-148.9530599999999
 20
-120.39513
 10
-149.4405299999999
 20
-120.69317
 10
-157.04538
 20
-126.12493
 10
-170.9999299999999
 20
-112.17038
 10
-165.56817
 20
-104.5655299999999
 10
-165.27008
 20
-104.07795
 10
-165.04454
 20
-103.55294
 10
-164.89611
 20
-103.00115
 10
-164.82783
 20
-102.4338399999999
 10
-164.82783
 20
-102.4338299999999
 10
-164.84108
 20
-101.8625499999999
 10
-164.93558
 20
-101.29901
 10
-165.10942
 20
-100.75468
 10
-165.3590499999999
 20
-100.2406799999999
 10
-165.35906
 20
-100.24066
 10
-165.35906
 20
-100.2406499999999
 10
-167.7153999999999
 20
-96.15935
 10
-168.03574
 20
-95.68614999999999
 10
-168.42021
 20
-95.26343999999999
 10
-168.86101
 20
-94.89981
 10
-169.3491099999999
 20
-94.60271
 10
-169.3491299999999
 20
-94.60269999999999
 10
-169.87459
 20
-94.37818
 10
-170.42668
 20
-94.23083
 10
-170.99414
 20
-94.16365
 10
-171.56538
 20
-94.17801
 10
-171.56541
 20
-94.17801
 10
-180.86728
 20
-95.07962
 10
-185.975
 20
-76.01736000000001
 10
-177.4685299999999
 20
-72.14724000000001
 10
-176.96661
 20
-71.87404
 10
-176.50877
 20
-71.53212
 10
-176.10433
 20
-71.12847000000001
 10
-175.7615299999999
 20
-70.67131
 10
-175.4873499999999
 20
-70.16992000000001
 10
-175.2874199999999
 20
-69.63462000000001
 10
-175.16581
 20
-69.07629
 10
-175.1249999999999
 20
-68.50634000000001
 10
-175.1249999999999
 20
-63.79366
 10
-175.16582
 20
-63.22365000000001
 10
-175.28744
 20
-62.66532000000001
 10
-175.48737
 20
-62.13002
 10
-175.7615299999999
 20
-61.62869
 10
-176.10437
 20
-61.17148
 10
-176.50882
 20
-60.76784
 10
-176.9666599999999
 20
-60.42593
 10
-177.4685299999999
 20
-60.15276
 10
-185.975
 20
-56.28264000000001
 10
-180.86728
 20
-37.22038
 10
-171.56541
 20
-38.12199000000001
 10
-170.99414
 20
-38.13635000000001
 10
-170.42668
 20
-38.06917
 10
-169.87459
 20
-37.92182000000001
 10
-169.3491199999999
 20
-37.6973
 10
-169.3491299999999
 20
-37.6973
 10
-168.86101
 20
-37.40019000000001
 10
-168.42021
 20
-37.03656
 10
-168.03574
 20
-36.61385
 10
-167.71541
 20
-36.14066
 10
-167.7153999999999
 20
-36.14065
 10
-165.35906
 20
-32.05935000000001
 10
-165.35906
 20
-32.05934
 10
-165.10942
 20
-31.54532
 10
-164.93558
 20
-31.00099000000001
 10
-164.84108
 20
-30.43745
 10
-164.82784
 20
-29.8662
 10
-164.82783
 20
-29.86617
 10
-164.82783
 20
-29.86616000000001
 10
-164.89613
 20
-29.29879
 10
-165.0445599999999
 20
-28.747
 10
-165.2701
 20
-28.22199
 10
-165.56817
 20
-27.73447
 10
-170.9999299999999
 20
-20.12962
 10
-157.04538
 20
-6.175070000000005
 10
-149.4405299999999
 20
-11.60683
 10
-148.95295
 20
-11.90492
 10
-148.42794
 20
-12.13046
 10
-147.87615
 20
-12.27889
 10
-147.3088399999999
 20
-12.34717
 10
-147.30883
 20
-12.34717
 10
-146.7375499999999
 20
-12.33392
 10
-146.17401
 20
-12.23942
 10
-145.62968
 20
-12.06558
 10
-145.1156799999999
 20
-11.81595
 10
-145.11566
 20
-11.81594
 10
-145.11565
 20
-11.81594
 10
-141.03435
 20
-9.459600000000008
 10
-140.56115
 20
-9.139260000000007
 10
-140.1384399999999
 20
-8.754790000000006
 10
-139.77481
 20
-8.313990000000003
 10
-139.4777099999999
 20
-7.825890000000008
 10
-139.4776999999999
 20
-7.825870000000008
 10
-139.25318
 20
-7.300410000000006
 10
-139.10583
 20
-6.748320000000006
 10
-139.03865
 20
-6.180860000000002
 10
-139.05301
 20
-5.609620000000006
 10
-139.05301
 20
-5.609590000000004
 10
-139.95462
 20
3.692279999999996
 10
-120.89236
 20
8.799999999999997
 10
-117.02224
 20
0.2935299999999898
 10
-116.74904
 20
-0.2083900000000085
 10
-116.40712
 20
-0.6662299999999988
 10
-116.00347
 20
-1.070670000000006
 10
-115.54631
 20
-1.413470000000003
 10
-115.04492
 20
-1.687650000000004
 10
-114.50962
 20
-1.887579999999999
 10
-113.9512899999999
 20
-2.009190000000003
 10
-113.38134
 20
-2.050000000000011
 10
-108.6686599999999
 20
-2.050000000000011
 10
-108.09865
 20
-2.00918
 10
-107.54032
 20
-1.887560000000007
 10
-107.00502
 20
-1.687629999999998
 10
-106.50369
 20
-1.413470000000003
 10
-106.04648
 20
-1.070630000000008
 10
-105.64284
 20
-0.6661800000000114
 10
-105.30093
 20
-0.2083400000000068
 10
-105.02776
 20
0.2935299999999898
 10
-101.15764
 20
8.799999999999997
 10
-82.09538
 20
3.692279999999996
 10
-82.99699000000002
 20
-5.609590000000004
 10
-83.01135
 20
-6.180920000000007
 10
-82.94416000000001
 20
-6.748380000000004
 10
-82.7968
 20
-7.300470000000004
 10
-82.57230000000001
 20
-7.825870000000008
 10
-82.27519
 20
-8.313990000000003
 10
-81.91156000000001
 20
-8.754790000000006
 10
-81.48885000000001
 20
-9.139260000000007
 10
-81.01566
 20
-9.459590000000005
 10
-81.01565
 20
-9.459600000000008
 10
-76.93435
 20
-11.81594
 10
-76.93434
 20
-11.81594
 10
-76.42032
 20
-12.06558
 10
-75.87599
 20
-12.23942
 10
-75.31245000000001
 20
-12.33392
 10
-74.7412
 20
-12.34716
 10
-74.74117000000001
 20
-12.34717
 10
-74.74116000000001
 20
-12.34717
 10
-74.17379
 20
-12.27887
 10
-73.62200000000001
 20
-12.13044
 10
-73.09699000000001
 20
-11.9049
 10
-72.60947000000001
 20
-11.60683
 10
-65.00462
 20
-6.175070000000005
 10
-51.05007
 20
-20.12962
 10
-56.48183
 20
-27.73447
 10
-56.77995000000001
 20
-28.2221
 10
-57.00548000000001
 20
-28.74712
 10
-57.15390000000001
 20
-29.29891000000001
 10
-57.22217
 20
-29.86616000000001
 10
-57.22217
 20
-29.86617
 10
-57.20891
 20
-30.43751
 10
-57.1144
 20
-31.00105
 10
-56.94055000000001
 20
-31.54537
 10
-56.69094000000001
 20
-32.05934
 10
-56.69094000000001
 20
-32.05935000000001
 10
-54.33460000000001
 20
-36.14065
 10
-54.01426
 20
-36.61385
 10
-53.62979000000001
 20
-37.03656
 10
-53.18899
 20
-37.40019000000001
 10
-52.70089000000001
 20
-37.69729000000001
 10
-52.70087000000001
 20
-37.6973
 10
-52.17541
 20
-37.92182000000001
 10
-51.62332000000001
 20
-38.06917
 10
-51.05586
 20
-38.13635000000001
 10
-50.48462
 20
-38.12199000000001
 10
-50.48459000000001
 20
-38.12199000000001
 10
-41.18272
 20
-37.22038
 10
-36.075
 20
-56.28264000000001
 10
-44.58147000000001
 20
-60.15276
 10
-45.08344000000001
 20
-60.426
 10
-45.54127000000001
 20
-60.76792000000001
 10
-45.94571000000001
 20
-61.17157
 10
-46.28847
 20
-61.62869
 10
-46.56267999999999
 20
-62.13013000000001
 10
-46.76259
 20
-62.66544
 10
-46.88419
 20
-63.22377000000001
 10
-46.92500000000001
 20
-63.79366
 10
-46.92500000000001
 20
-68.50634000000001
 10
-46.88418
 20
-69.07635
 10
-46.76256000000001
 20
-69.63468
 10
-46.56263
 20
-70.16998
 10
-46.28846
 20
-70.67132
 10
-46.28847
 20
-70.67131
 10
-45.94563
 20
-71.12852000000001
 10
-45.54118000000001
 20
-71.53216
 10
-45.08334
 20
-71.87407
 10
-44.58147000000001
 20
-72.14724000000001
 10
-36.075
 20
-76.01736000000001
 10
-41.18272
 20
-95.07962
 10
-50.48459000000001
 20
-94.17801
 10
-51.05586
 20
-94.16365
 10
-51.62332000000001
 20
-94.23083
 10
-52.17541
 20
-94.37818
 10
-52.70088000000001
 20
-94.60269999999999
 10
-52.70087000000001
 20
-94.60269999999999
 10
-53.18904
 20
-94.89985
 10
-53.62983
 20
-95.26348
 10
-54.01430000000001
 20
-95.68620000000001
 10
-54.33462000000001
 20
-96.15939
 10
-54.33460000000001
 20
-96.15935
 10
-56.69094000000001
 20
-100.2406499999999
 10
-56.69094000000001
 20
-100.24066
 10
-56.9406
 20
-100.7547399999999
 10
-57.11443
 20
-101.29907
 10
-57.20893
 20
-101.86261
 10
-57.22217
 20
-102.4338299999999
 10
-57.22217
 20
-102.4338399999999
 10
-57.15387
 20
-103.00121
 10
-57.00544
 20
-103.553
 10
-56.77990000000001
 20
-104.07801
 10
-56.48183
 20
-104.5655299999999
 10
-51.05007
 20
-112.17038
 10
-65.00462
 20
-126.12493
 10
-72.60947000000001
 20
-120.69317
 10
-73.09705
 20
-120.39508
 10
-73.62206
 20
-120.16954
 10
-74.17385000000002
 20
-120.02111
 10
-74.74116000000001
 20
-119.95283
 10
-74.74117000000001
 20
-119.95283
 10
-75.31245000000001
 20
-119.9660799999999
 10
-75.87599
 20
-120.06058
 10
-76.42032
 20
-120.2344199999999
 10
-76.93432000000001
 20
-120.4840499999999
 10
-76.93434
 20
-120.48406
 10
-76.93435
 20
-120.48406
 10
-81.01565
 20
-122.8404
 10
-81.48889999999999
 20
-123.16078
 10
-81.91160000000001
 20
-123.54526
 10
-82.27522
 20
-123.98606
 10
-82.57232
 20
-124.47417
 10
-82.57230000000001
 20
-124.47413
 10
-82.79684000000001
 20
-124.99964
 10
-82.94418
 20
-125.55174
 10
-83.01136000000001
 20
-126.1192
 10
-82.99699000000002
 20
-126.69041
 10
-82.09538
 20
-135.9922799999999
 10
-101.15764
 20
-141.1
 10
-105.02776
 20
-132.5935299999999
 10
-105.3009599999999
 20
-132.09161
 10
-105.64288
 20
-131.63377
 10
-106.04653
 20
-131.22933
 10
-106.50369
 20
-130.8865299999999
 10
-107.00502
 20
-130.61237
 10
-107.5403799999999
 20
-130.4124199999999
 10
-108.09871
 20
-130.29081
 10
-108.6686599999999
 20
-130.2499999999999
  0
ARC
  5
628
330
5CC
100
AcDbEntity
  8
0
 62
     1
100
AcDbCircle
 10
-111.025
 20
-66.15000000000001
 30
0.0
 40
30.0
100
AcDbArc
 50
40.5415950000003
 51
57.76904299999996
  0
INSERT
  5
629
330
5CC
100
AcDbEntity
  8
0
100
AcDbBlockReference
  2
__25
 10
-111.025
 20
-66.15000000000001
 30
0.0
  0
LINE
  5
62A
330
5CC
100
AcDbEntity
  8
0
 62
     1
100
AcDbLine
 10
7.124999999999998
 20
-143.85
 30
0.0
 11
29.325
 21
-143.85
 31
0.0
  0
LINE
  5
62B
330
5CC
100
AcDbEntity
  8
0
 62
     1
100
AcDbLine
 10
7.124999999999998
 20
-138.7422799999999
 30
0.0
 11
29.325
 21
-138.7422799999999
 31
0.0
  0
LINE
  5
62C
330
5CC
100
AcDbEntity
  8
0
 62
     1
100
AcDbLine
 10
7.124999999999998
 20
-128.87493
 30
0.0
 11
29.325
 21
-128.87493
 31
0.0
  0
LINE
  5
62D
330
5CC
100
AcDbEntity
  8
0
 62
     1
100
AcDbLine
 10
7.124999999999998
 20
-114.92038
 30
0.0
 11
29.325
 21
-114.92038
 31
0.0
  0
LINE
  5
62E
330
5CC
100
AcDbEntity
  8
0
 62
     1
100
AcDbLine
 10
7.124999999999998
 20
-97.82962000000001
 30
0.0
 11
29.325
 21
-97.82962000000001
 31
0.0
  0
LINE
  5
62F
330
5CC
100
AcDbEntity
  8
0
 62
     1
100
AcDbLine
 10
7.124999999999998
 20
-78.76736000000001
 30
0.0
 11
29.325
 21
-78.76736000000001
 31
0.0
  0
LINE
  5
630
330
5CC
100
AcDbEntity
  8
0
 62
     1
100
AcDbLine
 10
7.124999999999998
 20
-59.03264
 30
0.0
 11
29.325
 21
-59.03264
 31
0.0
  0
LINE
  5
631
330
5CC
100
AcDbEntity
  8
0
 62
     1
100
AcDbLine
 10
7.124999999999998
 20
-39.97038
 30
0.0
 11
29.325
 21
-39.97038
 31
0.0
  0
LINE
  5
632
330
5CC
100
AcDbEntity
  8
0
 62
     1
100
AcDbLine
 10
7.124999999999998
 20
-22.87962
 30
0.0
 11
29.325
 21
-22.87962
 31
0.0
  0
LINE
  5
633
330
5CC
100
AcDbEntity
  8
0
 62
     1
100
AcDbLine
 10
7.124999999999998
 20
-8.925070000000005
 30
0.0
 11
29.325
 21
-8.925070000000005
 31
0.0
  0
LINE
  5
634
330
5CC
100
AcDbEntity
  8
0
 62
     1
100
AcDbLine
 10
7.124999999999998
 20
0.9422799999999966
 30
0.0
 11
29.325
 21
0.9422799999999966
 31
0.0
  0
LINE
  5
635
330
5CC
100
AcDbEntity
  8
0
 62
     1
100
AcDbLine
 10
7.124999999999998
 20
6.049999999999997
 30
0.0
 11
29.325
 21
6.049999999999997
 31
0.0
  0
LINE
  5
636
330
5CC
100
AcDbEntity
  8
0
 62
     1
100
AcDbLine
 10
36.78809
 20
-33.4
 30
0.0
 11
29.325
 21
-18.84851
 31
0.0
  0
LINE
  5
637
330
5CC
100
AcDbEntity
  8
0
 62
     1
100
AcDbLine
 10
-0.3380900000000011
 20
-33.4
 30
0.0
 11
7.124999999999998
 21
-18.84851
 31
0.0
  0
LINE
  5
638
330
5CC
100
AcDbEntity
  8
0
 62
     1
100
AcDbLine
 10
39.60891
 20
-98.9
 30
0.0
 11
29.325
 21
-118.95149
 31
0.0
  0
LINE
  5
639
330
5CC
100
AcDbEntity
  8
0
 62
     1
100
AcDbLine
 10
-3.15891
 20
-98.9
 30
0.0
 11
7.124999999999998
 21
-118.95149
 31
0.0
  0
LINE
  5
63A
330
5CC
100
AcDbEntity
  8
0
 62
     1
100
AcDbLine
 10
-11.025
 20
-68.9
 30
0.0
 11
47.475
 21
-68.9
 31
0.0
  0
LINE
  5
63B
330
5CC
100
AcDbEntity
  8
0
 62
     1
100
AcDbLine
 10
29.325
 20
-98.9
 30
0.0
 11
47.475
 21
-98.9
 31
0.0
  0
LINE
  5
63C
330
5CC
100
AcDbEntity
  8
0
 62
     1
100
AcDbLine
 10
29.325
 20
-88.40000000000001
 30
0.0
 11
47.475
 21
-88.40000000000001
 31
0.0
  0
LINE
  5
63D
330
5CC
100
AcDbEntity
  8
0
 62
     1
100
AcDbLine
 10
29.325
 20
-49.40000000000001
 30
0.0
 11
47.475
 21
-49.40000000000001
 31
0.0
  0
LINE
  5
63E
330
5CC
100
AcDbEntity
  8
0
 62
     1
100
AcDbLine
 10
29.325
 20
-33.4
 30
0.0
 11
47.475
 21
-33.4
 31
0.0
  0
LINE
  5
63F
330
5CC
100
AcDbEntity
  8
0
 62
     1
100
AcDbLine
 10
-11.025
 20
-98.9
 30
0.0
 11
7.124999999999998
 21
-98.9
 31
0.0
  0
LINE
  5
640
330
5CC
100
AcDbEntity
  8
0
 62
     1
100
AcDbLine
 10
-11.025
 20
-88.40000000000001
 30
0.0
 11
7.124999999999998
 21
-88.40000000000001
 31
0.0
  0
LINE
  5
641
330
5CC
100
AcDbEntity
  8
0
 62
     1
100
AcDbLine
 10
-11.025
 20
-49.40000000000001
 30
0.0
 11
7.124999999999998
 21
-49.40000000000001
 31
0.0
  0
LINE
  5
642
330
5CC
100
AcDbEntity
  8
0
 62
     1
100
AcDbLine
 10
-11.025
 20
-33.4
 30
0.0
 11
7.124999999999998
 21
-33.4
 31
0.0
  0
LINE
  5
643
330
5CC
100
AcDbEntity
  8
0
 62
     1
100
AcDbLine
 10
7.124999999999998
 20
6.049999999999997
 30
0.0
 11
7.124999999999998
 21
-143.85
 31
0.0
  0
LINE
  5
644
330
5CC
100
AcDbEntity
  8
0
 62
     1
100
AcDbLine
 10
29.325
 20
6.049999999999997
 30
0.0
 11
29.325
 21
-143.85
 31
0.0
  0
LINE
  5
645
330
5CC
100
AcDbEntity
  8
0
 62
     1
100
AcDbLine
 10
-11.025
 20
-33.4
 30
0.0
 11
-11.025
 21
-98.9
 31
0.0
  0
LINE
  5
646
330
5CC
100
AcDbEntity
  8
0
 62
     1
100
AcDbLine
 10
7.124999999999998
 20
-143.85
 30
0.0
 11
29.325
 21
-143.85
 31
0.0
  0
LINE
  5
647
330
5CC
100
AcDbEntity
  8
0
 62
     1
100
AcDbLine
 10
47.475
 20
-33.4
 30
0.0
 11
47.475
 21
-98.9
 31
0.0
  0
LINE
  5
648
330
5CC
100
AcDbEntity
  8
0
 62
     1
100
AcDbLine
 10
7.124999999999998
 20
6.049999999999997
 30
0.0
 11
29.325
 21
6.049999999999997
 31
0.0
  0
ENDSEC
  0
SECTION
  2
OBJECTS
  0
DICTIONARY
  5
5BA
330
0
100
AcDbDictionary
  3
ACAD_GROUP
350
5BB
  3
ACAD_LAYOUT
350
5C7
  3
ACAD_MLINESTYLE
350
5C4
  3
ACAD_PLOTSETTINGS
350
5C6
  3
ACAD_PLOTSTYLENAME
350
5BC
  3
ACDBHEADERROUNDTRIPXREC
350
681
  0
DICTIONARY
  5
64A
330
5CC
100
AcDbDictionary
280
     1
  3
ACAD_LAYOUTSELFREF
360
6A3
  0
DICTIONARY
  5
64C
330
5C8
100
AcDbDictionary
280
     1
  3
ACAD_LAYOUTSELFREF
360
6A2
  0
DICTIONARY
  5
5BB
102
{ACAD_REACTORS
330
5BA
102
}
330
5BA
100
AcDbDictionary
  0
DICTIONARY
  5
5C7
102
{ACAD_REACTORS
330
5BA
102
}
330
5BA
100
AcDbDictionary
  0
DICTIONARY
  5
5C4
102
{ACAD_REACTORS
330
5BA
102
}
330
5BA
100
AcDbDictionary
  3
STANDARD
350
5C5
  0
DICTIONARY
  5
5C6
102
{ACAD_REACTORS
330
5BA
102
}
330
5BA
100
AcDbDictionary
  0
ACDBDICTIONARYWDFLT
  5
5BC
102
{ACAD_REACTORS
330
5BA
102
}
330
5BA
100
AcDbDictionary
281
     1
  3
Normal
350
5BD
100
AcDbDictionaryWithDefault
340
5BD
  0
DICTIONARY
  5
681
102
{ACAD_REACTORS
330
5BA
102
}
330
5BA
100
AcDbDictionary
  3
TSTACKALIGN
350
682
  3
TSTACKSIZE
350
683
  3
HYPERLINKBASE
350
684
  3
STYLESHEET
350
685
  3
LAYOUTDICT
350
686
  3
PLOTSETDICT
350
687
  3
PLOTSTYLNAMDICT
350
688
  3
LWETCUNION
350
689
  3
INSUNITS
350
68A
  3
CEPSNTYPE
350
68B
  3
FINGERPRINTGUID
350
68C
  3
VERSIONGUID
350
68D
  3
PSVPSCALE
350
68E
  3
DIMSTYLEDATA
350
68F
  3
PUCSORTHOREF
350
690
  3
PUCSORTHOVIEW
350
691
  3
PUCSBASE
350
692
  3
PUCSORGTOP
350
693
  3
PUCSORGBOTTOM
350
694
  3
PUCSORGLEFT
350
695
  3
PUCSORGRIGHT
350
696
  3
PUCSORGFRONT
350
697
  3
PUCSORGBACK
350
698
  3
UCSORTHOREF
350
699
  3
UCSORTHOVIEW
350
69A
  3
UCSBASE
350
69B
  3
UCSORGTOP
350
69C
  3
UCSORGBOTTOM
350
69D
  3
UCSORGLEFT
350
69E
  3
UCSORGRIGHT
350
69F
  3
UCSORGFRONT
350
6A0
  3
UCSORGBACK
350
6A1
  0
XRECORD
  5
6A3
102
{ACAD_REACTORS
330
64A
102
}
330
64A
100
AcDbXrecord
340
5CC
  0
XRECORD
  5
6A2
102
{ACAD_REACTORS
330
64C
102
}
330
64C
100
AcDbXrecord
340
5C8
  0
MLINESTYLE
  5
5C5
102
{ACAD_REACTORS
330
5C4
102
}
330
5C4
100
AcDbMlineStyle
  2
STANDARD
 70
     0
  3

 62
   256
 51
90.0
 52
90.0
 71
     2
 49
0.5
 62
   256
  6
BYLAYER
 49
-0.5
 62
   256
  6
BYLAYER
  0
ACDBPLACEHOLDER
  5
5BD
102
{ACAD_REACTORS
330
5BC
102
}
330
5BC
100
AcDbPlaceHolder
280
     0
  0
XRECORD
  5
682
102
{ACAD_REACTORS
330
681
102
}
330
681
100
AcDbXrecord
 90
        1
  0
XRECORD
  5
683
102
{ACAD_REACTORS
330
681
102
}
330
681
100
AcDbXrecord
 90
       70
  0
XRECORD
  5
684
102
{ACAD_REACTORS
330
681
102
}
330
681
100
AcDbXrecord
  1

  0
XRECORD
  5
685
102
{ACAD_REACTORS
330
681
102
}
330
681
100
AcDbXrecord
  1

  0
XRECORD
  5
686
102
{ACAD_REACTORS
330
681
102
}
330
681
100
AcDbXrecord
340
5C7
  0
XRECORD
  5
687
102
{ACAD_REACTORS
330
681
102
}
330
681
100
AcDbXrecord
340
5C6
  0
XRECORD
  5
688
102
{ACAD_REACTORS
330
681
102
}
330
681
100
AcDbXrecord
340
5BC
  0
XRECORD
  5
689
102
{ACAD_REACTORS
330
681
102
}
330
681
100
AcDbXrecord
 90
    14877
  0
XRECORD
  5
68A
102
{ACAD_REACTORS
330
681
102
}
330
681
100
AcDbXrecord
 90
        0
  0
XRECORD
  5
68B
102
{ACAD_REACTORS
330
681
102
}
330
681
100
AcDbXrecord
 90
        0
  0
XRECORD
  5
68C
102
{ACAD_REACTORS
330
681
102
}
330
681
100
AcDbXrecord
  1
{53303837-955F-45B7-8B1F-C398EB7D071F}
  0
XRECORD
  5
68D
102
{ACAD_REACTORS
330
681
102
}
330
681
100
AcDbXrecord
  1
{883F923C-1C37-47AE-92C1-080B670E5903}
  0
XRECORD
  5
68E
102
{ACAD_REACTORS
330
681
102
}
330
681
100
AcDbXrecord
 40
0.0
  0
XRECORD
  5
68F
102
{ACAD_REACTORS
330
681
102
}
330
681
100
AcDbXrecord
1000
DSTYLE
1002
{
1070
   279
 70
     2
1002
}
  0
XRECORD
  5
690
102
{ACAD_REACTORS
330
681
102
}
330
681
100
AcDbXrecord
340
0
  0
XRECORD
  5
691
102
{ACAD_REACTORS
330
681
102
}
330
681
100
AcDbXrecord
 70
     0
  0
XRECORD
  5
692
102
{ACAD_REACTORS
330
681
102
}
330
681
100
AcDbXrecord
340
0
  0
XRECORD
  5
693
102
{ACAD_REACTORS
330
681
102
}
330
681
100
AcDbXrecord
 10
0.0
 20
0.0
 30
0.0
  0
XRECORD
  5
694
102
{ACAD_REACTORS
330
681
102
}
330
681
100
AcDbXrecord
 10
0.0
 20
0.0
 30
0.0
  0
XRECORD
  5
695
102
{ACAD_REACTORS
330
681
102
}
330
681
100
AcDbXrecord
 10
0.0
 20
0.0
 30
0.0
  0
XRECORD
  5
696
102
{ACAD_REACTORS
330
681
102
}
330
681
100
AcDbXrecord
 10
0.0
 20
0.0
 30
0.0
  0
XRECORD
  5
697
102
{ACAD_REACTORS
330
681
102
}
330
681
100
AcDbXrecord
 10
0.0
 20
0.0
 30
0.0
  0
XRECORD
  5
698
102
{ACAD_REACTORS
330
681
102
}
330
681
100
AcDbXrecord
 10
0.0
 20
0.0
 30
0.0
  0
XRECORD
  5
699
102
{ACAD_REACTORS
330
681
102
}
330
681
100
AcDbXrecord
340
0
  0
XRECORD
  5
69A
102
{ACAD_REACTORS
330
681
102
}
330
681
100
AcDbXrecord
 70
     0
  0
XRECORD
  5
69B
102
{ACAD_REACTORS
330
681
102
}
330
681
100
AcDbXrecord
340
0
  0
XRECORD
  5
69C
102
{ACAD_REACTORS
330
681
102
}
330
681
100
AcDbXrecord
 10
0.0
 20
0.0
 30
0.0
  0
XRECORD
  5
69D
102
{ACAD_REACTORS
330
681
102
}
330
681
100
AcDbXrecord
 10
0.0
 20
0.0
 30
0.0
  0
XRECORD
  5
69E
102
{ACAD_REACTORS
330
681
102
}
330
681
100
AcDbXrecord
 10
0.0
 20
0.0
 30
0.0
  0
XRECORD
  5
69F
102
{ACAD_REACTORS
330
681
102
}
330
681
100
AcDbXrecord
 10
0.0
 20
0.0
 30
0.0
  0
XRECORD
  5
6A0
102
{ACAD_REACTORS
330
681
102
}
330
681
100
AcDbXrecord
 10
0.0
 20
0.0
 30
0.0
  0
XRECORD
  5
6A1
102
{ACAD_REACTORS
330
681
102
}
330
681
100
AcDbXrecord
 10
0.0
 20
0.0
 30
0.0
  0
ENDSEC
  0
EOF
