999
DXF file: N820t21r35.dxf
999
Pro/ENGINEER 2005310 by Parametric Technology Corporation
0
SECTION
2
HEADER
9
$ACADVER
1
AC1015
9
$DWGCODEPAGE
3
ANSI_1252
9
$EXTMAX
10
210.7577200000
20
129.5154400000
30
0.0000000000
9
$EXTMIN
10
0.0000000000
20
0.0000000000
30
0.0000000000
9
$LIMMIN
10
0.0000000000
20
0.0000000000
9
$LIMMAX
10
210.7577200000
20
129.5154400000
9
$VIEWCTR
10
105.3788600000
20
64.7577200000
9
$VIEWSIZE
40
129.5154400000
9
$CLAYER
8
0
9
$LTSCALE
40
11.5916746000
9
$CELTYPE
6
BYLAYER
9
$DIMSCALE
40
1
9
$DIMASZ
40
0.1875000000
9
$DIMEXO
40
1.3172357500
9
$DIMDLI
40
8.0087933600
9
$DIMEXE
40
3.7936389600
9
$DIMCEN
40
1.8968194800
9
$DIMLFAC
40
1.0000000000
9
$DIMBLK
1
_CLOSED
9
$DIMTXT
40
0.1562500000
9
$DIMTOL
70
0
9
$DIMLIM
70
0
9
$DIMTFAC
40
1.0000000000
9
$PDMODE
70
3
9
$PDSIZE
40
0.3125000000
9
$HANDSEED
5
262
9
$MEASUREMENT
70
0
9
$INSUNITS
70
1
0
ENDSEC
0
SECTION
2
CLASSES
0
CLASS
1
ACDBDICTIONARYWDFLT
2
AcDbDictionaryWithDefault
3
AutoCAD 2000
90
0
280
0
281
0
0
CLASS
1
ACDBPLACEHOLDER
2
AcDbPlaceHolder
3
AutoCAD 2000
90
0
280
0
281
0
0
CLASS
1
LAYOUT
2
AcDbLayout
3
AutoCAD 2000
90
0
280
0
281
0
0
ENDSEC
0
SECTION
2
TABLES
0
TABLE
2
VPORT
5
8
100
AcDbSymbolTable
70
2
0
VPORT
5
1F4
100
AcDbSymbolTableRecord
100
AcDbViewportTableRecord
2
*ACTIVE
70
0
10
0.0
20
0.0
11
1.0
21
1.0
12
105.3788600000
22
64.7577200000
13
0.0
23
0.0
14
1.0
24
1.0
15
0.0
25
0.0
16
0.0
26
0.0
36
1.0
17
0.0
27
0.0
37
0.0
40
129.5154400000
41
1.6272787245
42
50.0
43
0.0
44
0.0
50
0.0
51
0.0
71
0
72
100
73
1
74
1
75
0
76
0
77
0
78
0
0
ENDTAB
0
TABLE
2
LTYPE
5
5
100
AcDbSymbolTable
70
6
0
LTYPE
5
14
100
AcDbSymbolTableRecord
100
AcDbLinetypeTableRecord
2
BYBLOCK
70
0
3

72
65
73
0
40
0.0
0
LTYPE
5
15
100
AcDbSymbolTableRecord
100
AcDbLinetypeTableRecord
2
BYLAYER
70
0
3

72
65
73
0
40
0.0
0
LTYPE
5
16
100
AcDbSymbolTableRecord
100
AcDbLinetypeTableRecord
2
CONTINUOUS
70
64
3
Solid line
72
65
73
0
40
0
0
LTYPE
5
1F5
100
AcDbSymbolTableRecord
100
AcDbLinetypeTableRecord
2
CENTER
70
64
3
____ _ ____ _ ____ _ ____ _ ____ _ ____ _ ____
72
65
73
4
40
0.6
49
0.375
74
0
49
-0.075
74
0
49
0.075
74
0
49
-0.075
74
0
0
LTYPE
5
1F6
100
AcDbSymbolTableRecord
100
AcDbLinetypeTableRecord
2
HIDDEN
70
64
3
- - - - - - - - - - - - - - - - - - - -
72
65
73
2
40
0.2
49
0.1
74
0
49
-0.1
74
0
0
LTYPE
5
1F7
100
AcDbSymbolTableRecord
100
AcDbLinetypeTableRecord
2
PHANTOM
70
64
3
_____ _ _ _____ _ _ _____ _ _ _____
72
65
73
6
40
0.8
49
0.45
74
0
49
-0.05
74
0
49
0.1
74
0
49
-0.05
74
0
49
0.1
74
0
49
-0.05
74
0
0
LTYPE
5
1F8
100
AcDbSymbolTableRecord
100
AcDbLinetypeTableRecord
2
DOT
70
64
3
. . . . . . . . . . . . . . . . . . . .
72
65
73
2
40
0.2
49
0.1
74
0
49
-0.1
74
0
0
LTYPE
5
1F9
100
AcDbSymbolTableRecord
100
AcDbLinetypeTableRecord
2
DASHED
70
64
3
- - - - - - - - - - - - - - - - - - - -
72
65
73
2
40
0.2
49
0.1
74
0
49
-0.1
74
0
0
ENDTAB
0
TABLE
2
LAYER
5
2
100
AcDbSymbolTable
70
36
0
LAYER
5
10
100
AcDbSymbolTableRecord
100
AcDbLayerTableRecord
2
0
70
0
62
7
6
CONTINUOUS
370
-3
390
F
0
LAYER
5
1FA
100
AcDbSymbolTableRecord
100
AcDbLayerTableRecord
2
DEFAULT_1
70
0
62
7
6
CENTER
370
-3
390
F
0
LAYER
5
1FB
100
AcDbSymbolTableRecord
100
AcDbLayerTableRecord
2
DEFAULT_2
70
0
62
8
6
HIDDEN
370
-3
390
F
0
LAYER
5
1FC
100
AcDbSymbolTableRecord
100
AcDbLayerTableRecord
2
DEFAULT_3
70
0
62
7
6
PHANTOM
370
-3
390
F
0
LAYER
5
1FD
100
AcDbSymbolTableRecord
100
AcDbLayerTableRecord
2
_2D_DELETED_OBJS
70
0
62
7
6
CONTINUOUS
370
-3
390
F
0
LAYER
5
1FE
100
AcDbSymbolTableRecord
100
AcDbLayerTableRecord
2
0
70
0
62
7
6
CONTINUOUS
370
-3
390
F
0
LAYER
5
1FF
100
AcDbSymbolTableRecord
100
AcDbLayerTableRecord
2
FISSAGGI
70
0
62
7
6
CONTINUOUS
370
-3
390
F
0
LAYER
5
200
100
AcDbSymbolTableRecord
100
AcDbLayerTableRecord
2
PANNELLI
70
0
62
7
6
CONTINUOUS
370
-3
390
F
0
LAYER
5
201
100
AcDbSymbolTableRecord
100
AcDbLayerTableRecord
2
PROFILI
70
0
62
7
6
CONTINUOUS
370
-3
390
F
0
ENDTAB
0
TABLE
2
STYLE
5
3
100
AcDbSymbolTable
70
1
0
STYLE
5
11
100
AcDbSymbolTableRecord
100
AcDbTextStyleTableRecord
2
STANDARD
70
0
40
0.0
41
0.8000000000
50
0.0
71
0
42
0.2
3
txt
4

0
ENDTAB
0
TABLE
2
VIEW
5
6
100
AcDbSymbolTable
70
0
0
ENDTAB
0
TABLE
2
UCS
5
7
100
AcDbSymbolTable
70
0
0
ENDTAB
0
TABLE
2
APPID
5
9
100
AcDbSymbolTable
70
1
0
APPID
5
202
100
AcDbSymbolTableRecord
100
AcDbRegAppTableRecord
2
ACAD
70
0
0
ENDTAB
0
TABLE
2
BLOCK_RECORD
5
1
100
AcDbSymbolTable
70
0
0
BLOCK_RECORD
5
1F
100
AcDbSymbolTableRecord
100
AcDbBlockTableRecord
2
*MODEL_SPACE
0
BLOCK_RECORD
5
1B
100
AcDbSymbolTableRecord
100
AcDbBlockTableRecord
2
*PAPER_SPACE
0
ENDTAB
0
TABLE
2
DIMSTYLE
5
A
100
AcDbSymbolTable
70
1
100
AcDbDimStyleTable
71
0
0
DIMSTYLE
105
203
100
AcDbSymbolTableRecord
100
AcDbDimStyleTableRecord
2
STANDARD
70
0
3

4

40
1.0
41
0.1875000000
42
0.0625
43
0.38
44
0.18
45
0.0
46
0.0
47
0.0010000000
48
0.0010000000
140
0.1562500000
141
0.09
142
0.0
143
25.4
144
1.0000000000
145
0.0
146
1.0000000000
147
0.09
71
0
72
0
73
1
74
1
75
0
76
0
77
0
78
4
170
0
171
2
172
0
173
0
174
0
175
0
176
0
177
0
178
0
270
2
271
3
272
3
273
2
274
2
275
0
280
0
281
0
282
0
283
1
284
4
285
0
286
0
287
3
288
0
340
11
0
ENDTAB
0
ENDSEC
0
SECTION
2
BLOCKS
0
BLOCK
5
20
100
AcDbEntity
8
0
100
AcDbBlockBegin
2
*MODEL_SPACE
70
0
10
0.0
20
0.0
30
0.0
3
*MODEL_SPACE
1

0
ENDBLK
5
21
100
AcDbEntity
8
0
100
AcDbBlockEnd
0
BLOCK
5
1C
100
AcDbEntity
8
0
100
AcDbBlockBegin
2
*PAPER_SPACE
70
0
10
0.0
20
0.0
30
0.0
3
*PAPER_SPACE
1

0
ENDBLK
5
1D
100
AcDbEntity
8
0
100
AcDbBlockEnd
0
ENDSEC
0
SECTION
2
ENTITIES
0
LINE
5
204
100
AcDbEntity
8
0
100
AcDbLine
62
7
6
CONTINUOUS
10
0.0000000000
20
0.0000000000
11
0.0000000000
21
129.5154400000
0
LINE
5
205
100
AcDbEntity
8
0
100
AcDbLine
62
7
6
CONTINUOUS
10
0.0000000000
20
0.0000000000
11
210.7577200000
21
0.0000000000
0
LINE
5
206
100
AcDbEntity
8
0
100
AcDbLine
62
1
6
CONTINUOUS
10
158.7577200000
20
0.0000000000
11
177.2577200000
21
0.0000000000
0
LINE
5
207
100
AcDbEntity
8
0
100
AcDbLine
62
1
6
CONTINUOUS
10
192.2577200000
20
0.0000000000
11
210.7577200000
21
0.0000000000
0
LINE
5
208
100
AcDbEntity
8
0
100
AcDbLine
62
1
6
CONTINUOUS
10
162.7577200000
20
2.5896300000
11
177.2577200000
21
2.5896300000
0
LINE
5
209
100
AcDbEntity
8
0
100
AcDbLine
62
1
6
CONTINUOUS
10
192.2577200000
20
2.5896300000
11
206.7577200000
21
2.5896300000
0
LINE
5
20A
100
AcDbEntity
8
0
100
AcDbLine
62
1
6
CONTINUOUS
10
162.7577200000
20
3.1791400000
11
177.2577200000
21
3.1791400000
0
LINE
5
20B
100
AcDbEntity
8
0
100
AcDbLine
62
1
6
CONTINUOUS
10
192.2577200000
20
3.1791400000
11
206.7577200000
21
3.1791400000
0
LINE
5
20C
100
AcDbEntity
8
0
100
AcDbLine
62
1
6
CONTINUOUS
10
177.2577200000
20
5.3538600000
11
192.2577200000
21
5.3538600000
0
LINE
5
20D
100
AcDbEntity
8
0
100
AcDbLine
62
1
6
CONTINUOUS
10
162.7577200000
20
10.6954400000
11
177.2577200000
21
10.6954400000
0
LINE
5
20E
100
AcDbEntity
8
0
100
AcDbLine
62
1
6
CONTINUOUS
10
192.2577200000
20
10.6954400000
11
206.7577200000
21
10.6954400000
0
LINE
5
20F
100
AcDbEntity
8
0
100
AcDbLine
62
1
6
CONTINUOUS
10
162.7577200000
20
11.8220800000
11
177.2577200000
21
11.8220800000
0
LINE
5
210
100
AcDbEntity
8
0
100
AcDbLine
62
1
6
CONTINUOUS
10
192.2577200000
20
11.8220800000
11
206.7577200000
21
11.8220800000
0
LINE
5
211
100
AcDbEntity
8
0
100
AcDbLine
62
1
6
CONTINUOUS
10
59.7577200000
20
85.5577200000
11
59.7577200000
21
81.5282300000
0
LINE
5
212
100
AcDbEntity
8
0
100
AcDbLine
62
7
6
CONTINUOUS
10
64.7577200000
20
87.3577200000
11
64.7577200000
21
69.5202200000
0
LINE
5
213
100
AcDbEntity
8
0
100
AcDbLine
62
7
6
CONTINUOUS
10
64.7577200000
20
59.9952200000
11
64.7577200000
21
44.0827200000
0
LINE
5
214
100
AcDbEntity
8
0
100
AcDbLine
62
7
6
CONTINUOUS
10
64.7577200000
20
61.5827200000
11
64.7577200000
21
67.9327200000
0
LINE
5
215
100
AcDbEntity
8
0
100
AcDbLine
62
1
6
CONTINUOUS
10
162.7577200000
20
23.6049200000
11
177.2577200000
21
23.6049200000
0
LINE
5
216
100
AcDbEntity
8
0
100
AcDbLine
62
1
6
CONTINUOUS
10
192.2577200000
20
23.6049200000
11
206.7577200000
21
23.6049200000
0
LINE
5
217
100
AcDbEntity
8
0
100
AcDbLine
62
1
6
CONTINUOUS
10
162.7577200000
20
25.1685900000
11
177.2577200000
21
25.1685900000
0
LINE
5
218
100
AcDbEntity
8
0
100
AcDbLine
62
1
6
CONTINUOUS
10
192.2577200000
20
25.1685900000
11
206.7577200000
21
25.1685900000
0
LINE
5
219
100
AcDbEntity
8
0
100
AcDbLine
62
1
6
CONTINUOUS
10
69.7577200000
20
85.5577200000
11
69.7577200000
21
81.5282300000
0
LINE
5
21A
100
AcDbEntity
8
0
100
AcDbLine
62
1
6
CONTINUOUS
10
162.7577200000
20
40.1710100000
11
177.2577200000
21
40.1710100000
0
LINE
5
21B
100
AcDbEntity
8
0
100
AcDbLine
62
1
6
CONTINUOUS
10
192.2577200000
20
40.1710100000
11
206.7577200000
21
40.1710100000
0
LINE
5
21C
100
AcDbEntity
8
0
100
AcDbLine
62
1
6
CONTINUOUS
10
162.7577200000
20
42.0327600000
11
177.2577200000
21
42.0327600000
0
LINE
5
21D
100
AcDbEntity
8
0
100
AcDbLine
62
1
6
CONTINUOUS
10
192.2577200000
20
42.0327600000
11
206.7577200000
21
42.0327600000
0
LINE
5
21E
100
AcDbEntity
8
0
100
AcDbLine
62
1
6
CONTINUOUS
10
162.7577200000
20
58.9217400000
11
177.2577200000
21
58.9217400000
0
LINE
5
21F
100
AcDbEntity
8
0
100
AcDbLine
62
1
6
CONTINUOUS
10
192.2577200000
20
58.9217400000
11
206.7577200000
21
58.9217400000
0
LINE
5
220
100
AcDbEntity
8
0
100
AcDbLine
62
1
6
CONTINUOUS
10
162.7577200000
20
60.9161500000
11
177.2577200000
21
60.9161500000
0
LINE
5
221
100
AcDbEntity
8
0
100
AcDbLine
62
1
6
CONTINUOUS
10
192.2577200000
20
60.9161500000
11
206.7577200000
21
60.9161500000
0
LINE
5
222
100
AcDbEntity
8
0
100
AcDbLine
62
1
6
CONTINUOUS
10
44.0827200000
20
64.7577200000
11
0.0000000000
21
64.7577200000
0
LINE
5
223
100
AcDbEntity
8
0
100
AcDbLine
62
7
6
CONTINUOUS
10
44.0827200000
20
64.7577200000
11
59.9952200000
21
64.7577200000
0
LINE
5
224
100
AcDbEntity
8
0
100
AcDbLine
62
7
6
CONTINUOUS
10
61.5827200000
20
64.7577200000
11
67.9327200000
21
64.7577200000
0
LINE
5
225
100
AcDbEntity
8
0
100
AcDbLine
62
7
6
CONTINUOUS
10
69.5202200000
20
64.7577200000
11
85.4327200000
21
64.7577200000
0
LINE
5
226
100
AcDbEntity
8
0
100
AcDbLine
62
1
6
CONTINUOUS
10
85.4327200000
20
64.7577200000
11
129.5154400000
21
64.7577200000
0
LINE
5
227
100
AcDbEntity
8
0
100
AcDbLine
62
1
6
CONTINUOUS
10
158.7577200000
20
64.7577200000
11
210.7577200000
21
64.7577200000
0
LINE
5
228
100
AcDbEntity
8
0
100
AcDbLine
62
1
6
CONTINUOUS
10
162.7577200000
20
78.1910200000
11
177.2577200000
21
78.1910200000
0
LINE
5
229
100
AcDbEntity
8
0
100
AcDbLine
62
1
6
CONTINUOUS
10
192.2577200000
20
78.1910200000
11
206.7577200000
21
78.1910200000
0
LINE
5
22A
100
AcDbEntity
8
0
100
AcDbLine
62
1
6
CONTINUOUS
10
162.7577200000
20
80.1408800000
11
177.2577200000
21
80.1408800000
0
LINE
5
22B
100
AcDbEntity
8
0
100
AcDbLine
62
1
6
CONTINUOUS
10
192.2577200000
20
80.1408800000
11
206.7577200000
21
80.1408800000
0
LINE
5
22C
100
AcDbEntity
8
0
100
AcDbLine
62
1
6
CONTINUOUS
10
59.7577200000
20
85.5577200000
11
69.7577200000
21
85.5577200000
0
LINE
5
22D
100
AcDbEntity
8
0
100
AcDbLine
62
1
6
CONTINUOUS
10
162.7577200000
20
96.2667000000
11
177.2577200000
21
96.2667000000
0
LINE
5
22E
100
AcDbEntity
8
0
100
AcDbLine
62
1
6
CONTINUOUS
10
192.2577200000
20
96.2667000000
11
206.7577200000
21
96.2667000000
0
LINE
5
22F
100
AcDbEntity
8
0
100
AcDbLine
62
1
6
CONTINUOUS
10
162.7577200000
20
97.9987500000
11
177.2577200000
21
97.9987500000
0
LINE
5
230
100
AcDbEntity
8
0
100
AcDbLine
62
1
6
CONTINUOUS
10
192.2577200000
20
97.9987500000
11
206.7577200000
21
97.9987500000
0
LINE
5
231
100
AcDbEntity
8
0
100
AcDbLine
62
1
6
CONTINUOUS
10
162.7577200000
20
111.5426600000
11
177.2577200000
21
111.5426600000
0
LINE
5
232
100
AcDbEntity
8
0
100
AcDbLine
62
1
6
CONTINUOUS
10
192.2577200000
20
111.5426600000
11
206.7577200000
21
111.5426600000
0
LINE
5
233
100
AcDbEntity
8
0
100
AcDbLine
62
1
6
CONTINUOUS
10
162.7577200000
20
112.9030000000
11
177.2577200000
21
112.9030000000
0
LINE
5
234
100
AcDbEntity
8
0
100
AcDbLine
62
1
6
CONTINUOUS
10
192.2577200000
20
112.9030000000
11
206.7577200000
21
112.9030000000
0
LINE
5
235
100
AcDbEntity
8
0
100
AcDbLine
62
1
6
CONTINUOUS
10
158.7577200000
20
0.0000000000
11
158.7577200000
21
129.5154400000
0
LINE
5
236
100
AcDbEntity
8
0
100
AcDbLine
62
1
6
CONTINUOUS
10
162.7577200000
20
129.5154400000
11
162.7577200000
21
0.0000000000
0
LINE
5
237
100
AcDbEntity
8
0
100
AcDbLine
62
1
6
CONTINUOUS
10
162.7577200000
20
122.6615700000
11
177.2577200000
21
122.6615700000
0
LINE
5
238
100
AcDbEntity
8
0
100
AcDbLine
62
1
6
CONTINUOUS
10
192.2577200000
20
122.6615700000
11
206.7577200000
21
122.6615700000
0
LINE
5
239
100
AcDbEntity
8
0
100
AcDbLine
62
1
6
CONTINUOUS
10
162.7577200000
20
123.5293400000
11
177.2577200000
21
123.5293400000
0
LINE
5
23A
100
AcDbEntity
8
0
100
AcDbLine
62
1
6
CONTINUOUS
10
192.2577200000
20
123.5293400000
11
206.7577200000
21
123.5293400000
0
LINE
5
23B
100
AcDbEntity
8
0
100
AcDbLine
62
1
6
CONTINUOUS
10
177.2577200000
20
124.1615800000
11
192.2577200000
21
124.1615800000
0
LINE
5
23C
100
AcDbEntity
8
0
100
AcDbLine
62
1
6
CONTINUOUS
10
162.7577200000
20
128.6354700000
11
177.2577200000
21
128.6354700000
0
LINE
5
23D
100
AcDbEntity
8
0
100
AcDbLine
62
1
6
CONTINUOUS
10
192.2577200000
20
128.6354700000
11
206.7577200000
21
128.6354700000
0
LINE
5
23E
100
AcDbEntity
8
0
100
AcDbLine
62
1
6
CONTINUOUS
10
162.7577200000
20
128.9335600000
11
177.2577200000
21
128.9335600000
0
LINE
5
23F
100
AcDbEntity
8
0
100
AcDbLine
62
1
6
CONTINUOUS
10
192.2577200000
20
128.9335600000
11
206.7577200000
21
128.9335600000
0
LINE
5
240
100
AcDbEntity
8
0
100
AcDbLine
62
7
6
CONTINUOUS
10
0.0000000000
20
129.5154400000
11
210.7577200000
21
129.5154400000
0
LINE
5
241
100
AcDbEntity
8
0
100
AcDbLine
62
1
6
CONTINUOUS
10
158.7577200000
20
129.5154400000
11
177.2577200000
21
129.5154400000
0
LINE
5
242
100
AcDbEntity
8
0
100
AcDbLine
62
1
6
CONTINUOUS
10
192.2577200000
20
129.5154400000
11
210.7577200000
21
129.5154400000
0
LINE
5
243
100
AcDbEntity
8
0
100
AcDbLine
62
1
6
CONTINUOUS
10
177.2577200000
20
129.5154400000
11
177.2577200000
21
0.0000000000
0
LINE
5
244
100
AcDbEntity
8
0
100
AcDbLine
62
1
6
CONTINUOUS
10
184.7577200000
20
124.1615800000
11
184.7577200000
21
5.3538600000
0
LINE
5
245
100
AcDbEntity
8
0
100
AcDbLine
62
1
6
CONTINUOUS
10
192.2577200000
20
129.5154400000
11
192.2577200000
21
0.0000000000
0
LINE
5
246
100
AcDbEntity
8
0
100
AcDbLine
62
1
6
CONTINUOUS
10
206.7577200000
20
129.5154400000
11
206.7577200000
21
0.0000000000
0
LINE
5
247
100
AcDbEntity
8
0
100
AcDbLine
62
7
6
CONTINUOUS
10
210.7577200000
20
0.0000000000
11
210.7577200000
21
129.5154400000
0
LINE
5
248
100
AcDbEntity
8
0
100
AcDbLine
62
1
6
CONTINUOUS
10
210.7577200000
20
0.0000000000
11
210.7577200000
21
129.5154400000
0
CIRCLE
5
249
100
AcDbEntity
8
0
100
AcDbCircle
62
1
6
CONTINUOUS
10
64.7577200000
20
64.7577200000
40
54.0500000000
0
CIRCLE
5
24A
100
AcDbEntity
8
0
100
AcDbCircle
62
1
6
CONTINUOUS
10
64.7577200000
20
64.7577200000
40
64.7577200000
0
CIRCLE
5
24B
100
AcDbEntity
8
0
100
AcDbCircle
62
1
6
CONTINUOUS
10
64.7577200000
20
64.7577200000
40
30.0000000000
0
ARC
5
24C
100
AcDbEntity
8
0
100
AcDbCircle
62
1
6
CONTINUOUS
10
64.7577200000
20
64.7577200000
40
17.5000000000
100
AcDbArc
50
106.6015470000
51
73.3984530000
0
ARC
5
24D
100
AcDbEntity
8
0
100
AcDbCircle
62
7
10
84.5760300000
20
129.0071000000
40
9.1865100000
100
AcDbArc
50
182.3184660000
51
323.3958280000
0
ARC
5
24E
100
AcDbEntity
8
0
100
AcDbCircle
62
7
10
102.6334000000
20
120.3111300000
40
9.1865100000
100
AcDbArc
50
165.1755980000
51
306.2529600000
0
ARC
5
24F
100
AcDbEntity
8
0
100
AcDbCircle
62
7
10
117.3253400000
20
106.6790000000
40
9.1865100000
100
AcDbArc
50
148.0327450000
51
289.1101070000
0
ARC
5
250
100
AcDbEntity
8
0
100
AcDbCircle
62
7
10
127.3464200000
20
89.3219800000
40
9.1865100000
100
AcDbArc
50
130.8898930000
51
271.9672550000
0
ARC
5
251
100
AcDbEntity
8
0
100
AcDbCircle
62
7
10
131.8062300000
20
69.7823100000
40
9.1865100000
100
AcDbArc
50
113.7470400000
51
254.8244020000
0
ARC
5
252
100
AcDbEntity
8
0
100
AcDbCircle
62
7
10
130.3084700000
20
49.7961900000
40
9.1865100000
100
AcDbArc
50
96.6041720000
51
237.6815340000
0
ARC
5
253
100
AcDbEntity
8
0
100
AcDbCircle
62
7
10
122.9862500000
20
31.1394600000
40
9.1865100000
100
AcDbArc
50
79.4613190000
51
220.5386810000
0
ARC
5
254
100
AcDbEntity
8
0
100
AcDbCircle
62
7
10
110.4901600000
20
15.4698700000
40
9.1865100000
100
AcDbArc
50
62.3184660000
51
203.3958280000
0
ARC
5
255
100
AcDbEntity
8
0
100
AcDbCircle
62
7
10
93.9305500000
20
4.1797200000
40
9.1865100000
100
AcDbArc
50
45.1755980000
51
186.2529600000
0
ARC
5
256
100
AcDbEntity
8
0
100
AcDbCircle
62
7
10
74.7788000000
20
-1.7278200000
40
9.1865100000
100
AcDbArc
50
28.0327450000
51
169.1101070000
0
ARC
5
257
100
AcDbEntity
8
0
100
AcDbCircle
62
7
10
54.7366400000
20
-1.7278200000
40
9.1865100000
100
AcDbArc
50
10.8898930000
51
151.9672550000
0
ARC
5
258
100
AcDbEntity
8
0
100
AcDbCircle
62
7
10
35.5848900000
20
4.1797200000
40
9.1865100000
100
AcDbArc
50
353.7470400000
51
134.8244020000
0
ARC
5
259
100
AcDbEntity
8
0
100
AcDbCircle
62
7
10
19.0252800000
20
15.4698700000
40
9.1865100000
100
AcDbArc
50
336.6041720000
51
117.6815340000
0
ARC
5
25A
100
AcDbEntity
8
0
100
AcDbCircle
62
7
10
6.5291900000
20
31.1394600000
40
9.1865100000
100
AcDbArc
50
319.4613190000
51
100.5386810000
0
ARC
5
25B
100
AcDbEntity
8
0
100
AcDbCircle
62
7
10
-0.7930300000
20
49.7961900000
40
9.1865100000
100
AcDbArc
50
302.3184660000
51
83.3958280000
0
ARC
5
25C
100
AcDbEntity
8
0
100
AcDbCircle
62
7
10
-2.2907900000
20
69.7823100000
40
9.1865100000
100
AcDbArc
50
285.1755980000
51
66.2529600000
0
ARC
5
25D
100
AcDbEntity
8
0
100
AcDbCircle
62
7
10
2.1690200000
20
89.3219800000
40
9.1865100000
100
AcDbArc
50
268.0327450000
51
49.1101070000
0
ARC
5
25E
100
AcDbEntity
8
0
100
AcDbCircle
62
7
10
12.1901000000
20
106.6790000000
40
9.1865100000
100
AcDbArc
50
250.8898930000
51
31.9672550000
0
ARC
5
25F
100
AcDbEntity
8
0
100
AcDbCircle
62
7
10
26.8820400000
20
120.3111300000
40
9.1865100000
100
AcDbArc
50
233.7470400000
51
14.8244020000
0
ARC
5
260
100
AcDbEntity
8
0
100
AcDbCircle
62
7
10
44.9394100000
20
129.0071000000
40
9.1865100000
100
AcDbArc
50
216.6041720000
51
357.6815340000
0
ARC
5
261
100
AcDbEntity
8
0
100
AcDbCircle
62
7
10
64.7577200000
20
131.9942300000
40
9.1865100000
100
AcDbArc
50
199.4613190000
51
340.5386810000
0
ENDSEC
0
SECTION
2
OBJECTS
0
DICTIONARY
5
C
100
AcDbDictionary
280
0
281
1
3
ACAD_GROUP
350
D
3
ACAD_MLINESTYLE
350
17
3
ACAD_LAYOUT
350
1A
3
ACAD_PLOTSETTINGS
350
19
3
ACAD_PLOTSTYLENAME
350
E
0
DICTIONARY
5
D
102
{ACAD_REACTORS
330
C
102
}
100
AcDbDictionary
280
0
281
1
0
ACDBDICTIONARYWDFLT
5
E
102
{ACAD_REACTORS
330
C
102
}
100
AcDbDictionary
281
1
3
Normal
350
F
100
AcDbDictionaryWithDefault
340
F
0
DICTIONARY
5
17
102
{ACAD_REACTORS
330
C
102
}
100
AcDbDictionary
280
0
281
1
3
Standard
350
18
0
DICTIONARY
5
19
102
{ACAD_REACTORS
330
C
102
}
100
AcDbDictionary
281
1
0
DICTIONARY
5
1A
102
{ACAD_REACTORS
330
C
102
}
100
AcDbDictionary
281
1
3
Layout1
350
1E
3
Model
350
22
0
ACDBPLACEHOLDER
5
F
102
{ACAD_REACTORS
330
E
102
}
0
MLINESTYLE
5
18
102
{ACAD_REACTORS
330
17
102
}
100
AcDbMlineStyle
2
STANDARD
70
0
3

62
256
51
90.0
52
90.0
71
2
49
0.5
62
256
6
BYLAYER
49
-0.5
62
256
6
BYLAYER
0
LAYOUT
5
1E
102
{ACAD_REACTORS
330
1A
102
}
100
AcDbPlotSettings
1

2

4

6

40
0.0
41
0.0
42
0.0
43
0.0
44
0.0
45
0.0
46
0.0
47
0.0
48
0.0
49
0.0
140
0.0
141
0.0
142
1.0
143
1.0
70
0
72
0
73
0
74
0
7

75
0
147
1.0
148
0.0
149
0.0
100
AcDbLayout
1
Layout1
70
0
71
0
10
0.0
20
0.0
11
0.0
21
0.0
12
0.0
22
0.0
32
0.0
14
0.0
24
0.0
34
0.0
15
0.0
25
0.0
35
0.0
146
0.0
13
0.0
23
0.0
33
0.0
16
0.0
26
0.0
36
0.0
17
0.0
27
0.0
37
0.0
76
0
330
1B
331
0
345
0
346
0
0
LAYOUT
5
22
102
{ACAD_REACTORS
330
1A
102
}
100
AcDbPlotSettings
1

2

4

6

40
0.0
41
0.0
42
0.0
43
0.0
44
0.0
45
0.0
46
0.0
47
0.0
48
0.0
49
0.0
140
0.0
141
0.0
142
1.0
143
1.0
70
0
72
0
73
0
74
0
7

75
0
147
1.0
148
0.0
149
0.0
100
AcDbLayout
1
Model
70
0
71
0
10
0.0
20
0.0
11
0.0
21
0.0
12
0.0
22
0.0
32
0.0
14
0.0
24
0.0
34
0.0
15
0.0
25
0.0
35
0.0
146
0.0
13
0.0
23
0.0
33
0.0
16
0.0
26
0.0
36
0.0
17
0.0
27
0.0
37
0.0
76
0
330
1F
331
0
345
0
346
0
0
ENDSEC
0
EOF
