  0
SECTION
  2
HEADER
  9
$ACADVER
  1
AC1014
  9
$ACADMAINTVER
 70
     0
  9
$DWGCODEPAGE
  3
ANSI_1252
  9
$INSBASE
 10
0.0
 20
0.0
 30
0.0
  9
$EXTMIN
 10
-129.91247
 20
-76.76193
 30
0.0
  9
$EXTMAX
 10
130.18753
 20
77.43807
 30
0.0
  9
$LIMMIN
 10
0.0
 20
0.0
  9
$LIMMAX
 10
12.0
 20
9.0
  9
$ORTHOMODE
 70
     0
  9
$REGENMODE
 70
     1
  9
$FILLMODE
 70
     1
  9
$QTEXTMODE
 70
     0
  9
$MIRRTEXT
 70
     1
  9
$DRAGMODE
 70
     2
  9
$LTSCALE
 40
2.0
  9
$OSMODE
 70
     0
  9
$ATTMODE
 70
     1
  9
$TEXTSIZE
 40
0.2
  9
$TRACEWID
 40
0.05
  9
$TEXTSTYLE
  7
STANDARD
  9
$CLAYER
  8
0
  9
$CELTYPE
  6
CONTINUOUS
  9
$CECOLOR
 62
   256
  9
$CELTSCALE
 40
1.0
  9
$DELOBJ
 70
     1
  9
$DISPSILH
 70
     0
  9
$DIMSCALE
 40
1.0
  9
$DIMASZ
 40
0.18
  9
$DIMEXO
 40
0.0625
  9
$DIMDLI
 40
0.38
  9
$DIMRND
 40
0.0
  9
$DIMDLE
 40
0.0
  9
$DIMEXE
 40
0.18
  9
$DIMTP
 40
0.0
  9
$DIMTM
 40
0.0
  9
$DIMTXT
 40
0.18
  9
$DIMCEN
 40
0.09
  9
$DIMTSZ
 40
0.0
  9
$DIMTOL
 70
     0
  9
$DIMLIM
 70
     0
  9
$DIMTIH
 70
     1
  9
$DIMTOH
 70
     1
  9
$DIMSE1
 70
     0
  9
$DIMSE2
 70
     0
  9
$DIMTAD
 70
     0
  9
$DIMZIN
 70
     0
  9
$DIMBLK
  1

  9
$DIMASO
 70
     1
  9
$DIMSHO
 70
     1
  9
$DIMPOST
  1

  9
$DIMAPOST
  1

  9
$DIMALT
 70
     0
  9
$DIMALTD
 70
     2
  9
$DIMALTF
 40
25.4
  9
$DIMLFAC
 40
1.0
  9
$DIMTOFL
 70
     0
  9
$DIMTVP
 40
0.0
  9
$DIMTIX
 70
     0
  9
$DIMSOXD
 70
     0
  9
$DIMSAH
 70
     0
  9
$DIMBLK1
  1

  9
$DIMBLK2
  1

  9
$DIMSTYLE
  2
STANDARD
  9
$DIMCLRD
 70
     0
  9
$DIMCLRE
 70
     0
  9
$DIMCLRT
 70
     0
  9
$DIMTFAC
 40
1.0
  9
$DIMGAP
 40
0.09
  9
$DIMJUST
 70
     0
  9
$DIMSD1
 70
     0
  9
$DIMSD2
 70
     0
  9
$DIMTOLJ
 70
     1
  9
$DIMTZIN
 70
     0
  9
$DIMALTZ
 70
     0
  9
$DIMALTTZ
 70
     0
  9
$DIMFIT
 70
     3
  9
$DIMUPT
 70
     0
  9
$DIMUNIT
 70
     2
  9
$DIMDEC
 70
     4
  9
$DIMTDEC
 70
     4
  9
$DIMALTU
 70
     2
  9
$DIMALTTD
 70
     2
  9
$DIMTXSTY
  7
STANDARD
  9
$DIMAUNIT
 70
     0
  9
$LUNITS
 70
     2
  9
$LUPREC
 70
     4
  9
$SKETCHINC
 40
0.1
  9
$FILLETRAD
 40
0.0
  9
$AUNITS
 70
     0
  9
$AUPREC
 70
     0
  9
$MENU
  1
acad
  9
$ELEVATION
 40
0.0
  9
$PELEVATION
 40
0.0
  9
$THICKNESS
 40
0.0
  9
$LIMCHECK
 70
     0
  9
$BLIPMODE
 70
     0
  9
$CHAMFERA
 40
0.0
  9
$CHAMFERB
 40
0.0
  9
$CHAMFERC
 40
0.0
  9
$CHAMFERD
 40
0.0
  9
$SKPOLY
 70
     0
  9
$TDCREATE
 40
0.0000000000
  9
$TDUPDATE
 40
0.0000000000
  9
$TDINDWG
 40
0.0000000000
  9
$TDUSRTIMER
 40
0.0000000000
  9
$USRTIMER
 70
     1
  9
$ANGBASE
 50
0.0
  9
$ANGDIR
 70
     0
  9
$PDMODE
 70
     0
  9
$PDSIZE
 40
0.0
  9
$PLINEWID
 40
0.0
  9
$COORDS
 70
     1
  9
$SPLFRAME
 70
     0
  9
$SPLINETYPE
 70
     6
  9
$SPLINESEGS
 70
     8
  9
$ATTDIA
 70
     0
  9
$ATTREQ
 70
     1
  9
$HANDLING
 70
     1
  9
$HANDSEED
  5
12C
  9
$SURFTAB1
 70
     6
  9
$SURFTAB2
 70
     6
  9
$SURFTYPE
 70
     6
  9
$SURFU
 70
     6
  9
$SURFV
 70
     6
  9
$UCSNAME
  2

  9
$UCSORG
 10
0.0
 20
0.0
 30
0.0
  9
$UCSXDIR
 10
1.0
 20
0.0
 30
0.0
  9
$UCSYDIR
 10
0.0
 20
1.0
 30
0.0
  9
$PUCSNAME
  2

  9
$PUCSORG
 10
0.0
 20
0.0
 30
0.0
  9
$PUCSXDIR
 10
1.0
 20
0.0
 30
0.0
  9
$PUCSYDIR
 10
0.0
 20
1.0
 30
0.0
  9
$USERI1
 70
     0
  9
$USERI2
 70
     0
  9
$USERI3
 70
     0
  9
$USERI4
 70
     0
  9
$USERI5
 70
     0
  9
$USERR1
 40
0.0
  9
$USERR2
 40
0.0
  9
$USERR3
 40
0.0
  9
$USERR4
 40
0.0
  9
$USERR5
 40
0.0
  9
$WORLDVIEW
 70
     1
  9
$SHADEDGE
 70
     3
  9
$SHADEDIF
 70
    70
  9
$TILEMODE
 70
     1
  9
$MAXACTVP
 70
    48
  9
$PINSBASE
 10
0.0
 20
0.0
 30
0.0
  9
$PLIMCHECK
 70
     0
  9
$PEXTMIN
 10
1.000000E+20
 20
1.000000E+20
 30
1.000000E+20
  9
$PEXTMAX
 10
-1.000000E+20
 20
-1.000000E+20
 30
-1.000000E+20
  9
$PLIMMIN
 10
0.0
 20
0.0
  9
$PLIMMAX
 10
12.0
 20
9.0
  9
$UNITMODE
 70
     0
  9
$VISRETAIN
 70
     1
  9
$PLINEGEN
 70
     0
  9
$PSLTSCALE
 70
     1
  9
$TREEDEPTH
 70
  3020
  9
$PICKSTYLE
 70
     1
  9
$CMLSTYLE
  2
STANDARD
  9
$CMLJUST
 70
     0
  9
$CMLSCALE
 40
1.0
  9
$PROXYGRAPHICS
 70
     1
  9
$MEASUREMENT
 70
     0
  0
ENDSEC
  0
SECTION
  2
CLASSES
  0
ENDSEC
  0
SECTION
  2
TABLES
  0
TABLE
  2
VPORT
  5
8
100
AcDbSymbolTable
 70
     2
  0
VPORT
  5
12B
100
AcDbSymbolTableRecord
100
AcDbViewportTableRecord
  2
*ACTIVE
 70
     0
 10
0.0
 20
0.0
 11
1.0
 21
1.0
 12
0.13753
 22
0.33807
 13
0.0
 23
0.0
 14
1.0
 24
1.0
 15
0.0
 25
0.0
 16
0.0
 26
0.0
 36
1.0
 17
0.0
 27
0.0
 37
0.0
 40
155.94566
 41
1.748582
 42
50.0
 43
0.0
 44
0.0
 50
0.0
 51
0.0
 71
     0
 72
   100
 73
     1
 74
     1
 75
     0
 76
     0
 77
     0
 78
     0
  0
ENDTAB
  0
TABLE
  2
LTYPE
  5
5
100
AcDbSymbolTable
 70
    10
  0
LTYPE
  5
12
100
AcDbSymbolTableRecord
100
AcDbLinetypeTableRecord
  2
BYBLOCK
 70
     0
  3

 72
    65
 73
     0
 40
0.0
  0
LTYPE
  5
13
100
AcDbSymbolTableRecord
100
AcDbLinetypeTableRecord
  2
BYLAYER
 70
     0
  3

 72
    65
 73
     0
 40
0.0
  0
LTYPE
  5
14
100
AcDbSymbolTableRecord
100
AcDbLinetypeTableRecord
  2
CONTINUOUS
 70
     0
  3
Solid Line
 72
    65
 73
     0
 40
0.0
  0
LTYPE
  5
1F
100
AcDbSymbolTableRecord
100
AcDbLinetypeTableRecord
  2
MCDASH1
 70
     0
  3
MiniCad+ Generated
 72
    65
 73
     2
 40
2.116537
 49
1.058075
 74
     0
 49
-1.058463
 74
     0
  0
LTYPE
  5
20
100
AcDbSymbolTableRecord
100
AcDbLinetypeTableRecord
  2
MCDASH2
 70
     0
  3
MiniCad+ Generated
 72
    65
 73
     2
 40
3.527692
 49
2.469229
 74
     0
 49
-1.058463
 74
     0
  0
LTYPE
  5
21
100
AcDbSymbolTableRecord
100
AcDbLinetypeTableRecord
  2
MCDASH3
 70
     0
  3
MiniCad+ Generated
 72
    65
 73
     2
 40
6.35
 49
5.291537
 74
     0
 49
-1.058463
 74
     0
  0
LTYPE
  5
22
100
AcDbSymbolTableRecord
100
AcDbLinetypeTableRecord
  2
MCDASH4
 70
     0
  3
MiniCad+ Generated
 72
    65
 73
     2
 40
7.760767
 49
6.702692
 74
     0
 49
-1.058075
 74
     0
  0
LTYPE
  5
23
100
AcDbSymbolTableRecord
100
AcDbLinetypeTableRecord
  2
MCDASH5
 70
     0
  3
MiniCad+ Generated
 72
    65
 73
     2
 40
1.058075
 49
0.352692
 74
     0
 49
-0.705383
 74
     0
  0
LTYPE
  5
24
100
AcDbSymbolTableRecord
100
AcDbLinetypeTableRecord
  2
MCDASH6
 70
     0
  3
MiniCad+ Generated
 72
    65
 73
     4
 40
5.291537
 49
3.175
 74
     0
 49
-1.058075
 74
     0
 49
0.352692
 74
     0
 49
-0.705771
 74
     0
  0
LTYPE
  5
25
100
AcDbSymbolTableRecord
100
AcDbLinetypeTableRecord
  2
MCDASH7
 70
     0
  3
MiniCad+ Generated
 72
    65
 73
     6
 40
9.525
 49
3.175
 74
     0
 49
-1.058075
 74
     0
 49
3.175
 74
     0
 49
-1.058463
 74
     0
 49
0.352692
 74
     0
 49
-0.705771
 74
     0
  0
LTYPE
  5
26
100
AcDbSymbolTableRecord
100
AcDbLinetypeTableRecord
  2
MCDASH8
 70
     0
  3
MiniCad+ Generated
 72
    65
 73
     6
 40
6.35
 49
3.175
 74
     0
 49
-1.058075
 74
     0
 49
0.352692
 74
     0
 49
-0.705771
 74
     0
 49
0.352692
 74
     0
 49
-0.705771
 74
     0
  0
LTYPE
  5
27
100
AcDbSymbolTableRecord
100
AcDbLinetypeTableRecord
  2
MCDASH9
 70
     0
  3
MiniCad+ Generated
 72
    65
 73
     2
 40
1.90251
 49
1.268527
 74
     0
 49
-0.63407
 74
     0
  0
ENDTAB
  0
TABLE
  2
LAYER
  5
2
100
AcDbSymbolTable
 70
     2
  0
LAYER
  5
E
100
AcDbSymbolTableRecord
100
AcDbLayerTableRecord
  2
0
 70
     0
 62
     7
  6
CONTINUOUS
  0
LAYER
  5
28
100
AcDbSymbolTableRecord
100
AcDbLayerTableRecord
  2
LUCIDO-1
 70
     0
 62
     7
  6
CONTINUOUS
  0
ENDTAB
  0
TABLE
  2
STYLE
  5
3
100
AcDbSymbolTable
 70
     1
  0
STYLE
  5
F
100
AcDbSymbolTableRecord
100
AcDbTextStyleTableRecord
  2
STANDARD
 70
     0
 40
0.0
 41
1.0
 50
0.0
 71
     0
 42
0.2
  3
txt
  4

  0
ENDTAB
  0
TABLE
  2
VIEW
  5
6
100
AcDbSymbolTable
 70
     0
  0
ENDTAB
  0
TABLE
  2
UCS
  5
7
100
AcDbSymbolTable
 70
     0
  0
ENDTAB
  0
TABLE
  2
APPID
  5
9
100
AcDbSymbolTable
 70
     1
  0
APPID
  5
10
100
AcDbSymbolTableRecord
100
AcDbRegAppTableRecord
  2
ACAD
 70
     0
  0
ENDTAB
  0
TABLE
  2
DIMSTYLE
  5
A
100
AcDbSymbolTable
 70
     1
  0
DIMSTYLE
105
12A
100
AcDbSymbolTableRecord
100
AcDbDimStyleTableRecord
  2
STANDARD
 70
     0
  3

  4

  5

  6

  7

 40
1.0
 41
0.18
 42
0.0625
 43
0.38
 44
0.18
 45
0.0
 46
0.0
 47
0.0
 48
0.0
140
0.18
141
0.09
142
0.0
143
25.4
144
1.0
145
0.0
146
1.0
147
0.09
 71
     0
 72
     0
 73
     1
 74
     1
 75
     0
 76
     0
 77
     0
 78
     0
170
     0
171
     2
172
     0
173
     0
174
     0
175
     0
176
     0
177
     0
178
     0
270
     2
271
     4
272
     4
273
     2
274
     2
340
F
275
     0
280
     0
281
     0
282
     0
283
     1
284
     0
285
     0
286
     0
287
     3
288
     0
  0
ENDTAB
  0
TABLE
  2
BLOCK_RECORD
  5
1
100
AcDbSymbolTable
 70
    17
  0
BLOCK_RECORD
  5
18
100
AcDbSymbolTableRecord
100
AcDbBlockTableRecord
  2
*MODEL_SPACE
  0
BLOCK_RECORD
  5
15
100
AcDbSymbolTableRecord
100
AcDbBlockTableRecord
  2
*PAPER_SPACE
  0
BLOCK_RECORD
  5
29
100
AcDbSymbolTableRecord
100
AcDbBlockTableRecord
  2
$ARROW1$
  0
BLOCK_RECORD
  5
2D
100
AcDbSymbolTableRecord
100
AcDbBlockTableRecord
  2
$ARROW2$
  0
BLOCK_RECORD
  5
31
100
AcDbSymbolTableRecord
100
AcDbBlockTableRecord
  2
$ARROW3$
  0
BLOCK_RECORD
  5
38
100
AcDbSymbolTableRecord
100
AcDbBlockTableRecord
  2
$ARROW4$
  0
BLOCK_RECORD
  5
3C
100
AcDbSymbolTableRecord
100
AcDbBlockTableRecord
  2
$ARROW5$
  0
BLOCK_RECORD
  5
41
100
AcDbSymbolTableRecord
100
AcDbBlockTableRecord
  2
__25
  0
BLOCK_RECORD
  5
4E
100
AcDbSymbolTableRecord
100
AcDbBlockTableRecord
  2
__30
  0
BLOCK_RECORD
  5
5B
100
AcDbSymbolTableRecord
100
AcDbBlockTableRecord
  2
__35
  0
BLOCK_RECORD
  5
68
100
AcDbSymbolTableRecord
100
AcDbBlockTableRecord
  2
__40
  0
BLOCK_RECORD
  5
75
100
AcDbSymbolTableRecord
100
AcDbBlockTableRecord
  2
__45
  0
BLOCK_RECORD
  5
82
100
AcDbSymbolTableRecord
100
AcDbBlockTableRecord
  2
__50
  0
BLOCK_RECORD
  5
8F
100
AcDbSymbolTableRecord
100
AcDbBlockTableRecord
  2
__60
  0
BLOCK_RECORD
  5
9C
100
AcDbSymbolTableRecord
100
AcDbBlockTableRecord
  2
__1_
  0
BLOCK_RECORD
  5
A9
100
AcDbSymbolTableRecord
100
AcDbBlockTableRecord
  2
_1_1_2_
  0
BLOCK_RECORD
  5
B6
100
AcDbSymbolTableRecord
100
AcDbBlockTableRecord
  2
_1_3_4_
  0
BLOCK_RECORD
  5
C3
100
AcDbSymbolTableRecord
100
AcDbBlockTableRecord
  2
__2_
  0
BLOCK_RECORD
  5
D0
100
AcDbSymbolTableRecord
100
AcDbBlockTableRecord
  2
__1_1_4_
  0
ENDTAB
  0
ENDSEC
  0
SECTION
  2
BLOCKS
  0
BLOCK
  5
19
100
AcDbEntity
  8
0
100
AcDbBlockBegin
  2
*MODEL_SPACE
 70
     0
 10
0.0
 20
0.0
 30
0.0
  3
*MODEL_SPACE
  1

  0
ENDBLK
  5
1A
100
AcDbEntity
  8
0
100
AcDbBlockEnd
  0
BLOCK
  5
16
100
AcDbEntity
 67
     1
  8
0
100
AcDbBlockBegin
  2
*PAPER_SPACE
 70
     0
 10
0.0
 20
0.0
 30
0.0
  3
*PAPER_SPACE
  1

  0
ENDBLK
  5
17
100
AcDbEntity
 67
     1
  8
0
100
AcDbBlockEnd
  0
BLOCK
  5
2A
100
AcDbEntity
  8
0
100
AcDbBlockBegin
  2
$ARROW1$
 70
     0
 10
0.0
 20
0.0
 30
0.0
  3
$ARROW1$
  1

  0
SOLID
  5
2B
100
AcDbEntity
  8
0
 62
     0
100
AcDbTrace
 10
-25.4
 20
4.318
 30
0.0
 11
-25.4
 21
-4.318
 31
0.0
 12
0.0
 22
0.0
 32
0.0
 13
0.0
 23
0.0
 33
0.0
  0
ENDBLK
  5
2C
100
AcDbEntity
  8
0
100
AcDbBlockEnd
  0
BLOCK
  5
2E
100
AcDbEntity
  8
0
100
AcDbBlockBegin
  2
$ARROW2$
 70
     0
 10
0.0
 20
0.0
 30
0.0
  3
$ARROW2$
  1

  0
SOLID
  5
2F
100
AcDbEntity
  8
0
 62
     0
100
AcDbTrace
 10
-25.4
 20
12.7
 30
0.0
 11
-25.4
 21
-12.7
 31
0.0
 12
0.0
 22
0.0
 32
0.0
 13
0.0
 23
0.0
 33
0.0
  0
ENDBLK
  5
30
100
AcDbEntity
  8
0
100
AcDbBlockEnd
  0
BLOCK
  5
32
100
AcDbEntity
  8
0
100
AcDbBlockBegin
  2
$ARROW3$
 70
     0
 10
0.0
 20
0.0
 30
0.0
  3
$ARROW3$
  1

  0
POLYLINE
  5
33
100
AcDbEntity
  8
0
  6
BYBLOCK
 62
     0
100
AcDb2dPolyline
 66
     1
 10
0.0
 20
0.0
 30
0.0
 70
     1
 40
0.5
 41
0.5
  0
VERTEX
  5
34
100
AcDbEntity
  8
0
  6
BYBLOCK
 62
     0
100
AcDbVertex
100
AcDb2dVertex
 10
-6.35
 20
0.0
 30
0.0
 42
1.0
  0
VERTEX
  5
35
100
AcDbEntity
  8
0
  6
BYBLOCK
 62
     0
100
AcDbVertex
100
AcDb2dVertex
 10
6.35
 20
0.0
 30
0.0
 42
1.0
  0
SEQEND
  5
36
100
AcDbEntity
  8
0
  6
BYBLOCK
 62
     0
  0
ENDBLK
  5
37
100
AcDbEntity
  8
0
100
AcDbBlockEnd
  0
BLOCK
  5
39
100
AcDbEntity
  8
0
100
AcDbBlockBegin
  2
$ARROW4$
 70
     0
 10
0.0
 20
0.0
 30
0.0
  3
$ARROW4$
  1

  0
LINE
  5
3A
100
AcDbEntity
  8
0
  6
BYBLOCK
 62
     0
100
AcDbLine
 10
12.7
 20
12.7
 30
0.0
 11
-12.7
 21
-12.7
 31
0.0
  0
ENDBLK
  5
3B
100
AcDbEntity
  8
0
100
AcDbBlockEnd
  0
BLOCK
  5
3D
100
AcDbEntity
  8
0
100
AcDbBlockBegin
  2
$ARROW5$
 70
     0
 10
0.0
 20
0.0
 30
0.0
  3
$ARROW5$
  1

  0
LINE
  5
3E
100
AcDbEntity
  8
0
  6
BYBLOCK
 62
     0
100
AcDbLine
 10
12.7
 20
12.7
 30
0.0
 11
-12.7
 21
-12.7
 31
0.0
  0
LINE
  5
3F
100
AcDbEntity
  8
0
  6
BYBLOCK
 62
     0
100
AcDbLine
 10
-12.7
 20
12.7
 30
0.0
 11
12.7
 21
-12.7
 31
0.0
  0
ENDBLK
  5
40
100
AcDbEntity
  8
0
100
AcDbBlockEnd
  0
BLOCK
  5
42
100
AcDbEntity
  8
0
100
AcDbBlockBegin
  2
__25
 70
     0
 10
0.0
 20
0.0
 30
0.0
  3
__25
  1

  0
LINE
  5
43
100
AcDbEntity
  8
0
 62
     1
100
AcDbLine
 10
-4.1
 20
15.85
 30
0.0
 11
3.9
 21
15.85
 31
0.0
  0
LINE
  5
44
100
AcDbEntity
  8
0
 62
     1
100
AcDbLine
 10
-4.1
 20
11.89272
 30
0.0
 11
-4.1
 21
15.85
 31
0.0
  0
LINE
  5
45
100
AcDbEntity
  8
0
 62
     1
100
AcDbLine
 10
3.9
 20
11.89272
 30
0.0
 11
3.9
 21
15.85
 31
0.0
  0
ARC
  5
46
100
AcDbEntity
  8
0
 62
     1
100
AcDbCircle
 10
-0.1
 20
0.05
 30
0.0
 40
12.5
100
AcDbArc
 50
108.666656
 51
71.333328
  0
LINE
  5
47
100
AcDbEntity
  8
0
100
AcDbLine
 10
-3.275
 20
0.05
 30
0.0
 11
3.075
 21
0.05
 31
0.0
  0
LINE
  5
48
100
AcDbEntity
  8
0
100
AcDbLine
 10
-0.1
 20
-3.125
 30
0.0
 11
-0.1
 21
3.225
 31
0.0
  0
LINE
  5
49
100
AcDbEntity
  8
0
100
AcDbLine
 10
-18.275
 20
0.05
 30
0.0
 11
-4.8625
 21
0.05
 31
0.0
  0
LINE
  5
4A
100
AcDbEntity
  8
0
100
AcDbLine
 10
4.6625
 20
0.05
 30
0.0
 11
18.075
 21
0.05
 31
0.0
  0
LINE
  5
4B
100
AcDbEntity
  8
0
100
AcDbLine
 10
-0.1
 20
18.225
 30
0.0
 11
-0.1
 21
4.8125
 31
0.0
  0
LINE
  5
4C
100
AcDbEntity
  8
0
100
AcDbLine
 10
-0.1
 20
-4.7125
 30
0.0
 11
-0.1
 21
-18.125
 31
0.0
  0
ENDBLK
  5
4D
100
AcDbEntity
  8
0
100
AcDbBlockEnd
  0
BLOCK
  5
4F
100
AcDbEntity
  8
0
100
AcDbBlockBegin
  2
__30
 70
     0
 10
0.0
 20
0.0
 30
0.0
  3
__30
  1

  0
LINE
  5
50
100
AcDbEntity
  8
0
100
AcDbLine
 10
-3.175
 20
0.0
 30
0.0
 11
3.175
 21
0.0
 31
0.0
  0
LINE
  5
51
100
AcDbEntity
  8
0
100
AcDbLine
 10
0.0
 20
-3.175
 30
0.0
 11
0.0
 21
3.175
 31
0.0
  0
LINE
  5
52
100
AcDbEntity
  8
0
100
AcDbLine
 10
-18.175
 20
0.0
 30
0.0
 11
-4.7625
 21
0.0
 31
0.0
  0
LINE
  5
53
100
AcDbEntity
  8
0
100
AcDbLine
 10
4.7625
 20
0.0
 30
0.0
 11
18.175
 21
0.0
 31
0.0
  0
LINE
  5
54
100
AcDbEntity
  8
0
100
AcDbLine
 10
0.0
 20
19.9
 30
0.0
 11
0.0
 21
4.7625
 31
0.0
  0
LINE
  5
55
100
AcDbEntity
  8
0
100
AcDbLine
 10
0.0
 20
-4.7625
 30
0.0
 11
0.0
 21
-18.175
 31
0.0
  0
LINE
  5
56
100
AcDbEntity
  8
0
 62
     1
100
AcDbLine
 10
-4.0
 20
18.3
 30
0.0
 11
4.0
 21
18.3
 31
0.0
  0
LINE
  5
57
100
AcDbEntity
  8
0
 62
     1
100
AcDbLine
 10
-4.0
 20
18.3
 30
0.0
 11
-4.0
 21
14.45683
 31
0.0
  0
LINE
  5
58
100
AcDbEntity
  8
0
 62
     1
100
AcDbLine
 10
4.0
 20
18.3
 30
0.0
 11
4.0
 21
14.45683
 31
0.0
  0
ARC
  5
59
100
AcDbEntity
  8
0
 62
     1
100
AcDbCircle
 10
0.0
 20
0.0
 30
0.0
 40
15.0
100
AcDbArc
 50
105.466049
 51
74.533966
  0
ENDBLK
  5
5A
100
AcDbEntity
  8
0
100
AcDbBlockEnd
  0
BLOCK
  5
5C
100
AcDbEntity
  8
0
100
AcDbBlockBegin
  2
__35
 70
     0
 10
0.0
 20
0.0
 30
0.0
  3
__35
  1

  0
LINE
  5
5D
100
AcDbEntity
  8
0
100
AcDbLine
 10
-3.175
 20
0.0
 30
0.0
 11
3.175
 21
0.0
 31
0.0
  0
LINE
  5
5E
100
AcDbEntity
  8
0
100
AcDbLine
 10
0.0
 20
-3.175
 30
0.0
 11
0.0
 21
3.175
 31
0.0
  0
LINE
  5
5F
100
AcDbEntity
  8
0
100
AcDbLine
 10
-20.675
 20
0.0
 30
0.0
 11
-4.7625
 21
0.0
 31
0.0
  0
LINE
  5
60
100
AcDbEntity
  8
0
100
AcDbLine
 10
4.7625
 20
0.0
 30
0.0
 11
20.675
 21
0.0
 31
0.0
  0
LINE
  5
61
100
AcDbEntity
  8
0
100
AcDbLine
 10
0.0
 20
22.6
 30
0.0
 11
0.0
 21
4.7625
 31
0.0
  0
LINE
  5
62
100
AcDbEntity
  8
0
100
AcDbLine
 10
0.0
 20
-4.7625
 30
0.0
 11
0.0
 21
-20.675
 31
0.0
  0
LINE
  5
63
100
AcDbEntity
  8
0
 62
     1
100
AcDbLine
 10
-5.0
 20
20.8
 30
0.0
 11
5.0
 21
20.8
 31
0.0
  0
LINE
  5
64
100
AcDbEntity
  8
0
 62
     1
100
AcDbLine
 10
-5.0
 20
20.8
 30
0.0
 11
-5.0
 21
16.77051
 31
0.0
  0
LINE
  5
65
100
AcDbEntity
  8
0
 62
     1
100
AcDbLine
 10
5.0
 20
20.8
 30
0.0
 11
5.0
 21
16.77051
 31
0.0
  0
ARC
  5
66
100
AcDbEntity
  8
0
 62
     1
100
AcDbCircle
 10
0.0
 20
0.0
 30
0.0
 40
17.5
100
AcDbArc
 50
106.601547
 51
73.398453
  0
ENDBLK
  5
67
100
AcDbEntity
  8
0
100
AcDbBlockEnd
  0
BLOCK
  5
69
100
AcDbEntity
  8
0
100
AcDbBlockBegin
  2
__40
 70
     0
 10
0.0
 20
0.0
 30
0.0
  3
__40
  1

  0
LINE
  5
6A
100
AcDbEntity
  8
0
100
AcDbLine
 10
-3.175
 20
0.0
 30
0.0
 11
3.175
 21
0.0
 31
0.0
  0
LINE
  5
6B
100
AcDbEntity
  8
0
100
AcDbLine
 10
0.0
 20
-3.175
 30
0.0
 11
0.0
 21
3.175
 31
0.0
  0
LINE
  5
6C
100
AcDbEntity
  8
0
100
AcDbLine
 10
-23.175
 20
0.0
 30
0.0
 11
-4.7625
 21
0.0
 31
0.0
  0
LINE
  5
6D
100
AcDbEntity
  8
0
100
AcDbLine
 10
4.7625
 20
0.0
 30
0.0
 11
23.175
 21
0.0
 31
0.0
  0
LINE
  5
6E
100
AcDbEntity
  8
0
100
AcDbLine
 10
0.0
 20
24.5
 30
0.0
 11
0.0
 21
4.7625
 31
0.0
  0
LINE
  5
6F
100
AcDbEntity
  8
0
100
AcDbLine
 10
0.0
 20
-4.7625
 30
0.0
 11
0.0
 21
-23.175
 31
0.0
  0
LINE
  5
70
100
AcDbEntity
  8
0
 62
     1
100
AcDbLine
 10
-6.0
 20
23.3
 30
0.0
 11
6.0
 21
23.3
 31
0.0
  0
LINE
  5
71
100
AcDbEntity
  8
0
 62
     1
100
AcDbLine
 10
-6.0
 20
23.3
 30
0.0
 11
-6.0
 21
19.07878
 31
0.0
  0
LINE
  5
72
100
AcDbEntity
  8
0
 62
     1
100
AcDbLine
 10
6.0
 20
23.3
 30
0.0
 11
6.0
 21
19.07878
 31
0.0
  0
ARC
  5
73
100
AcDbEntity
  8
0
 62
     1
100
AcDbCircle
 10
0.0
 20
0.0
 30
0.0
 40
20.0
100
AcDbArc
 50
107.457642
 51
72.542358
  0
ENDBLK
  5
74
100
AcDbEntity
  8
0
100
AcDbBlockEnd
  0
BLOCK
  5
76
100
AcDbEntity
  8
0
100
AcDbBlockBegin
  2
__45
 70
     0
 10
0.0
 20
0.0
 30
0.0
  3
__45
  1

  0
LINE
  5
77
100
AcDbEntity
  8
0
100
AcDbLine
 10
-3.175
 20
0.0
 30
0.0
 11
3.175
 21
0.0
 31
0.0
  0
LINE
  5
78
100
AcDbEntity
  8
0
100
AcDbLine
 10
0.0
 20
-3.175
 30
0.0
 11
0.0
 21
3.175
 31
0.0
  0
LINE
  5
79
100
AcDbEntity
  8
0
100
AcDbLine
 10
-25.675
 20
0.0
 30
0.0
 11
-4.7625
 21
0.0
 31
0.0
  0
LINE
  5
7A
100
AcDbEntity
  8
0
100
AcDbLine
 10
4.7625
 20
0.0
 30
0.0
 11
25.675
 21
0.0
 31
0.0
  0
LINE
  5
7B
100
AcDbEntity
  8
0
100
AcDbLine
 10
0.0
 20
28.2
 30
0.0
 11
0.0
 21
4.7625
 31
0.0
  0
LINE
  5
7C
100
AcDbEntity
  8
0
100
AcDbLine
 10
0.0
 20
-4.7625
 30
0.0
 11
0.0
 21
-25.675
 31
0.0
  0
LINE
  5
7D
100
AcDbEntity
  8
0
 62
     1
100
AcDbLine
 10
-7.0
 20
26.3
 30
0.0
 11
7.0
 21
26.3
 31
0.0
  0
LINE
  5
7E
100
AcDbEntity
  8
0
 62
     1
100
AcDbLine
 10
-7.0
 20
26.3
 30
0.0
 11
-7.0
 21
21.3834
 31
0.0
  0
LINE
  5
7F
100
AcDbEntity
  8
0
 62
     1
100
AcDbLine
 10
7.0
 20
26.3
 30
0.0
 11
7.0
 21
21.3834
 31
0.0
  0
ARC
  5
80
100
AcDbEntity
  8
0
 62
     1
100
AcDbCircle
 10
0.0
 20
0.0
 30
0.0
 40
22.5
100
AcDbArc
 50
108.126236
 51
71.873749
  0
ENDBLK
  5
81
100
AcDbEntity
  8
0
100
AcDbBlockEnd
  0
BLOCK
  5
83
100
AcDbEntity
  8
0
100
AcDbBlockBegin
  2
__50
 70
     0
 10
0.0
 20
0.0
 30
0.0
  3
__50
  1

  0
LINE
  5
84
100
AcDbEntity
  8
0
100
AcDbLine
 10
-3.175
 20
0.0
 30
0.0
 11
3.175
 21
0.0
 31
0.0
  0
LINE
  5
85
100
AcDbEntity
  8
0
100
AcDbLine
 10
0.0
 20
-3.175
 30
0.0
 11
0.0
 21
3.175
 31
0.0
  0
LINE
  5
86
100
AcDbEntity
  8
0
100
AcDbLine
 10
-28.175
 20
0.0
 30
0.0
 11
-4.7625
 21
0.0
 31
0.0
  0
LINE
  5
87
100
AcDbEntity
  8
0
100
AcDbLine
 10
4.7625
 20
0.0
 30
0.0
 11
28.175
 21
0.0
 31
0.0
  0
LINE
  5
88
100
AcDbEntity
  8
0
100
AcDbLine
 10
0.0
 20
31.05
 30
0.0
 11
0.0
 21
4.7625
 31
0.0
  0
LINE
  5
89
100
AcDbEntity
  8
0
100
AcDbLine
 10
0.0
 20
-4.7625
 30
0.0
 11
0.0
 21
-28.175
 31
0.0
  0
LINE
  5
8A
100
AcDbEntity
  8
0
 62
     1
100
AcDbLine
 10
-7.0
 20
28.8
 30
0.0
 11
7.0
 21
28.8
 31
0.0
  0
LINE
  5
8B
100
AcDbEntity
  8
0
 62
     1
100
AcDbLine
 10
-7.0
 20
28.8
 30
0.0
 11
-7.0
 21
23.99997
 31
0.0
  0
LINE
  5
8C
100
AcDbEntity
  8
0
 62
     1
100
AcDbLine
 10
7.0
 20
28.8
 30
0.0
 11
7.0
 21
23.99987
 31
0.0
  0
ARC
  5
8D
100
AcDbEntity
  8
0
 62
     1
100
AcDbCircle
 10
0.0
 20
0.0
 30
0.0
 40
25.0
100
AcDbArc
 50
106.260208
 51
73.739792
  0
ENDBLK
  5
8E
100
AcDbEntity
  8
0
100
AcDbBlockEnd
  0
BLOCK
  5
90
100
AcDbEntity
  8
0
100
AcDbBlockBegin
  2
__60
 70
     0
 10
0.0
 20
0.0
 30
0.0
  3
__60
  1

  0
LINE
  5
91
100
AcDbEntity
  8
0
100
AcDbLine
 10
-3.175
 20
0.0
 30
0.0
 11
3.175
 21
0.0
 31
0.0
  0
LINE
  5
92
100
AcDbEntity
  8
0
100
AcDbLine
 10
0.0
 20
-3.175
 30
0.0
 11
0.0
 21
3.175
 31
0.0
  0
LINE
  5
93
100
AcDbEntity
  8
0
100
AcDbLine
 10
-33.175
 20
0.0
 30
0.0
 11
-4.7625
 21
0.0
 31
0.0
  0
LINE
  5
94
100
AcDbEntity
  8
0
100
AcDbLine
 10
4.7625
 20
0.0
 30
0.0
 11
33.175
 21
0.0
 31
0.0
  0
LINE
  5
95
100
AcDbEntity
  8
0
100
AcDbLine
 10
0.0
 20
37.1
 30
0.0
 11
0.0
 21
4.7625
 31
0.0
  0
LINE
  5
96
100
AcDbEntity
  8
0
100
AcDbLine
 10
0.0
 20
-4.7625
 30
0.0
 11
0.0
 21
-33.175
 31
0.0
  0
LINE
  5
97
100
AcDbEntity
  8
0
 62
     1
100
AcDbLine
 10
-9.0
 20
34.4
 30
0.0
 11
9.0
 21
34.4
 31
0.0
  0
LINE
  5
98
100
AcDbEntity
  8
0
 62
     1
100
AcDbLine
 10
-9.0
 20
34.4
 30
0.0
 11
-9.0
 21
28.61822
 31
0.0
  0
LINE
  5
99
100
AcDbEntity
  8
0
 62
     1
100
AcDbLine
 10
9.0
 20
34.4
 30
0.0
 11
9.0
 21
28.61809
 31
0.0
  0
ARC
  5
9A
100
AcDbEntity
  8
0
 62
     1
100
AcDbCircle
 10
0.0
 20
0.0
 30
0.0
 40
30.0
100
AcDbArc
 50
107.457581
 51
72.542419
  0
ENDBLK
  5
9B
100
AcDbEntity
  8
0
100
AcDbBlockEnd
  0
BLOCK
  5
9D
100
AcDbEntity
  8
0
100
AcDbBlockBegin
  2
__1_
 70
     0
 10
0.0
 20
0.0
 30
0.0
  3
__1_
  1

  0
LINE
  5
9E
100
AcDbEntity
  8
0
100
AcDbLine
 10
-3.175
 20
0.0
 30
0.0
 11
3.175
 21
0.0
 31
0.0
  0
LINE
  5
9F
100
AcDbEntity
  8
0
100
AcDbLine
 10
0.0
 20
-3.175
 30
0.0
 11
0.0
 21
3.175
 31
0.0
  0
LINE
  5
A0
100
AcDbEntity
  8
0
100
AcDbLine
 10
-15.875
 20
0.0
 30
0.0
 11
-4.7625
 21
0.0
 31
0.0
  0
LINE
  5
A1
100
AcDbEntity
  8
0
100
AcDbLine
 10
4.7625
 20
0.0
 30
0.0
 11
15.875
 21
0.0
 31
0.0
  0
LINE
  5
A2
100
AcDbEntity
  8
0
100
AcDbLine
 10
0.0
 20
16.7
 30
0.0
 11
0.0
 21
4.7625
 31
0.0
  0
LINE
  5
A3
100
AcDbEntity
  8
0
100
AcDbLine
 10
0.0
 20
-4.7625
 30
0.0
 11
0.0
 21
-15.875
 31
0.0
  0
LINE
  5
A4
100
AcDbEntity
  8
0
 62
     1
100
AcDbLine
 10
-3.175
 20
15.59
 30
0.0
 11
3.175
 21
15.59
 31
0.0
  0
LINE
  5
A5
100
AcDbEntity
  8
0
 62
     1
100
AcDbLine
 10
-3.175
 20
15.59
 30
0.0
 11
-3.175
 21
12.29672
 31
0.0
  0
LINE
  5
A6
100
AcDbEntity
  8
0
 62
     1
100
AcDbLine
 10
3.175
 20
15.59
 30
0.0
 11
3.175
 21
12.29672
 31
0.0
  0
ARC
  5
A7
100
AcDbEntity
  8
0
 62
     1
100
AcDbCircle
 10
0.0
 20
0.0
 30
0.0
 40
12.7
100
AcDbArc
 50
104.477554
 51
75.522446
  0
ENDBLK
  5
A8
100
AcDbEntity
  8
0
100
AcDbBlockEnd
  0
BLOCK
  5
AA
100
AcDbEntity
  8
0
100
AcDbBlockBegin
  2
_1_1_2_
 70
     0
 10
0.0
 20
0.0
 30
0.0
  3
_1_1_2_
  1

  0
LINE
  5
AB
100
AcDbEntity
  8
0
100
AcDbLine
 10
-3.175
 20
0.0
 30
0.0
 11
3.175
 21
0.0
 31
0.0
  0
LINE
  5
AC
100
AcDbEntity
  8
0
100
AcDbLine
 10
0.0
 20
-3.175
 30
0.0
 11
0.0
 21
3.175
 31
0.0
  0
LINE
  5
AD
100
AcDbEntity
  8
0
100
AcDbLine
 10
-22.225
 20
0.0
 30
0.0
 11
-4.7625
 21
0.0
 31
0.0
  0
LINE
  5
AE
100
AcDbEntity
  8
0
100
AcDbLine
 10
4.7625
 20
0.0
 30
0.0
 11
22.225
 21
0.0
 31
0.0
  0
LINE
  5
AF
100
AcDbEntity
  8
0
100
AcDbLine
 10
0.0
 20
24.8
 30
0.0
 11
0.0
 21
4.7625
 31
0.0
  0
LINE
  5
B0
100
AcDbEntity
  8
0
100
AcDbLine
 10
0.0
 20
-4.7625
 30
0.0
 11
0.0
 21
-22.225
 31
0.0
  0
LINE
  5
B1
100
AcDbEntity
  8
0
 62
     1
100
AcDbLine
 10
-4.7625
 20
23.35
 30
0.0
 11
4.7625
 21
23.35
 31
0.0
  0
LINE
  5
B2
100
AcDbEntity
  8
0
 62
     1
100
AcDbLine
 10
-4.7625
 20
23.35
 30
0.0
 11
-4.7625
 21
18.44508
 31
0.0
  0
LINE
  5
B3
100
AcDbEntity
  8
0
 62
     1
100
AcDbLine
 10
4.7625
 20
23.35
 30
0.0
 11
4.7625
 21
18.44508
 31
0.0
  0
ARC
  5
B4
100
AcDbEntity
  8
0
 62
     1
100
AcDbCircle
 10
0.0
 20
0.0
 30
0.0
 40
19.05
100
AcDbArc
 50
104.477554
 51
75.522446
  0
ENDBLK
  5
B5
100
AcDbEntity
  8
0
100
AcDbBlockEnd
  0
BLOCK
  5
B7
100
AcDbEntity
  8
0
100
AcDbBlockBegin
  2
_1_3_4_
 70
     0
 10
0.0
 20
0.0
 30
0.0
  3
_1_3_4_
  1

  0
LINE
  5
B8
100
AcDbEntity
  8
0
100
AcDbLine
 10
-3.175
 20
0.0
 30
0.0
 11
3.175
 21
0.0
 31
0.0
  0
LINE
  5
B9
100
AcDbEntity
  8
0
100
AcDbLine
 10
0.0
 20
-3.175
 30
0.0
 11
0.0
 21
3.175
 31
0.0
  0
LINE
  5
BA
100
AcDbEntity
  8
0
100
AcDbLine
 10
-25.4
 20
0.0
 30
0.0
 11
-4.7625
 21
0.0
 31
0.0
  0
LINE
  5
BB
100
AcDbEntity
  8
0
100
AcDbLine
 10
4.7625
 20
0.0
 30
0.0
 11
25.4
 21
0.0
 31
0.0
  0
LINE
  5
BC
100
AcDbEntity
  8
0
100
AcDbLine
 10
0.0
 20
28.8
 30
0.0
 11
0.0
 21
4.7625
 31
0.0
  0
LINE
  5
BD
100
AcDbEntity
  8
0
100
AcDbLine
 10
0.0
 20
-4.7625
 30
0.0
 11
0.0
 21
-25.4
 31
0.0
  0
LINE
  5
BE
100
AcDbEntity
  8
0
 62
     1
100
AcDbLine
 10
-4.7625
 20
26.595
 30
0.0
 11
4.7625
 21
26.595
 31
0.0
  0
LINE
  5
BF
100
AcDbEntity
  8
0
 62
     1
100
AcDbLine
 10
-4.7625
 20
26.595
 30
0.0
 11
-4.7625
 21
21.70875
 31
0.0
  0
LINE
  5
C0
100
AcDbEntity
  8
0
 62
     1
100
AcDbLine
 10
4.7625
 20
26.595
 30
0.0
 11
4.7625
 21
21.70868
 31
0.0
  0
ARC
  5
C1
100
AcDbEntity
  8
0
 62
     1
100
AcDbCircle
 10
0.0
 20
0.0
 30
0.0
 40
22.225
100
AcDbArc
 50
102.373581
 51
77.626434
  0
ENDBLK
  5
C2
100
AcDbEntity
  8
0
100
AcDbBlockEnd
  0
BLOCK
  5
C4
100
AcDbEntity
  8
0
100
AcDbBlockBegin
  2
__2_
 70
     0
 10
0.0
 20
0.0
 30
0.0
  3
__2_
  1

  0
LINE
  5
C5
100
AcDbEntity
  8
0
100
AcDbLine
 10
-3.175
 20
0.0
 30
0.0
 11
3.175
 21
0.0
 31
0.0
  0
LINE
  5
C6
100
AcDbEntity
  8
0
100
AcDbLine
 10
0.0
 20
-3.175
 30
0.0
 11
0.0
 21
3.175
 31
0.0
  0
LINE
  5
C7
100
AcDbEntity
  8
0
100
AcDbLine
 10
-28.575
 20
0.0
 30
0.0
 11
-4.7625
 21
0.0
 31
0.0
  0
LINE
  5
C8
100
AcDbEntity
  8
0
100
AcDbLine
 10
4.7625
 20
0.0
 30
0.0
 11
28.575
 21
0.0
 31
0.0
  0
LINE
  5
C9
100
AcDbEntity
  8
0
100
AcDbLine
 10
0.0
 20
32.8
 30
0.0
 11
0.0
 21
4.7625
 31
0.0
  0
LINE
  5
CA
100
AcDbEntity
  8
0
100
AcDbLine
 10
0.0
 20
-4.7625
 30
0.0
 11
0.0
 21
-28.575
 31
0.0
  0
LINE
  5
CB
100
AcDbEntity
  8
0
 62
     1
100
AcDbLine
 10
-6.35
 20
31.06
 30
0.0
 11
6.35
 21
31.06
 31
0.0
  0
LINE
  5
CC
100
AcDbEntity
  8
0
 62
     1
100
AcDbLine
 10
-6.35
 20
31.06
 30
0.0
 11
-6.35
 21
24.59344
 31
0.0
  0
LINE
  5
CD
100
AcDbEntity
  8
0
 62
     1
100
AcDbLine
 10
6.35
 20
31.06
 30
0.0
 11
6.35
 21
24.59344
 31
0.0
  0
ARC
  5
CE
100
AcDbEntity
  8
0
 62
     1
100
AcDbCircle
 10
0.0
 20
0.0
 30
0.0
 40
25.4
100
AcDbArc
 50
104.477554
 51
75.522446
  0
ENDBLK
  5
CF
100
AcDbEntity
  8
0
100
AcDbBlockEnd
  0
BLOCK
  5
D1
100
AcDbEntity
  8
0
100
AcDbBlockBegin
  2
__1_1_4_
 70
     0
 10
0.0
 20
0.0
 30
0.0
  3
__1_1_4_
  1

  0
LINE
  5
D2
100
AcDbEntity
  8
0
100
AcDbLine
 10
-3.175
 20
0.0
 30
0.0
 11
3.175
 21
0.0
 31
0.0
  0
LINE
  5
D3
100
AcDbEntity
  8
0
100
AcDbLine
 10
0.0
 20
-3.175
 30
0.0
 11
0.0
 21
3.175
 31
0.0
  0
LINE
  5
D4
100
AcDbEntity
  8
0
100
AcDbLine
 10
-19.05
 20
0.0
 30
0.0
 11
-4.7625
 21
0.0
 31
0.0
  0
LINE
  5
D5
100
AcDbEntity
  8
0
100
AcDbLine
 10
4.7625
 20
0.0
 30
0.0
 11
19.05
 21
0.0
 31
0.0
  0
LINE
  5
D6
100
AcDbEntity
  8
0
100
AcDbLine
 10
0.0
 20
20.0
 30
0.0
 11
0.0
 21
4.7625
 31
0.0
  0
LINE
  5
D7
100
AcDbEntity
  8
0
100
AcDbLine
 10
0.0
 20
-4.7625
 30
0.0
 11
0.0
 21
-19.05
 31
0.0
  0
LINE
  5
D8
100
AcDbEntity
  8
0
 62
     1
100
AcDbLine
 10
-3.175
 20
18.845
 30
0.0
 11
3.175
 21
18.845
 31
0.0
  0
LINE
  5
D9
100
AcDbEntity
  8
0
 62
     1
100
AcDbLine
 10
-3.175
 20
18.845
 30
0.0
 11
-3.175
 21
15.55426
 31
0.0
  0
LINE
  5
DA
100
AcDbEntity
  8
0
 62
     1
100
AcDbLine
 10
3.175
 20
18.845
 30
0.0
 11
3.175
 21
15.55426
 31
0.0
  0
ARC
  5
DB
100
AcDbEntity
  8
0
 62
     1
100
AcDbCircle
 10
0.0
 20
0.0
 30
0.0
 40
15.875
100
AcDbArc
 50
101.536957
 51
78.463043
  0
ENDBLK
  5
DC
100
AcDbEntity
  8
0
100
AcDbBlockEnd
  0
ENDSEC
  0
SECTION
  2
ENTITIES
  0
CIRCLE
  5
DD
100
AcDbEntity
  8
LUCIDO-1
 62
     1
100
AcDbCircle
 10
-52.81247
 20
0.33807
 30
0.0
 40
30.0
  0
CIRCLE
  5
DE
100
AcDbEntity
  8
LUCIDO-1
 62
     1
100
AcDbCircle
 10
-52.81247
 20
0.33807
 30
0.0
 40
77.1
  0
ARC
  5
DF
100
AcDbEntity
  8
LUCIDO-1
  6
MCDASH9
100
AcDbCircle
 10
-52.81247
 20
79.39741
 30
0.0
 40
9.00934
100
AcDbArc
 50
195.769119
 51
344.230865
  0
ARC
  5
E0
100
AcDbEntity
  8
LUCIDO-1
  6
MCDASH9
100
AcDbCircle
 10
-72.47373
 20
76.91361
 30
0.0
 40
9.00934
100
AcDbArc
 50
210.169128
 51
358.630875
  0
ARC
  5
E1
100
AcDbEntity
  8
LUCIDO-1
  6
MCDASH9
100
AcDbCircle
 10
-90.8996
 20
69.61829
 30
0.0
 40
9.00934
100
AcDbArc
 50
224.569122
 51
13.030869
  0
ARC
  5
E2
100
AcDbEntity
  8
LUCIDO-1
  6
MCDASH9
100
AcDbCircle
 10
-106.93231
 20
57.96985
 30
0.0
 40
9.00934
100
AcDbArc
 50
238.969131
 51
27.430878
  0
ARC
  5
E3
100
AcDbEntity
  8
LUCIDO-1
  6
MCDASH9
100
AcDbCircle
 10
-119.56447
 20
42.70018
 30
0.0
 40
9.00934
100
AcDbArc
 50
253.369125
 51
41.830872
  0
ARC
  5
E4
100
AcDbEntity
  8
LUCIDO-1
  6
MCDASH9
100
AcDbCircle
 10
-128.00237
 20
24.76875
 30
0.0
 40
9.00934
100
AcDbArc
 50
267.769119
 51
56.230865
  0
ARC
  5
E5
100
AcDbEntity
  8
LUCIDO-1
  6
MCDASH9
100
AcDbCircle
 10
-131.7158
 20
5.30225
 30
0.0
 40
9.00934
100
AcDbArc
 50
282.169128
 51
70.630875
  0
ARC
  5
E6
100
AcDbEntity
  8
LUCIDO-1
  6
MCDASH9
100
AcDbCircle
 10
-130.47145
 20
-14.47617
 30
0.0
 40
9.00934
100
AcDbArc
 50
296.569122
 51
85.030869
  0
ARC
  5
E7
100
AcDbEntity
  8
LUCIDO-1
  6
MCDASH9
100
AcDbCircle
 10
-124.3475
 20
-33.32376
 30
0.0
 40
9.00934
100
AcDbArc
 50
310.969131
 51
99.430878
  0
ARC
  5
E8
100
AcDbEntity
  8
LUCIDO-1
  6
MCDASH9
100
AcDbCircle
 10
-113.72874
 20
-50.05625
 30
0.0
 40
9.00934
100
AcDbArc
 50
325.369125
 51
113.830872
  0
ARC
  5
E9
100
AcDbEntity
  8
LUCIDO-1
  6
MCDASH9
100
AcDbCircle
 10
-99.28238
 20
-63.62228
 30
0.0
 40
9.00934
100
AcDbArc
 50
339.769119
 51
128.230865
  0
ARC
  5
EA
100
AcDbEntity
  8
LUCIDO-1
  6
MCDASH9
100
AcDbCircle
 10
-81.91615
 20
-73.16944
 30
0.0
 40
9.00934
100
AcDbArc
 50
354.169128
 51
142.630875
  0
ARC
  5
EB
100
AcDbEntity
  8
LUCIDO-1
  6
MCDASH9
100
AcDbCircle
 10
-62.72123
 20
-78.09786
 30
0.0
 40
9.00934
100
AcDbArc
 50
8.569122
 51
157.030869
  0
ARC
  5
EC
100
AcDbEntity
  8
LUCIDO-1
  6
MCDASH9
100
AcDbCircle
 10
-42.90371
 20
-78.09786
 30
0.0
 40
9.00934
100
AcDbArc
 50
22.969131
 51
171.430878
  0
ARC
  5
ED
100
AcDbEntity
  8
LUCIDO-1
  6
MCDASH9
100
AcDbCircle
 10
-23.70879
 20
-73.16944
 30
0.0
 40
9.00934
100
AcDbArc
 50
37.369125
 51
185.830872
  0
ARC
  5
EE
100
AcDbEntity
  8
LUCIDO-1
  6
MCDASH9
100
AcDbCircle
 10
-6.34256
 20
-63.62228
 30
0.0
 40
9.00934
100
AcDbArc
 50
51.769119
 51
200.230865
  0
ARC
  5
EF
100
AcDbEntity
  8
LUCIDO-1
  6
MCDASH9
100
AcDbCircle
 10
8.1038
 20
-50.05625
 30
0.0
 40
9.00934
100
AcDbArc
 50
66.169128
 51
214.630875
  0
ARC
  5
F0
100
AcDbEntity
  8
LUCIDO-1
  6
MCDASH9
100
AcDbCircle
 10
18.72256
 20
-33.32376
 30
0.0
 40
9.00934
100
AcDbArc
 50
80.569122
 51
229.030869
  0
ARC
  5
F1
100
AcDbEntity
  8
LUCIDO-1
  6
MCDASH9
100
AcDbCircle
 10
24.84651
 20
-14.47617
 30
0.0
 40
9.00934
100
AcDbArc
 50
94.969131
 51
243.430878
  0
ARC
  5
F2
100
AcDbEntity
  8
LUCIDO-1
  6
MCDASH9
100
AcDbCircle
 10
26.09086
 20
5.30225
 30
0.0
 40
9.00934
100
AcDbArc
 50
109.369125
 51
257.830872
  0
ARC
  5
F3
100
AcDbEntity
  8
LUCIDO-1
  6
MCDASH9
100
AcDbCircle
 10
22.37743
 20
24.76875
 30
0.0
 40
9.00934
100
AcDbArc
 50
123.769119
 51
272.230865
  0
ARC
  5
F4
100
AcDbEntity
  8
LUCIDO-1
  6
MCDASH9
100
AcDbCircle
 10
13.93953
 20
42.70018
 30
0.0
 40
9.00934
100
AcDbArc
 50
138.169128
 51
286.630875
  0
ARC
  5
F5
100
AcDbEntity
  8
LUCIDO-1
  6
MCDASH9
100
AcDbCircle
 10
1.30737
 20
57.96985
 30
0.0
 40
9.00934
100
AcDbArc
 50
152.569122
 51
301.030869
  0
ARC
  5
F6
100
AcDbEntity
  8
LUCIDO-1
  6
MCDASH9
100
AcDbCircle
 10
-14.72534
 20
69.61829
 30
0.0
 40
9.00934
100
AcDbArc
 50
166.969131
 51
315.430878
  0
ARC
  5
F7
100
AcDbEntity
  8
LUCIDO-1
  6
MCDASH9
100
AcDbCircle
 10
-33.15121
 20
76.91361
 30
0.0
 40
9.00934
100
AcDbArc
 50
181.369125
 51
329.830872
  0
CIRCLE
  5
F8
100
AcDbEntity
  8
LUCIDO-1
 62
     1
100
AcDbCircle
 10
-52.81247
 20
0.33807
 30
0.0
 40
66.05
  0
LINE
  5
F9
100
AcDbEntity
  8
LUCIDO-1
 62
     6
100
AcDbLine
 10
-55.98747
 20
0.33807
 30
0.0
 11
-49.63747
 21
0.33807
 31
0.0
  0
LINE
  5
FA
100
AcDbEntity
  8
LUCIDO-1
 62
     6
100
AcDbLine
 10
-52.81247
 20
-2.83693
 30
0.0
 11
-52.81247
 21
3.51307
 31
0.0
  0
LINE
  5
FB
100
AcDbEntity
  8
LUCIDO-1
 62
     6
100
AcDbLine
 10
-75.98747
 20
0.33807
 30
0.0
 11
-57.57497
 21
0.33807
 31
0.0
  0
LINE
  5
FC
100
AcDbEntity
  8
LUCIDO-1
 62
     6
100
AcDbLine
 10
-48.04997
 20
0.33807
 30
0.0
 11
-29.63747
 21
0.33807
 31
0.0
  0
LINE
  5
FD
100
AcDbEntity
  8
LUCIDO-1
 62
     6
100
AcDbLine
 10
-52.81247
 20
24.83807
 30
0.0
 11
-52.81247
 21
5.10057
 31
0.0
  0
LINE
  5
FE
100
AcDbEntity
  8
LUCIDO-1
 62
     6
100
AcDbLine
 10
-52.81247
 20
-4.42443
 30
0.0
 11
-52.81247
 21
-22.83693
 31
0.0
  0
LINE
  5
FF
100
AcDbEntity
  8
LUCIDO-1
 62
     1
100
AcDbLine
 10
-58.81247
 20
23.63807
 30
0.0
 11
-46.81247
 21
23.63807
 31
0.0
  0
LINE
  5
100
100
AcDbEntity
  8
LUCIDO-1
 62
     1
100
AcDbLine
 10
-58.81247
 20
23.63807
 30
0.0
 11
-58.81247
 21
19.41685
 31
0.0
  0
LINE
  5
101
100
AcDbEntity
  8
LUCIDO-1
 62
     1
100
AcDbLine
 10
-46.81247
 20
23.63807
 30
0.0
 11
-46.81247
 21
19.41685
 31
0.0
  0
ARC
  5
102
100
AcDbEntity
  8
LUCIDO-1
 62
     1
100
AcDbCircle
 10
-52.81247
 20
0.33807
 30
0.0
 40
20.0
100
AcDbArc
 50
107.457642
 51
72.542358
  0
LINE
  5
103
100
AcDbEntity
  8
LUCIDO-1
 62
     1
100
AcDbLine
 10
75.18753
 20
-74.5821
 30
0.0
 11
119.18753
 21
-74.5821
 31
0.0
  0
LINE
  5
104
100
AcDbEntity
  8
LUCIDO-1
 62
     1
100
AcDbLine
 10
75.18753
 20
-74.08472
 30
0.0
 11
119.18753
 21
-74.08472
 31
0.0
  0
LINE
  5
105
100
AcDbEntity
  8
LUCIDO-1
 62
     1
100
AcDbLine
 10
75.18753
 20
-67.70125
 30
0.0
 11
119.18753
 21
-67.70125
 31
0.0
  0
LINE
  5
106
100
AcDbEntity
  8
LUCIDO-1
 62
     1
100
AcDbLine
 10
75.18753
 20
-66.73774
 30
0.0
 11
119.18753
 21
-66.73774
 31
0.0
  0
LINE
  5
107
100
AcDbEntity
  8
LUCIDO-1
 62
     1
100
AcDbLine
 10
75.18753
 20
-56.54523
 30
0.0
 11
119.18753
 21
-56.54523
 31
0.0
  0
LINE
  5
108
100
AcDbEntity
  8
LUCIDO-1
 62
     1
100
AcDbLine
 10
75.18753
 20
-55.17614
 30
0.0
 11
119.18753
 21
-55.17614
 31
0.0
  0
LINE
  5
109
100
AcDbEntity
  8
LUCIDO-1
 62
     1
100
AcDbLine
 10
75.18753
 20
-41.81503
 30
0.0
 11
119.18753
 21
-41.81503
 31
0.0
  0
LINE
  5
10A
100
AcDbEntity
  8
LUCIDO-1
 62
     1
100
AcDbLine
 10
75.18753
 20
-40.12637
 30
0.0
 11
119.18753
 21
-40.12637
 31
0.0
  0
LINE
  5
10B
100
AcDbEntity
  8
LUCIDO-1
 62
     1
100
AcDbLine
 10
75.18753
 20
-24.43619
 30
0.0
 11
119.18753
 21
-24.43619
 31
0.0
  0
LINE
  5
10C
100
AcDbEntity
  8
LUCIDO-1
 62
     1
100
AcDbLine
 10
75.18753
 20
-22.53408
 30
0.0
 11
119.18753
 21
-22.53408
 31
0.0
  0
LINE
  5
10D
100
AcDbEntity
  8
LUCIDO-1
 62
     1
100
AcDbLine
 10
75.18753
 20
-5.5007
 30
0.0
 11
119.18753
 21
-5.5007
 31
0.0
  0
LINE
  5
10E
100
AcDbEntity
  8
LUCIDO-1
 62
     1
100
AcDbLine
 10
75.18753
 20
-3.50465
 30
0.0
 11
119.18753
 21
-3.50465
 31
0.0
  0
LINE
  5
10F
100
AcDbEntity
  8
LUCIDO-1
 62
     1
100
AcDbLine
 10
75.18753
 20
13.80167
 30
0.0
 11
119.18753
 21
13.80167
 31
0.0
  0
LINE
  5
110
100
AcDbEntity
  8
LUCIDO-1
 62
     1
100
AcDbLine
 10
75.18753
 20
15.76624
 30
0.0
 11
119.18753
 21
15.76624
 31
0.0
  0
LINE
  5
111
100
AcDbEntity
  8
LUCIDO-1
 62
     1
100
AcDbLine
 10
75.18753
 20
32.25807
 30
0.0
 11
119.18753
 21
32.25807
 31
0.0
  0
LINE
  5
112
100
AcDbEntity
  8
LUCIDO-1
 62
     1
100
AcDbLine
 10
75.18753
 20
34.06772
 30
0.0
 11
119.18753
 21
34.06772
 31
0.0
  0
LINE
  5
113
100
AcDbEntity
  8
LUCIDO-1
 62
     1
100
AcDbLine
 10
75.18753
 20
48.70881
 30
0.0
 11
119.18753
 21
48.70881
 31
0.0
  0
LINE
  5
114
100
AcDbEntity
  8
LUCIDO-1
 62
     1
100
AcDbLine
 10
75.18753
 20
50.24984
 30
0.0
 11
119.18753
 21
50.24984
 31
0.0
  0
LINE
  5
115
100
AcDbEntity
  8
LUCIDO-1
 62
     1
100
AcDbLine
 10
75.18753
 20
62.12025
 30
0.0
 11
119.18753
 21
62.12025
 31
0.0
  0
LINE
  5
116
100
AcDbEntity
  8
LUCIDO-1
 62
     1
100
AcDbLine
 10
75.18753
 20
63.29582
 30
0.0
 11
119.18753
 21
63.29582
 31
0.0
  0
LINE
  5
117
100
AcDbEntity
  8
LUCIDO-1
 62
     1
100
AcDbLine
 10
75.18753
 20
71.64968
 30
0.0
 11
119.18753
 21
71.64968
 31
0.0
  0
LINE
  5
118
100
AcDbEntity
  8
LUCIDO-1
 62
     1
100
AcDbLine
 10
75.18753
 20
72.38593
 30
0.0
 11
119.18753
 21
72.38593
 31
0.0
  0
LINE
  5
119
100
AcDbEntity
  8
LUCIDO-1
 62
     1
100
AcDbLine
 10
75.18753
 20
76.69835
 30
0.0
 11
119.18753
 21
76.69835
 31
0.0
  0
LINE
  5
11A
100
AcDbEntity
  8
LUCIDO-1
 62
     1
100
AcDbLine
 10
75.18753
 20
76.94901
 30
0.0
 11
119.18753
 21
76.94901
 31
0.0
  0
LINE
  5
11B
100
AcDbEntity
  8
LUCIDO-1
 62
     1
100
AcDbLine
 10
97.18753
 20
77.43807
 30
0.0
 11
122.18753
 21
77.43807
 31
0.0
  0
LINE
  5
11C
100
AcDbEntity
  8
LUCIDO-1
 62
     1
100
AcDbLine
 10
97.18753
 20
-76.76193
 30
0.0
 11
122.18753
 21
-76.76193
 31
0.0
  0
LINE
  5
11D
100
AcDbEntity
  8
LUCIDO-1
 62
     1
100
AcDbLine
 10
122.18753
 20
30.33807
 30
0.0
 11
130.18753
 21
30.33807
 31
0.0
  0
LINE
  5
11E
100
AcDbEntity
  8
LUCIDO-1
 62
     1
100
AcDbLine
 10
122.18753
 20
-29.66193
 30
0.0
 11
130.18753
 21
-29.66193
 31
0.0
  0
LINE
  5
11F
100
AcDbEntity
  8
LUCIDO-1
 62
     1
100
AcDbLine
 10
64.18753
 20
-29.66193
 30
0.0
 11
72.18753
 21
-29.66193
 31
0.0
  0
LINE
  5
120
100
AcDbEntity
  8
LUCIDO-1
 62
     1
100
AcDbLine
 10
72.18753
 20
77.43807
 30
0.0
 11
72.18753
 21
-76.76193
 31
0.0
  0
LINE
  5
121
100
AcDbEntity
  8
LUCIDO-1
 62
     1
100
AcDbLine
 10
122.18753
 20
77.43807
 30
0.0
 11
122.18753
 21
-76.76193
 31
0.0
  0
LINE
  5
122
100
AcDbEntity
  8
LUCIDO-1
 62
     1
100
AcDbLine
 10
75.18753
 20
77.43807
 30
0.0
 11
75.18753
 21
-76.76193
 31
0.0
  0
LINE
  5
123
100
AcDbEntity
  8
LUCIDO-1
 62
     1
100
AcDbLine
 10
119.18753
 20
77.43807
 30
0.0
 11
119.18753
 21
-76.76193
 31
0.0
  0
LINE
  5
124
100
AcDbEntity
  8
LUCIDO-1
 62
     1
100
AcDbLine
 10
97.18753
 20
77.43807
 30
0.0
 11
97.18753
 21
-76.76193
 31
0.0
  0
LINE
  5
125
100
AcDbEntity
  8
LUCIDO-1
 62
     1
100
AcDbLine
 10
64.18753
 20
-29.66193
 30
0.0
 11
64.18753
 21
30.33807
 31
0.0
  0
LINE
  5
126
100
AcDbEntity
  8
LUCIDO-1
 62
     1
100
AcDbLine
 10
72.18753
 20
77.43807
 30
0.0
 11
97.18753
 21
77.43807
 31
0.0
  0
LINE
  5
127
100
AcDbEntity
  8
LUCIDO-1
 62
     1
100
AcDbLine
 10
130.18753
 20
-29.66193
 30
0.0
 11
130.18753
 21
30.33807
 31
0.0
  0
LINE
  5
128
100
AcDbEntity
  8
LUCIDO-1
 62
     1
100
AcDbLine
 10
72.18753
 20
-76.76193
 30
0.0
 11
97.18753
 21
-76.76193
 31
0.0
  0
LINE
  5
129
100
AcDbEntity
  8
LUCIDO-1
 62
     1
100
AcDbLine
 10
64.18753
 20
30.33807
 30
0.0
 11
72.18753
 21
30.33807
 31
0.0
  0
ENDSEC
  0
SECTION
  2
OBJECTS
  0
DICTIONARY
  5
C
100
AcDbDictionary
  3
ACAD_GROUP
350
D
  3
ACAD_MLINESTYLE
350
1B
  0
DICTIONARY
  5
D
102
{ACAD_REACTORS
330
C
102
}
100
AcDbDictionary
  0
DICTIONARY
  5
1B
102
{ACAD_REACTORS
330
C
102
}
100
AcDbDictionary
  3
STANDARD
350
1C
  0
MLINESTYLE
  5
1C
102
{ACAD_REACTORS
330
1B
102
}
100
AcDbMlineStyle
  2
STANDARD
 70
     0
  3

 62
   256
 51
90.0
 52
90.0
 71
     2
 49
0.5
 62
   256
  6
BYLAYER
 49
-0.5
 62
   256
  6
BYLAYER
  0
ENDSEC
  0
EOF
