999
DXF file: l0820-668461.dxf
999
Pro/ENGINEER 2005310 by Parametric Technology Corporation
0
SECTION
2
HEADER
9
$ACADVER
1
AC1015
9
$DWGCODEPAGE
3
ANSI_1252
9
$EXTMAX
10
420.0000000000
20
297.0000000000
30
0.0000000000
9
$EXTMIN
10
0.0000000000
20
0.0000000000
30
0.0000000000
9
$LIMMIN
10
0.0000000000
20
0.0000000000
9
$LIMMAX
10
420.0000000000
20
297.0000000000
9
$VIEWCTR
10
210.0000000000
20
148.5000000000
9
$VIEWSIZE
40
297.0000000000
9
$CLAYER
8
0
9
$LTSCALE
40
23.1000000000
9
$CELTYPE
6
BYLAYER
9
$DIMSCALE
40
1
9
$DIMASZ
40
3.5000000000
9
$DIMEXO
40
2.6250000000
9
$DIMDLI
40
15.9600000000
9
$DIMEXE
40
7.5600000000
9
$DIMCEN
40
3.7800000000
9
$DIMLFAC
40
1.0000000000
9
$DIMBLK
1
_FILLED
9
$DIMTXT
40
3.5000000000
9
$DIMTOL
70
1
9
$DIMLIM
70
0
9
$DIMTFAC
40
1.0000000000
9
$DIMTP
40
0.0010000000
9
$DIMTM
40
0.0010000000
9
$PDMODE
70
3
9
$PDSIZE
40
0.3125000000
9
$HANDSEED
5
2F8
9
$MEASUREMENT
70
1
9
$INSUNITS
70
4
0
ENDSEC
0
SECTION
2
CLASSES
0
CLASS
1
ACDBDICTIONARYWDFLT
2
AcDbDictionaryWithDefault
3
AutoCAD 2000
90
0
280
0
281
0
0
CLASS
1
ACDBPLACEHOLDER
2
AcDbPlaceHolder
3
AutoCAD 2000
90
0
280
0
281
0
0
CLASS
1
LAYOUT
2
AcDbLayout
3
AutoCAD 2000
90
0
280
0
281
0
0
ENDSEC
0
SECTION
2
TABLES
0
TABLE
2
VPORT
5
8
100
AcDbSymbolTable
70
2
0
VPORT
5
1F4
100
AcDbSymbolTableRecord
100
AcDbViewportTableRecord
2
*ACTIVE
70
0
10
0.0
20
0.0
11
1.0
21
1.0
12
210.0000000000
22
148.5000000000
13
0.0
23
0.0
14
1.0
24
1.0
15
0.0
25
0.0
16
0.0
26
0.0
36
1.0
17
0.0
27
0.0
37
0.0
40
297.0000000000
41
1.4141414141
42
50.0
43
0.0
44
0.0
50
0.0
51
0.0
71
0
72
100
73
1
74
1
75
0
76
0
77
0
78
0
0
ENDTAB
0
TABLE
2
LTYPE
5
5
100
AcDbSymbolTable
70
6
0
LTYPE
5
14
100
AcDbSymbolTableRecord
100
AcDbLinetypeTableRecord
2
BYBLOCK
70
0
3

72
65
73
0
40
0.0
0
LTYPE
5
15
100
AcDbSymbolTableRecord
100
AcDbLinetypeTableRecord
2
BYLAYER
70
0
3

72
65
73
0
40
0.0
0
LTYPE
5
16
100
AcDbSymbolTableRecord
100
AcDbLinetypeTableRecord
2
CONTINUOUS
70
64
3
Solid line
72
65
73
0
40
0
0
LTYPE
5
1F5
100
AcDbSymbolTableRecord
100
AcDbLinetypeTableRecord
2
CENTER
70
64
3
____ _ ____ _ ____ _ ____ _ ____ _ ____ _ ____
72
65
73
4
40
0.6
49
0.375
74
0
49
-0.075
74
0
49
0.075
74
0
49
-0.075
74
0
0
LTYPE
5
1F6
100
AcDbSymbolTableRecord
100
AcDbLinetypeTableRecord
2
HIDDEN
70
64
3
- - - - - - - - - - - - - - - - - - - -
72
65
73
2
40
0.2
49
0.1
74
0
49
-0.1
74
0
0
LTYPE
5
1F7
100
AcDbSymbolTableRecord
100
AcDbLinetypeTableRecord
2
PHANTOM
70
64
3
_____ _ _ _____ _ _ _____ _ _ _____
72
65
73
6
40
0.8
49
0.45
74
0
49
-0.05
74
0
49
0.1
74
0
49
-0.05
74
0
49
0.1
74
0
49
-0.05
74
0
0
LTYPE
5
1F8
100
AcDbSymbolTableRecord
100
AcDbLinetypeTableRecord
2
DOT
70
64
3
. . . . . . . . . . . . . . . . . . . .
72
65
73
2
40
0.2
49
0.1
74
0
49
-0.1
74
0
0
LTYPE
5
1F9
100
AcDbSymbolTableRecord
100
AcDbLinetypeTableRecord
2
DASHED
70
64
3
- - - - - - - - - - - - - - - - - - - -
72
65
73
2
40
0.2
49
0.1
74
0
49
-0.1
74
0
0
ENDTAB
0
TABLE
2
LAYER
5
2
100
AcDbSymbolTable
70
36
0
LAYER
5
10
100
AcDbSymbolTableRecord
100
AcDbLayerTableRecord
2
0
70
0
62
7
6
CONTINUOUS
370
-3
390
F
0
LAYER
5
1FA
100
AcDbSymbolTableRecord
100
AcDbLayerTableRecord
2
DEFAULT_1
70
0
62
7
6
CENTER
370
-3
390
F
0
LAYER
5
1FB
100
AcDbSymbolTableRecord
100
AcDbLayerTableRecord
2
DEFAULT_2
70
0
62
8
6
HIDDEN
370
-3
390
F
0
LAYER
5
1FC
100
AcDbSymbolTableRecord
100
AcDbLayerTableRecord
2
DEFAULT_3
70
0
62
7
6
PHANTOM
370
-3
390
F
0
LAYER
5
1FD
100
AcDbSymbolTableRecord
100
AcDbLayerTableRecord
2
_2D_DELETED_OBJS
70
0
62
7
6
CONTINUOUS
370
-3
390
F
0
LAYER
5
1FE
100
AcDbSymbolTableRecord
100
AcDbLayerTableRecord
2
ASSI
70
0
62
7
6
CONTINUOUS
370
-3
390
F
0
LAYER
5
1FF
100
AcDbSymbolTableRecord
100
AcDbLayerTableRecord
2
PIANI
70
0
62
7
6
CONTINUOUS
370
-3
390
F
0
LAYER
5
200
100
AcDbSymbolTableRecord
100
AcDbLayerTableRecord
2
PUNTI
70
0
62
7
6
CONTINUOUS
370
-3
390
F
0
ENDTAB
0
TABLE
2
STYLE
5
3
100
AcDbSymbolTable
70
1
0
STYLE
5
11
100
AcDbSymbolTableRecord
100
AcDbTextStyleTableRecord
2
STANDARD
70
0
40
0.0
41
0.7143000000
50
0.0
71
0
42
0.2
3
txt
4

0
ENDTAB
0
TABLE
2
VIEW
5
6
100
AcDbSymbolTable
70
0
0
ENDTAB
0
TABLE
2
UCS
5
7
100
AcDbSymbolTable
70
0
0
ENDTAB
0
TABLE
2
APPID
5
9
100
AcDbSymbolTable
70
1
0
APPID
5
201
100
AcDbSymbolTableRecord
100
AcDbRegAppTableRecord
2
ACAD
70
0
0
ENDTAB
0
TABLE
2
BLOCK_RECORD
5
1
100
AcDbSymbolTable
70
0
0
BLOCK_RECORD
5
1F
100
AcDbSymbolTableRecord
100
AcDbBlockTableRecord
2
*MODEL_SPACE
0
BLOCK_RECORD
5
1B
100
AcDbSymbolTableRecord
100
AcDbBlockTableRecord
2
*PAPER_SPACE
0
ENDTAB
0
TABLE
2
DIMSTYLE
5
A
100
AcDbSymbolTable
70
1
100
AcDbDimStyleTable
71
0
0
DIMSTYLE
105
202
100
AcDbSymbolTableRecord
100
AcDbDimStyleTableRecord
2
STANDARD
70
0
3

4

40
1.0
41
3.5000000000
42
0.0625
43
0.38
44
0.18
45
0.0
46
0.0
47
0.0010000000
48
0.0010000000
140
3.5000000000
141
0.09
142
0.0
143
25.4
144
1.0000000000
145
0.0
146
1.0000000000
147
0.09
71
1
72
0
73
0
74
0
75
0
76
0
77
1
78
8
170
0
171
2
172
0
173
0
174
0
175
0
176
0
177
0
178
0
270
2
271
3
272
3
273
2
274
2
275
0
280
0
281
0
282
0
283
1
284
8
285
0
286
0
287
3
288
0
340
11
0
ENDTAB
0
ENDSEC
0
SECTION
2
BLOCKS
0
BLOCK
5
20
100
AcDbEntity
8
0
100
AcDbBlockBegin
2
*MODEL_SPACE
70
0
10
0.0
20
0.0
30
0.0
3
*MODEL_SPACE
1

0
ENDBLK
5
21
100
AcDbEntity
8
0
100
AcDbBlockEnd
0
BLOCK
5
1C
100
AcDbEntity
8
0
100
AcDbBlockBegin
2
*PAPER_SPACE
70
0
10
0.0
20
0.0
30
0.0
3
*PAPER_SPACE
1

0
ENDBLK
5
1D
100
AcDbEntity
8
0
100
AcDbBlockEnd
0
ENDSEC
0
SECTION
2
ENTITIES
0
MTEXT
5
203
100
AcDbEntity
8
0
100
AcDbMText
62
2
6
CONTINUOUS
7
STANDARD
71
1
72
1
10
81.8414540507
20
30.0997267114
30
0.0000000000
11
1.0000000000
21
0.0000000000
31
0.0000000000
1
SEZIONE A-A
40
3.5000000000
41
27.5005500000
0
LINE
5
204
100
AcDbEntity
8
0
100
AcDbLine
62
7
6
CONTINUOUS
10
92.4932307004
20
164.1134700515
11
100.4932307004
21
164.1134700515
0
LINE
5
205
100
AcDbEntity
8
0
100
AcDbLine
62
7
6
CONTINUOUS
10
92.4932307004
20
178.1188968725
11
100.4932307004
21
178.1188968725
0
LINE
5
206
100
AcDbEntity
8
0
100
AcDbLine
62
7
6
CONTINUOUS
10
92.4932307004
20
182.8655069773
11
100.4932307004
21
182.8655069773
0
LINE
5
207
100
AcDbEntity
8
0
100
AcDbLine
62
7
6
CONTINUOUS
10
92.4932307004
20
182.8861266128
11
100.4932307004
21
182.8861266128
0
LINE
5
208
100
AcDbEntity
8
0
100
AcDbLine
62
7
6
CONTINUOUS
10
92.4932307004
20
221.8439006471
11
92.4932307004
21
221.4287760977
0
LINE
5
209
100
AcDbEntity
8
0
100
AcDbLine
62
7
6
CONTINUOUS
10
92.4932307004
20
183.3012511622
11
92.4932307004
21
182.8861266128
0
LINE
5
20A
100
AcDbEntity
8
0
100
AcDbLine
62
7
6
CONTINUOUS
10
92.4932307004
20
159.0493120888
11
92.4932307004
21
182.8655069773
0
LINE
5
20B
100
AcDbEntity
8
0
100
AcDbLine
62
7
6
CONTINUOUS
10
92.4932307004
20
221.8645202826
11
92.4932307004
21
245.6807151711
0
LINE
5
20C
100
AcDbEntity
8
0
100
AcDbLine
62
7
6
CONTINUOUS
10
96.4932307004
20
221.8439006471
11
96.4932307004
21
217.3650136299
0
LINE
5
20D
100
AcDbEntity
8
DEFAULT_1
100
AcDbLine
62
2
6
CENTER
10
96.4932307004
20
202.3650136299
11
96.4932307004
21
187.3650136299
0
LINE
5
20E
100
AcDbEntity
8
DEFAULT_1
100
AcDbLine
62
2
6
CENTER
10
96.4932307004
20
182.8861266128
11
96.4932307004
21
182.8655069773
0
LINE
5
20F
100
AcDbEntity
8
DEFAULT_1
100
AcDbLine
62
2
6
CENTER
10
96.4932307004
20
137.8650136299
11
96.4932307004
21
133.3944552543
0
LINE
5
210
100
AcDbEntity
8
0
100
AcDbLine
62
7
6
CONTINUOUS
10
96.4932307004
20
137.8650136299
11
96.4932307004
21
182.8655069773
0
LINE
5
211
100
AcDbEntity
8
0
100
AcDbLine
62
7
6
CONTINUOUS
10
96.4932307004
20
182.8861266128
11
96.4932307004
21
187.3650136299
0
LINE
5
212
100
AcDbEntity
8
0
100
AcDbLine
62
7
6
CONTINUOUS
10
96.4932307004
20
221.8645202826
11
96.4932307004
21
266.8650136299
0
LINE
5
213
100
AcDbEntity
8
DEFAULT_1
100
AcDbLine
62
2
6
CENTER
10
96.4932307004
20
202.3650136299
11
96.4932307004
21
217.3650136299
0
LINE
5
214
100
AcDbEntity
8
DEFAULT_1
100
AcDbLine
62
2
6
CENTER
10
96.4932307004
20
221.8439006471
11
96.4932307004
21
221.8645202826
0
LINE
5
215
100
AcDbEntity
8
DEFAULT_1
100
AcDbLine
62
2
6
CENTER
10
96.4932307004
20
266.8650136299
11
96.4932307004
21
272.4076532238
0
LINE
5
216
100
AcDbEntity
8
DEFAULT_1
100
AcDbLine
62
2
6
CENTER
10
96.4932307004
20
202.3650136299
11
21.4475454212
21
202.3650136299
0
LINE
5
217
100
AcDbEntity
8
DEFAULT_1
100
AcDbLine
62
2
6
CENTER
10
96.4932307004
20
202.3650136299
11
171.8962763857
21
202.3650136299
0
LINE
5
218
100
AcDbEntity
8
0
100
AcDbLine
62
7
6
CONTINUOUS
10
100.4932307004
20
245.6807151711
11
100.4932307004
21
221.8645202826
0
LINE
5
219
100
AcDbEntity
8
0
100
AcDbLine
62
7
6
CONTINUOUS
10
100.4932307004
20
159.0493120888
11
100.4932307004
21
182.8655069773
0
LINE
5
21A
100
AcDbEntity
8
0
100
AcDbLine
62
7
6
CONTINUOUS
10
100.4932307004
20
182.8861266128
11
100.4932307004
21
183.3012511622
0
LINE
5
21B
100
AcDbEntity
8
0
100
AcDbLine
62
7
6
CONTINUOUS
10
100.4932307004
20
221.4287760977
11
100.4932307004
21
221.8439006471
0
LINE
5
21C
100
AcDbEntity
8
0
100
AcDbLine
62
7
6
CONTINUOUS
10
92.4932307004
20
221.8439006471
11
100.4932307004
21
221.8439006471
0
LINE
5
21D
100
AcDbEntity
8
0
100
AcDbLine
62
7
6
CONTINUOUS
10
92.4932307004
20
221.8645202826
11
100.4932307004
21
221.8645202826
0
LINE
5
21E
100
AcDbEntity
8
0
100
AcDbLine
62
7
6
CONTINUOUS
10
92.4932307004
20
226.6111303874
11
100.4932307004
21
226.6111303874
0
LINE
5
21F
100
AcDbEntity
8
0
100
AcDbLine
62
7
6
CONTINUOUS
10
92.4932307004
20
240.6165572084
11
100.4932307004
21
240.6165572084
0
LINE
5
220
100
AcDbEntity
8
0
100
AcDbLine
62
7
6
CONTINUOUS
10
31.9932307004
20
93.3577723966
11
31.9932307004
21
88.4177627713
0
LINE
5
221
100
AcDbEntity
8
0
100
AcDbLine
62
7
6
CONTINUOUS
10
31.9932307004
20
43.2977820220
11
31.9932307004
21
38.3577723966
0
LINE
5
222
100
AcDbEntity
8
0
100
AcDbLine
62
2
6
CONTINUOUS
10
33.3711689807
20
37.3577723966
11
31.9932307004
21
38.7357106769
0
LINE
5
223
100
AcDbEntity
8
0
100
AcDbLine
62
2
6
CONTINUOUS
10
36.1995961055
20
37.3577723966
11
31.9932307004
21
41.5641378017
0
LINE
5
224
100
AcDbEntity
8
0
100
AcDbLine
62
2
6
CONTINUOUS
10
37.5941160342
20
38.7916795926
11
33.0510729399
21
43.3347226870
0
LINE
5
225
100
AcDbEntity
8
0
100
AcDbLine
62
2
6
CONTINUOUS
10
39.8564503550
20
39.3577723966
11
35.7840619842
21
43.4301607674
0
LINE
5
226
100
AcDbEntity
8
0
100
AcDbLine
62
2
6
CONTINUOUS
10
42.6848774797
20
39.3577723966
11
38.5170510285
21
43.5255988479
0
LINE
5
227
100
AcDbEntity
8
0
100
AcDbLine
62
2
6
CONTINUOUS
10
45.5133046045
20
39.3577723966
11
41.2500400728
21
43.6210369283
0
LINE
5
228
100
AcDbEntity
8
0
100
AcDbLine
62
2
6
CONTINUOUS
10
48.3229277973
20
39.3765763285
11
43.9830291171
21
43.7164750088
0
LINE
5
229
100
AcDbEntity
8
0
100
AcDbLine
62
2
6
CONTINUOUS
10
50.4924834229
20
40.0354478277
11
46.7160181614
21
43.8119130892
0
LINE
5
22A
100
AcDbEntity
8
0
100
AcDbLine
62
2
6
CONTINUOUS
10
51.9910036013
20
41.3653547741
11
48.9072395881
21
44.4491187872
0
LINE
5
22B
100
AcDbEntity
8
0
100
AcDbLine
62
7
6
CONTINUOUS
10
48.9932307004
20
86.9058383428
11
49.9932307004
21
65.8577723966
0
LINE
5
22C
100
AcDbEntity
8
0
100
AcDbLine
62
7
6
CONTINUOUS
10
52.9932307004
20
87.3577723966
11
52.9932307004
21
73.3577723966
0
LINE
5
22D
100
AcDbEntity
8
0
100
AcDbLine
62
7
6
CONTINUOUS
10
52.9932307004
20
58.3577723966
11
52.9932307004
21
44.3577723966
0
LINE
5
22E
100
AcDbEntity
8
0
100
AcDbLine
62
7
6
CONTINUOUS
10
49.9932307004
20
65.8577723966
11
48.9932307004
21
44.8097064504
0
LINE
5
22F
100
AcDbEntity
8
0
100
AcDbLine
62
2
6
CONTINUOUS
10
52.8782806763
20
43.3065048238
11
49.1012605093
21
47.0835249908
0
LINE
5
230
100
AcDbEntity
8
0
100
AcDbLine
62
2
6
CONTINUOUS
10
52.9932307004
20
46.0199819244
11
49.2295451004
21
49.7836675245
0
LINE
5
231
100
AcDbEntity
8
0
100
AcDbLine
62
2
6
CONTINUOUS
10
52.9932307004
20
48.8484090492
11
49.3578296915
21
52.4838100581
0
LINE
5
232
100
AcDbEntity
8
0
100
AcDbLine
62
2
6
CONTINUOUS
10
52.9932307004
20
51.6768361739
11
49.4861142826
21
55.1839525917
0
LINE
5
233
100
AcDbEntity
8
0
100
AcDbLine
62
2
6
CONTINUOUS
10
52.9932307004
20
54.5052632986
11
49.6143988737
21
57.8840951254
0
LINE
5
234
100
AcDbEntity
8
0
100
AcDbLine
62
2
6
CONTINUOUS
10
52.9932307004
20
57.3336904234
11
49.7426834648
21
60.5842376590
0
LINE
5
235
100
AcDbEntity
8
0
100
AcDbLine
62
2
6
CONTINUOUS
10
53.2454623082
20
59.9098859403
11
49.8709680559
21
63.2843801926
0
LINE
5
236
100
AcDbEntity
8
0
100
AcDbLine
62
2
6
CONTINUOUS
10
80.8760029767
20
35.1077723966
11
77.3813409516
21
38.6024344217
0
LINE
5
237
100
AcDbEntity
8
0
100
AcDbLine
62
2
6
CONTINUOUS
10
54.2845066481
20
61.6992687252
11
49.9866080029
21
65.9971673704
0
LINE
5
238
100
AcDbEntity
8
0
100
AcDbLine
62
7
6
CONTINUOUS
10
78.4932307004
20
35.1077723966
11
114.4932307004
21
35.1077723966
0
LINE
5
239
100
AcDbEntity
8
0
100
AcDbLine
62
7
6
CONTINUOUS
10
77.4366733396
20
37.3577723966
11
32.9932307004
21
37.3577723966
0
LINE
5
23A
100
AcDbEntity
8
0
100
AcDbLine
62
7
6
CONTINUOUS
10
115.5497880613
20
37.3577723966
11
159.9932307004
21
37.3577723966
0
LINE
5
23B
100
AcDbEntity
8
0
100
AcDbLine
62
2
6
CONTINUOUS
10
81.4932307004
20
37.3189717976
11
77.2497511703
21
41.5624513278
0
LINE
5
23C
100
AcDbEntity
8
0
100
AcDbLine
62
2
6
CONTINUOUS
10
55.9127863112
20
62.8994161869
11
49.8455257094
21
68.9666767887
0
LINE
5
23D
100
AcDbEntity
8
0
100
AcDbLine
62
2
6
CONTINUOUS
10
81.4932307004
20
40.1473989224
11
77.1181613890
21
44.5224682338
0
LINE
5
23E
100
AcDbEntity
8
0
100
AcDbLine
62
2
6
CONTINUOUS
10
58.2828572262
20
63.3577723966
11
49.7044434158
21
71.9361862070
0
LINE
5
23F
100
AcDbEntity
8
0
100
AcDbLine
62
2
6
CONTINUOUS
10
33.2673604426
20
88.3732691802
11
31.9932307004
21
89.6473989224
0
LINE
5
240
100
AcDbEntity
8
0
100
AcDbLine
62
7
6
CONTINUOUS
10
155.4932307004
20
38.3577723966
11
115.5942438146
21
38.3577723966
0
LINE
5
241
100
AcDbEntity
8
0
100
AcDbLine
62
7
6
CONTINUOUS
10
77.3922175863
20
38.3577723966
11
37.4932307004
21
38.3577723966
0
LINE
5
242
100
AcDbEntity
8
0
100
AcDbLine
62
7
6
CONTINUOUS
10
38.4932307004
20
39.3577723966
11
77.3477618330
21
39.3577723966
0
LINE
5
243
100
AcDbEntity
8
0
100
AcDbLine
62
7
6
CONTINUOUS
10
115.6386995679
20
39.3577723966
11
154.4932307004
21
39.3577723966
0
LINE
5
244
100
AcDbEntity
8
0
100
AcDbLine
62
2
6
CONTINUOUS
10
81.4932307004
20
42.9758260471
11
76.9865716077
21
47.4824851399
0
LINE
5
245
100
AcDbEntity
8
0
100
AcDbLine
62
2
6
CONTINUOUS
10
61.1112843509
20
63.3577723966
11
55.3588127196
21
69.1102440279
0
LINE
5
246
100
AcDbEntity
8
0
100
AcDbLine
62
2
6
CONTINUOUS
10
53.7457023317
20
70.7233544158
11
49.5633611223
21
74.9056956252
0
LINE
5
247
100
AcDbEntity
8
0
100
AcDbLine
62
2
6
CONTINUOUS
10
36.1981323785
20
88.2709243690
11
31.9932307004
21
92.4758260471
0
LINE
5
248
100
AcDbEntity
8
0
100
AcDbLine
62
2
6
CONTINUOUS
10
81.4932307004
20
45.8042531719
11
76.8549818263
21
50.4425020460
0
LINE
5
249
100
AcDbEntity
8
0
100
AcDbLine
62
2
6
CONTINUOUS
10
63.9397114757
20
63.3577723966
11
58.9397114757
21
68.3577723966
0
LINE
5
24A
100
AcDbEntity
8
0
100
AcDbLine
62
2
6
CONTINUOUS
10
52.9932307004
20
74.3042531719
11
49.4222788288
21
77.8752050435
0
LINE
5
24B
100
AcDbEntity
8
0
100
AcDbLine
62
2
6
CONTINUOUS
10
39.1289043145
20
88.1685795578
11
32.9437255466
21
94.3537583257
0
LINE
5
24C
100
AcDbEntity
8
0
100
AcDbLine
62
7
6
CONTINUOUS
10
76.4932307004
20
58.5798318418
11
77.4942173952
21
36.0633605076
0
LINE
5
24D
100
AcDbEntity
8
0
100
AcDbLine
62
7
6
CONTINUOUS
10
77.4942173952
20
95.6521842857
11
76.4932307004
21
73.1357129514
0
LINE
5
24E
100
AcDbEntity
8
0
100
AcDbLine
62
7
6
CONTINUOUS
10
48.0292569045
20
43.8577723966
11
31.9932307004
21
43.2977820220
0
LINE
5
24F
100
AcDbEntity
8
0
100
AcDbLine
62
7
6
CONTINUOUS
10
52.9932307004
20
44.3577723966
11
77.1254830665
21
44.3577723966
0
LINE
5
250
100
AcDbEntity
8
0
100
AcDbLine
62
7
6
CONTINUOUS
10
115.8609783344
20
44.3577723966
11
139.9932307004
21
44.3577723966
0
LINE
5
251
100
AcDbEntity
8
0
100
AcDbLine
62
7
6
CONTINUOUS
10
144.9572044963
20
43.8577723966
11
160.9932307004
21
43.2977820220
0
LINE
5
252
100
AcDbEntity
8
0
100
AcDbLine
62
2
6
CONTINUOUS
10
81.4932307004
20
48.6326802966
11
76.7233920450
21
53.4025189521
0
LINE
5
253
100
AcDbEntity
8
0
100
AcDbLine
62
2
6
CONTINUOUS
10
66.7681386004
20
63.3577723966
11
61.7681386004
21
68.3577723966
0
LINE
5
254
100
AcDbEntity
8
0
100
AcDbLine
62
2
6
CONTINUOUS
10
52.9932307004
20
77.1326802966
11
49.2811965352
21
80.8447144618
0
LINE
5
255
100
AcDbEntity
8
0
100
AcDbLine
62
2
6
CONTINUOUS
10
42.0596762504
20
88.0662347466
11
35.7681386004
21
94.3577723966
0
LINE
5
256
100
AcDbEntity
8
0
100
AcDbLine
62
2
6
CONTINUOUS
10
81.4932307004
20
51.4611074214
11
76.5918022637
21
56.3625358581
0
LINE
5
257
100
AcDbEntity
8
0
100
AcDbLine
62
2
6
CONTINUOUS
10
69.5965657252
20
63.3577723966
11
64.5965657252
21
68.3577723966
0
LINE
5
258
100
AcDbEntity
8
0
100
AcDbLine
62
2
6
CONTINUOUS
10
52.9932307004
20
79.9611074214
11
49.1401142417
21
83.8142238801
0
LINE
5
259
100
AcDbEntity
8
0
100
AcDbLine
62
2
6
CONTINUOUS
10
44.9904481864
20
87.9638899354
11
40.5965657252
21
92.3577723966
0
LINE
5
25A
100
AcDbEntity
8
0
100
AcDbLine
62
2
6
CONTINUOUS
10
81.4932307004
20
54.2895345461
11
76.3801611779
21
59.4026040686
0
LINE
5
25B
100
AcDbEntity
8
0
100
AcDbLine
62
2
6
CONTINUOUS
10
72.5362016875
20
63.2465635590
11
67.4249928499
21
68.3577723966
0
LINE
5
25C
100
AcDbEntity
8
0
100
AcDbLine
62
2
6
CONTINUOUS
10
52.9932307004
20
82.7895345461
11
48.9990319481
21
86.7837332984
0
LINE
5
25D
100
AcDbEntity
8
0
100
AcDbLine
62
2
6
CONTINUOUS
10
47.9212201223
20
87.8615451242
11
43.4249928499
21
92.3577723966
0
LINE
5
25E
100
AcDbEntity
8
0
100
AcDbLine
62
7
6
CONTINUOUS
10
81.4932307004
20
96.6077723966
11
81.4932307004
21
35.1077723966
0
LINE
5
25F
100
AcDbEntity
8
0
100
AcDbLine
62
2
6
CONTINUOUS
10
81.4932307004
20
57.1179616709
11
70.2534199747
21
68.3577723966
0
LINE
5
260
100
AcDbEntity
8
0
100
AcDbLine
62
2
6
CONTINUOUS
10
52.9932307004
20
85.6179616709
11
46.2534199747
21
92.3577723966
0
LINE
5
261
100
AcDbEntity
8
0
100
AcDbLine
62
2
6
CONTINUOUS
10
81.4932307004
20
59.9463887956
11
72.8795180036
21
68.5601014924
0
LINE
5
262
100
AcDbEntity
8
0
100
AcDbLine
62
2
6
CONTINUOUS
10
52.8267325315
20
88.6128869646
11
49.2483452684
21
92.1912742277
0
LINE
5
263
100
AcDbEntity
8
0
100
AcDbLine
62
2
6
CONTINUOUS
10
111.4932307004
20
95.8108134501
11
112.2901896470
21
96.6077723966
0
LINE
5
264
100
AcDbEntity
8
0
100
AcDbLine
62
2
6
CONTINUOUS
10
81.4932307004
20
62.7748159203
11
74.7222382027
21
69.5458084181
0
LINE
5
265
100
AcDbEntity
8
0
100
AcDbLine
62
2
6
CONTINUOUS
10
81.4932307004
20
65.6032430451
11
75.9687257614
21
71.1277479841
0
LINE
5
266
100
AcDbEntity
8
0
100
AcDbLine
62
2
6
CONTINUOUS
10
111.4932307004
20
92.9823863253
11
114.9856603354
21
96.4748159603
0
LINE
5
267
100
AcDbEntity
8
0
100
AcDbLine
62
2
6
CONTINUOUS
10
111.4932307004
20
90.1539592006
11
115.5560557936
21
94.2167842938
0
LINE
5
268
100
AcDbEntity
8
0
100
AcDbLine
62
2
6
CONTINUOUS
10
111.4932307004
20
87.3255320758
11
115.6764437163
21
91.5087450917
0
LINE
5
269
100
AcDbEntity
8
0
100
AcDbLine
62
7
6
CONTINUOUS
10
52.9932307004
20
58.3577723966
11
76.5031025203
21
58.3577723966
0
LINE
5
26A
100
AcDbEntity
8
0
100
AcDbLine
62
7
6
CONTINUOUS
10
116.4833588805
20
58.3577723966
11
139.9932307004
21
58.3577723966
0
LINE
5
26B
100
AcDbEntity
8
0
100
AcDbLine
62
2
6
CONTINUOUS
10
81.4932307004
20
68.4316701698
11
76.5058276927
21
73.4190731775
0
LINE
5
26C
100
AcDbEntity
8
0
100
AcDbLine
62
2
6
CONTINUOUS
10
81.4932307004
20
71.2600972946
11
76.6262156154
21
76.1271123796
0
LINE
5
26D
100
AcDbEntity
8
0
100
AcDbLine
62
2
6
CONTINUOUS
10
81.4932307004
20
74.0885244193
11
76.7466035381
21
78.8351515817
0
LINE
5
26E
100
AcDbEntity
8
0
100
AcDbLine
62
7
6
CONTINUOUS
10
96.4932307004
20
96.6077723966
11
96.4932307004
21
35.1077723966
0
LINE
5
26F
100
AcDbEntity
8
0
100
AcDbLine
62
2
6
CONTINUOUS
10
111.4932307004
20
84.4971049511
11
115.7968316390
21
88.8007058896
0
LINE
5
270
100
AcDbEntity
8
0
100
AcDbLine
62
2
6
CONTINUOUS
10
111.4932307004
20
81.6686778263
11
115.9172195617
21
86.0926666876
0
LINE
5
271
100
AcDbEntity
8
0
100
AcDbLine
62
7
6
CONTINUOUS
10
71.4981641741
20
63.3577723966
11
57.9932307004
21
63.3577723966
0
LINE
5
272
100
AcDbEntity
8
0
100
AcDbLine
62
7
6
CONTINUOUS
10
121.4882972268
20
63.3577723966
11
134.9932307004
21
63.3577723966
0
LINE
5
273
100
AcDbEntity
8
0
100
AcDbLine
62
2
6
CONTINUOUS
10
81.4932307004
20
76.9169515441
11
76.8669914608
21
81.5431907837
0
LINE
5
274
100
AcDbEntity
8
0
100
AcDbLine
62
2
6
CONTINUOUS
10
81.4932307004
20
79.7453786688
11
76.9873793835
21
84.2512299858
0
LINE
5
275
100
AcDbEntity
8
0
100
AcDbLine
62
2
6
CONTINUOUS
10
111.4932307004
20
78.8402507016
11
116.0376074844
21
83.3846274855
0
LINE
5
276
100
AcDbEntity
8
0
100
AcDbLine
62
2
6
CONTINUOUS
10
111.4932307004
20
76.0118235768
11
116.1579954070
21
80.6765882834
0
LINE
5
277
100
AcDbEntity
8
0
100
AcDbLine
62
7
6
CONTINUOUS
10
71.4981641741
20
68.3577723966
11
57.9932307004
21
68.3577723966
0
LINE
5
278
100
AcDbEntity
8
0
100
AcDbLine
62
7
6
CONTINUOUS
10
121.4882972268
20
68.3577723966
11
134.9932307004
21
68.3577723966
0
LINE
5
279
100
AcDbEntity
8
0
100
AcDbLine
62
2
6
CONTINUOUS
10
81.4932307004
20
82.5738057936
11
77.1077673061
21
86.9592691879
0
LINE
5
27A
100
AcDbEntity
8
0
100
AcDbLine
62
2
6
CONTINUOUS
10
81.4932307004
20
85.4022329183
11
77.2281552288
21
89.6673083899
0
LINE
5
27B
100
AcDbEntity
8
0
100
AcDbLine
62
2
6
CONTINUOUS
10
81.4932307004
20
88.2306600431
11
77.3485431515
21
92.3753475920
0
LINE
5
27C
100
AcDbEntity
8
0
100
AcDbLine
62
2
6
CONTINUOUS
10
111.4932307004
20
73.1833964521
11
116.2783833297
21
77.9685490814
0
LINE
5
27D
100
AcDbEntity
8
0
100
AcDbLine
62
2
6
CONTINUOUS
10
111.4932307004
20
70.3549693273
11
116.3987712524
21
75.2605098793
0
LINE
5
27E
100
AcDbEntity
8
0
100
AcDbLine
62
2
6
CONTINUOUS
10
111.4932307004
20
67.5265422026
11
116.5494163197
21
72.5827278218
0
LINE
5
27F
100
AcDbEntity
8
0
100
AcDbLine
62
7
6
CONTINUOUS
10
52.9932307004
20
73.3577723966
11
76.5031025203
21
73.3577723966
0
LINE
5
280
100
AcDbEntity
8
0
100
AcDbLine
62
7
6
CONTINUOUS
10
116.4833588805
20
73.3577723966
11
139.9932307004
21
73.3577723966
0
LINE
5
281
100
AcDbEntity
8
0
100
AcDbLine
62
2
6
CONTINUOUS
10
81.4932307004
20
91.0590871678
11
77.4689310742
21
95.0833867940
0
LINE
5
282
100
AcDbEntity
8
0
100
AcDbLine
62
2
6
CONTINUOUS
10
81.4932307004
20
93.8875142926
11
78.7729725964
21
96.6077723966
0
LINE
5
283
100
AcDbEntity
8
0
100
AcDbLine
62
2
6
CONTINUOUS
10
111.4932307004
20
64.6981150778
11
117.3499352386
21
70.5548196161
0
LINE
5
284
100
AcDbEntity
8
0
100
AcDbLine
62
2
6
CONTINUOUS
10
111.4932307004
20
61.8696879531
11
118.7831569940
21
69.1596142467
0
LINE
5
285
100
AcDbEntity
8
0
100
AcDbLine
62
7
6
CONTINUOUS
10
111.4932307004
20
96.6077723966
11
111.4932307004
21
35.1077723966
0
LINE
5
286
100
AcDbEntity
8
0
100
AcDbLine
62
2
6
CONTINUOUS
10
111.4932307004
20
59.0412608284
11
120.8543399151
21
68.4023700431
0
LINE
5
287
100
AcDbEntity
8
0
100
AcDbLine
62
2
6
CONTINUOUS
10
140.0043287378
20
87.5523588658
11
144.7986442313
21
92.3466743592
0
LINE
5
288
100
AcDbEntity
8
0
100
AcDbLine
62
2
6
CONTINUOUS
10
111.4932307004
20
56.2128337036
11
123.6381693935
21
68.3577723966
0
LINE
5
289
100
AcDbEntity
8
0
100
AcDbLine
62
2
6
CONTINUOUS
10
139.9932307004
20
84.7128337036
11
147.6381693935
21
92.3577723966
0
LINE
5
28A
100
AcDbEntity
8
0
100
AcDbLine
62
2
6
CONTINUOUS
10
111.4932307004
20
53.3844065789
11
116.4841387329
21
58.3753146113
0
LINE
5
28B
100
AcDbEntity
8
0
100
AcDbLine
62
2
6
CONTINUOUS
10
121.4653245037
20
63.3565003822
11
126.4665965182
21
68.3577723966
0
LINE
5
28C
100
AcDbEntity
8
0
100
AcDbLine
62
2
6
CONTINUOUS
10
139.9932307004
20
81.8844065789
11
143.9422815582
21
85.8334574366
0
LINE
5
28D
100
AcDbEntity
8
0
100
AcDbLine
62
2
6
CONTINUOUS
10
146.0031207175
20
87.8942965959
11
150.4665965182
21
92.3577723966
0
LINE
5
28E
100
AcDbEntity
8
0
100
AcDbLine
62
7
6
CONTINUOUS
10
115.4922440057
20
95.6521842857
11
116.4932307004
21
73.1357129514
0
LINE
5
28F
100
AcDbEntity
8
0
100
AcDbLine
62
7
6
CONTINUOUS
10
116.4932307004
20
58.5798318418
11
115.4922440057
21
36.0633605076
0
LINE
5
290
100
AcDbEntity
8
0
100
AcDbLine
62
2
6
CONTINUOUS
10
111.4932307004
20
50.5559794541
11
116.3525489516
21
55.4152977052
0
LINE
5
291
100
AcDbEntity
8
0
100
AcDbLine
62
2
6
CONTINUOUS
10
124.2950236429
20
63.3577723966
11
129.2950236429
21
68.3577723966
0
LINE
5
292
100
AcDbEntity
8
0
100
AcDbLine
62
2
6
CONTINUOUS
10
139.9932307004
20
79.0559794541
11
143.8011992646
21
82.8639480183
0
LINE
5
293
100
AcDbEntity
8
0
100
AcDbLine
62
2
6
CONTINUOUS
10
148.9338926534
20
87.9966414071
11
153.2950236429
21
92.3577723966
0
LINE
5
294
100
AcDbEntity
8
0
100
AcDbLine
62
2
6
CONTINUOUS
10
111.4932307004
20
47.7275523294
11
116.2209591702
21
52.4552807992
0
LINE
5
295
100
AcDbEntity
8
0
100
AcDbLine
62
2
6
CONTINUOUS
10
127.1234507677
20
63.3577723966
11
132.1234507677
21
68.3577723966
0
LINE
5
296
100
AcDbEntity
8
0
100
AcDbLine
62
2
6
CONTINUOUS
10
139.9932307004
20
76.2275523294
11
143.6601169711
21
79.8944386000
0
LINE
5
297
100
AcDbEntity
8
0
100
AcDbLine
62
2
6
CONTINUOUS
10
151.8646645894
20
88.0989862183
11
158.1234507677
21
94.3577723966
0
LINE
5
298
100
AcDbEntity
8
0
100
AcDbLine
62
7
6
CONTINUOUS
10
160.9932307004
20
88.4177627713
11
144.9572044963
21
87.8577723966
0
LINE
5
299
100
AcDbEntity
8
0
100
AcDbLine
62
7
6
CONTINUOUS
10
52.9932307004
20
87.3577723966
11
77.1254830665
21
87.3577723966
0
LINE
5
29A
100
AcDbEntity
8
0
100
AcDbLine
62
7
6
CONTINUOUS
10
115.8609783344
20
87.3577723966
11
139.9932307004
21
87.3577723966
0
LINE
5
29B
100
AcDbEntity
8
0
100
AcDbLine
62
7
6
CONTINUOUS
10
31.9932307004
20
88.4177627713
11
48.0292569045
21
87.8577723966
0
LINE
5
29C
100
AcDbEntity
8
0
100
AcDbLine
62
2
6
CONTINUOUS
10
111.4932307004
20
44.8991252046
11
116.0893693889
21
49.4952638931
0
LINE
5
29D
100
AcDbEntity
8
0
100
AcDbLine
62
2
6
CONTINUOUS
10
129.9518778924
20
63.3577723966
11
134.9518778924
21
68.3577723966
0
LINE
5
29E
100
AcDbEntity
8
0
100
AcDbLine
62
2
6
CONTINUOUS
10
139.9932307004
20
73.3991252046
11
143.5190346775
21
76.9249291817
0
LINE
5
29F
100
AcDbEntity
8
0
100
AcDbLine
62
2
6
CONTINUOUS
10
154.7954365253
20
88.2013310295
11
160.6779036257
21
94.0837981299
0
LINE
5
2A0
100
AcDbEntity
8
0
100
AcDbLine
62
2
6
CONTINUOUS
10
111.4932307004
20
42.0706980799
11
115.9577796076
21
46.5352469870
0
LINE
5
2A1
100
AcDbEntity
8
0
100
AcDbLine
62
2
6
CONTINUOUS
10
132.7803050172
20
63.3577723966
11
143.3779523840
21
73.9554197635
0
LINE
5
2A2
100
AcDbEntity
8
0
100
AcDbLine
62
2
6
CONTINUOUS
10
157.7262084613
20
88.3036758407
11
160.9932307004
21
91.5706980799
0
LINE
5
2A3
100
AcDbEntity
8
0
100
AcDbLine
62
7
6
CONTINUOUS
10
38.4932307004
20
92.3577723966
11
77.3477618330
21
92.3577723966
0
LINE
5
2A4
100
AcDbEntity
8
0
100
AcDbLine
62
7
6
CONTINUOUS
10
115.6386995679
20
92.3577723966
11
154.4932307004
21
92.3577723966
0
LINE
5
2A5
100
AcDbEntity
8
0
100
AcDbLine
62
7
6
CONTINUOUS
10
155.4932307004
20
93.3577723966
11
115.5942438146
21
93.3577723966
0
LINE
5
2A6
100
AcDbEntity
8
0
100
AcDbLine
62
7
6
CONTINUOUS
10
77.3922175863
20
93.3577723966
11
37.4932307004
21
93.3577723966
0
LINE
5
2A7
100
AcDbEntity
8
0
100
AcDbLine
62
7
6
CONTINUOUS
10
77.4366733396
20
94.3577723966
11
32.9932307004
21
94.3577723966
0
LINE
5
2A8
100
AcDbEntity
8
0
100
AcDbLine
62
7
6
CONTINUOUS
10
115.5497880613
20
94.3577723966
11
159.9932307004
21
94.3577723966
0
LINE
5
2A9
100
AcDbEntity
8
0
100
AcDbLine
62
2
6
CONTINUOUS
10
111.4932307004
20
39.2422709551
11
115.8261898262
21
43.5752300809
0
LINE
5
2AA
100
AcDbEntity
8
0
100
AcDbLine
62
2
6
CONTINUOUS
10
135.5736898883
20
63.3227301430
11
143.2368700905
21
70.9859103452
0
LINE
5
2AB
100
AcDbEntity
8
0
100
AcDbLine
62
2
6
CONTINUOUS
10
160.6569803972
20
88.4060206519
11
160.9932307004
21
88.7422709551
0
LINE
5
2AC
100
AcDbEntity
8
0
100
AcDbLine
62
2
6
CONTINUOUS
10
111.4932307004
20
36.4138438304
11
115.6946000449
21
40.6152131749
0
LINE
5
2AD
100
AcDbEntity
8
0
100
AcDbLine
62
2
6
CONTINUOUS
10
137.6633557337
20
62.5839688637
11
143.0957877969
21
68.0164009269
0
LINE
5
2AE
100
AcDbEntity
8
0
100
AcDbLine
62
2
6
CONTINUOUS
10
113.0155863914
20
35.1077723966
11
115.5630102636
21
37.6551962688
0
LINE
5
2AF
100
AcDbEntity
8
0
100
AcDbLine
62
2
6
CONTINUOUS
10
139.1017488297
20
61.1939348349
11
143.0282612420
21
65.1204472472
0
LINE
5
2B0
100
AcDbEntity
8
0
100
AcDbLine
62
7
6
CONTINUOUS
10
78.4932307004
20
96.6077723966
11
114.4932307004
21
96.6077723966
0
LINE
5
2B1
100
AcDbEntity
8
0
100
AcDbLine
62
2
6
CONTINUOUS
10
139.9170218817
20
59.1807807622
11
143.1565458331
21
62.4203047136
0
LINE
5
2B2
100
AcDbEntity
8
0
100
AcDbLine
62
2
6
CONTINUOUS
10
139.9932307004
20
56.4285624561
11
143.2848304242
21
59.7201621800
0
LINE
5
2B3
100
AcDbEntity
8
0
100
AcDbLine
62
2
6
CONTINUOUS
10
139.9932307004
20
53.6001353314
11
143.4131150154
21
57.0200196463
0
LINE
5
2B4
100
AcDbEntity
8
0
100
AcDbLine
62
2
6
CONTINUOUS
10
139.9932307004
20
50.7717082067
11
143.5413996065
21
54.3198771127
0
LINE
5
2B5
100
AcDbEntity
8
0
100
AcDbLine
62
2
6
CONTINUOUS
10
139.9932307004
20
47.9432810819
11
143.6696841976
21
51.6197345791
0
LINE
5
2B6
100
AcDbEntity
8
0
100
AcDbLine
62
7
6
CONTINUOUS
10
142.9932307004
20
65.8577723966
11
143.9932307004
21
44.8097064504
0
LINE
5
2B7
100
AcDbEntity
8
0
100
AcDbLine
62
7
6
CONTINUOUS
10
139.9932307004
20
87.3577723966
11
139.9932307004
21
73.3577723966
0
LINE
5
2B8
100
AcDbEntity
8
0
100
AcDbLine
62
7
6
CONTINUOUS
10
139.9932307004
20
58.3577723966
11
139.9932307004
21
44.3577723966
0
LINE
5
2B9
100
AcDbEntity
8
0
100
AcDbLine
62
7
6
CONTINUOUS
10
143.9932307004
20
86.9058383428
11
142.9932307004
21
65.8577723966
0
LINE
5
2BA
100
AcDbEntity
8
0
100
AcDbLine
62
2
6
CONTINUOUS
10
139.9932307004
20
45.1148539572
11
143.7979687887
21
48.9195920454
0
LINE
5
2BB
100
AcDbEntity
8
0
100
AcDbLine
62
2
6
CONTINUOUS
10
140.3148168166
20
42.6080129486
11
143.9262533798
21
46.2194495118
0
LINE
5
2BC
100
AcDbEntity
8
0
100
AcDbLine
62
2
6
CONTINUOUS
10
141.4105802068
20
40.8753492140
11
144.5174020261
21
43.9821710333
0
LINE
5
2BD
100
AcDbEntity
8
0
100
AcDbLine
62
2
6
CONTINUOUS
10
143.1016665440
20
39.7380084265
11
147.1450299653
21
43.7813718477
0
LINE
5
2BE
100
AcDbEntity
8
0
100
AcDbLine
62
2
6
CONTINUOUS
10
145.5498576389
20
39.3577723966
11
149.8780190096
21
43.6859337673
0
LINE
5
2BF
100
AcDbEntity
8
0
100
AcDbLine
62
2
6
CONTINUOUS
10
148.3782847636
20
39.3577723966
11
152.6110080539
21
43.5904956869
0
LINE
5
2C0
100
AcDbEntity
8
0
100
AcDbLine
62
2
6
CONTINUOUS
10
151.2067118884
20
39.3577723966
11
155.3439970982
21
43.4950576064
0
LINE
5
2C1
100
AcDbEntity
8
0
100
AcDbLine
62
2
6
CONTINUOUS
10
154.0351390131
20
39.3577723966
11
158.0769861425
21
43.3996195260
0
LINE
5
2C2
100
AcDbEntity
8
0
100
AcDbLine
62
2
6
CONTINUOUS
10
155.5458091489
20
38.0400154077
11
160.8099751868
21
43.3041814455
0
LINE
5
2C3
100
AcDbEntity
8
0
100
AcDbLine
62
7
6
CONTINUOUS
10
160.9932307004
20
93.3577723966
11
160.9932307004
21
88.4177627713
0
LINE
5
2C4
100
AcDbEntity
8
0
100
AcDbLine
62
7
6
CONTINUOUS
10
160.9932307004
20
43.2977820220
11
160.9932307004
21
38.3577723966
0
LINE
5
2C5
100
AcDbEntity
8
0
100
AcDbLine
62
2
6
CONTINUOUS
10
157.6919932626
20
37.3577723966
11
160.9932307004
21
40.6590098344
0
ARC
5
2C6
100
AcDbEntity
8
0
100
AcDbCircle
62
7
6
CONTINUOUS
10
96.4932307004
20
202.3650136299
40
38.5000000000
100
AcDbArc
50
275.9635701183
51
84.0364298817
0
ARC
5
2C7
100
AcDbEntity
8
0
100
AcDbCircle
62
7
6
CONTINUOUS
10
96.4932307004
20
202.3650136299
40
24.9950665264
100
AcDbArc
50
279.2087292684
51
80.7912707316
0
ARC
5
2C8
100
AcDbEntity
8
0
100
AcDbCircle
62
7
6
CONTINUOUS
10
96.4932307004
20
202.3650136299
40
20.0000000000
100
AcDbArc
50
281.5369590328
51
78.3969314118
0
CIRCLE
5
2C9
100
AcDbEntity
8
0
100
AcDbCircle
62
7
6
CONTINUOUS
10
96.4932307004
20
202.3650136299
40
64.5000000000
0
CIRCLE
5
2CA
100
AcDbEntity
8
0
100
AcDbCircle
62
7
6
CONTINUOUS
10
96.4932307004
20
202.3650136299
40
59.0000000000
0
CIRCLE
5
2CB
100
AcDbEntity
8
0
100
AcDbCircle
62
7
6
CONTINUOUS
10
96.4932307004
20
202.3650136299
40
43.5000000000
0
CIRCLE
5
2CC
100
AcDbEntity
8
0
100
AcDbCircle
62
7
6
CONTINUOUS
10
96.4932307004
20
202.3650136299
40
15.0000000000
0
CIRCLE
5
2CD
100
AcDbEntity
8
0
100
AcDbCircle
62
7
6
CONTINUOUS
10
96.4932307004
20
202.3650136299
40
60.0000000000
0
CIRCLE
5
2CE
100
AcDbEntity
8
0
100
AcDbCircle
62
7
6
CONTINUOUS
10
96.4932307004
20
202.3650136299
40
58.0000000000
0
CIRCLE
5
2CF
100
AcDbEntity
8
0
100
AcDbCircle
62
7
6
CONTINUOUS
10
96.4932307004
20
202.3650136299
40
48.5000000000
0
ARC
5
2D0
100
AcDbEntity
8
0
100
AcDbCircle
62
7
6
CONTINUOUS
10
96.4932307004
20
202.3650136299
40
38.5000000000
100
AcDbArc
50
95.9635701183
51
264.0364298817
0
ARC
5
2D1
100
AcDbEntity
8
0
100
AcDbCircle
62
7
6
CONTINUOUS
10
96.4932307004
20
202.3650136299
40
24.9950665264
100
AcDbArc
50
99.2087292684
51
260.7912707316
0
ARC
5
2D2
100
AcDbEntity
8
0
100
AcDbCircle
62
7
6
CONTINUOUS
10
96.4932307004
20
202.3650136299
40
20.0000000000
100
AcDbArc
50
101.5369590328
51
258.3969314118
0
CIRCLE
5
2D3
100
AcDbEntity
8
0
100
AcDbCircle
62
7
6
CONTINUOUS
10
96.4932307004
20
202.3650136299
40
18.9990133053
0
ARC
5
2D4
100
AcDbEntity
8
0
100
AcDbCircle
62
7
6
CONTINUOUS
10
96.4932307004
20
202.3650136299
40
19.4788870172
100
AcDbArc
50
78.1499798111
51
101.8500201889
0
ARC
5
2D5
100
AcDbEntity
8
0
100
AcDbCircle
62
7
6
CONTINUOUS
10
96.4932307004
20
202.3650136299
40
19.4788870172
100
AcDbArc
50
258.1499798111
51
281.8500201889
0
CIRCLE
5
2D6
100
AcDbEntity
8
0
100
AcDbCircle
62
7
6
CONTINUOUS
10
96.4932307004
20
202.3650136299
40
18.0000000000
0
CIRCLE
5
2D7
100
AcDbEntity
8
0
100
AcDbCircle
62
7
6
CONTINUOUS
10
96.4932307004
20
202.3650136299
40
63.5000000000
0
ARC
5
2D8
100
AcDbEntity
8
0
100
AcDbCircle
62
7
6
CONTINUOUS
10
114.4932307004
20
36.1077723966
40
1.0000000000
100
AcDbArc
50
270.0000000000
51
357.4545489484
0
ARC
5
2D9
100
AcDbEntity
8
0
100
AcDbCircle
62
7
6
CONTINUOUS
10
114.4932307004
20
95.6077723966
40
1.0000000000
100
AcDbArc
50
2.5454510516
51
90.0000000000
0
ARC
5
2DA
100
AcDbEntity
8
0
100
AcDbCircle
62
7
6
CONTINUOUS
10
121.4882972268
20
58.3577723966
40
5.0000000000
100
AcDbArc
50
90.0000000000
51
177.4545489484
0
ARC
5
2DB
100
AcDbEntity
8
0
100
AcDbCircle
62
7
6
CONTINUOUS
10
121.4882972268
20
73.3577723966
40
5.0000000000
100
AcDbArc
50
182.5454510516
51
270.0000000000
0
ARC
5
2DC
100
AcDbEntity
8
0
100
AcDbCircle
62
7
6
CONTINUOUS
10
159.9932307004
20
93.3577723966
40
1.0000000000
100
AcDbArc
50
0.0000000000
51
90.0000000000
0
ARC
5
2DD
100
AcDbEntity
8
0
100
AcDbCircle
62
7
6
CONTINUOUS
10
156.4932307004
20
38.3577723966
40
1.0000000000
100
AcDbArc
50
180.0000000000
51
270.0000000000
0
ARC
5
2DE
100
AcDbEntity
8
0
100
AcDbCircle
62
7
6
CONTINUOUS
10
154.4932307004
20
38.3577723966
40
1.0000000000
100
AcDbArc
50
0.0000000000
51
90.0000000000
0
ARC
5
2DF
100
AcDbEntity
8
0
100
AcDbCircle
62
7
6
CONTINUOUS
10
144.9932307004
20
44.3577723966
40
5.0000000000
100
AcDbArc
50
180.0000000000
51
270.0000000000
0
ARC
5
2E0
100
AcDbEntity
8
0
100
AcDbCircle
62
7
6
CONTINUOUS
10
159.9932307004
20
38.3577723966
40
1.0000000000
100
AcDbArc
50
270.0000000000
51
360.0000000000
0
ARC
5
2E1
100
AcDbEntity
8
0
100
AcDbCircle
62
7
6
CONTINUOUS
10
134.9932307004
20
58.3577723966
40
5.0000000000
100
AcDbArc
50
0.0000000000
51
90.0000000000
0
ARC
5
2E2
100
AcDbEntity
8
0
100
AcDbCircle
62
7
6
CONTINUOUS
10
144.9921039930
20
44.8571632237
40
1.0000000000
100
AcDbArc
50
182.7200944758
51
268.0000000000
0
ARC
5
2E3
100
AcDbEntity
8
0
100
AcDbCircle
62
7
6
CONTINUOUS
10
144.9921039930
20
86.8583815696
40
1.0000000000
100
AcDbArc
50
92.0000000000
51
177.2799055242
0
ARC
5
2E4
100
AcDbEntity
8
0
100
AcDbCircle
62
7
6
CONTINUOUS
10
156.4932307004
20
93.3577723966
40
1.0000000000
100
AcDbArc
50
90.0000000000
51
180.0000000000
0
ARC
5
2E5
100
AcDbEntity
8
0
100
AcDbCircle
62
7
6
CONTINUOUS
10
154.4932307004
20
93.3577723966
40
1.0000000000
100
AcDbArc
50
270.0000000000
51
360.0000000000
0
ARC
5
2E6
100
AcDbEntity
8
0
100
AcDbCircle
62
7
6
CONTINUOUS
10
144.9932307004
20
87.3577723966
40
5.0000000000
100
AcDbArc
50
90.0000000000
51
180.0000000000
0
ARC
5
2E7
100
AcDbEntity
8
0
100
AcDbCircle
62
7
6
CONTINUOUS
10
134.9932307004
20
73.3577723966
40
5.0000000000
100
AcDbArc
50
270.0000000000
51
360.0000000000
0
ARC
5
2E8
100
AcDbEntity
8
0
100
AcDbCircle
62
7
6
CONTINUOUS
10
78.4932307004
20
95.6077723966
40
1.0000000000
100
AcDbArc
50
90.0000000000
51
177.4545489484
0
ARC
5
2E9
100
AcDbEntity
8
0
100
AcDbCircle
62
7
6
CONTINUOUS
10
71.4981641741
20
73.3577723966
40
5.0000000000
100
AcDbArc
50
270.0000000000
51
357.4545489484
0
ARC
5
2EA
100
AcDbEntity
8
0
100
AcDbCircle
62
7
6
CONTINUOUS
10
32.9932307004
20
93.3577723966
40
1.0000000000
100
AcDbArc
50
90.0000000000
51
180.0000000000
0
ARC
5
2EB
100
AcDbEntity
8
0
100
AcDbCircle
62
7
6
CONTINUOUS
10
47.9943574078
20
44.8571632237
40
1.0000000000
100
AcDbArc
50
272.0000000000
51
357.2799055242
0
ARC
5
2EC
100
AcDbEntity
8
0
100
AcDbCircle
62
7
6
CONTINUOUS
10
32.9932307004
20
38.3577723966
40
1.0000000000
100
AcDbArc
50
180.0000000000
51
270.0000000000
0
ARC
5
2ED
100
AcDbEntity
8
0
100
AcDbCircle
62
7
6
CONTINUOUS
10
36.4932307004
20
38.3577723966
40
1.0000000000
100
AcDbArc
50
270.0000000000
51
360.0000000000
0
ARC
5
2EE
100
AcDbEntity
8
0
100
AcDbCircle
62
7
6
CONTINUOUS
10
47.9943574078
20
86.8583815696
40
1.0000000000
100
AcDbArc
50
2.7200944758
51
88.0000000000
0
ARC
5
2EF
100
AcDbEntity
8
0
100
AcDbCircle
62
7
6
CONTINUOUS
10
38.4932307004
20
38.3577723966
40
1.0000000000
100
AcDbArc
50
90.0000000000
51
180.0000000000
0
ARC
5
2F0
100
AcDbEntity
8
0
100
AcDbCircle
62
7
6
CONTINUOUS
10
47.9932307004
20
44.3577723966
40
5.0000000000
100
AcDbArc
50
270.0000000000
51
360.0000000000
0
ARC
5
2F1
100
AcDbEntity
8
0
100
AcDbCircle
62
7
6
CONTINUOUS
10
36.4932307004
20
93.3577723966
40
1.0000000000
100
AcDbArc
50
0.0000000000
51
90.0000000000
0
ARC
5
2F2
100
AcDbEntity
8
0
100
AcDbCircle
62
7
6
CONTINUOUS
10
38.4932307004
20
93.3577723966
40
1.0000000000
100
AcDbArc
50
180.0000000000
51
270.0000000000
0
ARC
5
2F3
100
AcDbEntity
8
0
100
AcDbCircle
62
7
6
CONTINUOUS
10
47.9932307004
20
87.3577723966
40
5.0000000000
100
AcDbArc
50
0.0000000000
51
90.0000000000
0
ARC
5
2F4
100
AcDbEntity
8
0
100
AcDbCircle
62
7
6
CONTINUOUS
10
57.9932307004
20
58.3577723966
40
5.0000000000
100
AcDbArc
50
90.0000000000
51
180.0000000000
0
ARC
5
2F5
100
AcDbEntity
8
0
100
AcDbCircle
62
7
6
CONTINUOUS
10
57.9932307004
20
73.3577723966
40
5.0000000000
100
AcDbArc
50
180.0000000000
51
270.0000000000
0
ARC
5
2F6
100
AcDbEntity
8
0
100
AcDbCircle
62
7
6
CONTINUOUS
10
71.4981641741
20
58.3577723966
40
5.0000000000
100
AcDbArc
50
2.5454510516
51
90.0000000000
0
ARC
5
2F7
100
AcDbEntity
8
0
100
AcDbCircle
62
7
6
CONTINUOUS
10
78.4932307004
20
36.1077723966
40
1.0000000000
100
AcDbArc
50
182.5454510516
51
270.0000000000
0
ENDSEC
0
SECTION
2
OBJECTS
0
DICTIONARY
5
C
100
AcDbDictionary
280
0
281
1
3
ACAD_GROUP
350
D
3
ACAD_MLINESTYLE
350
17
3
ACAD_LAYOUT
350
1A
3
ACAD_PLOTSETTINGS
350
19
3
ACAD_PLOTSTYLENAME
350
E
0
DICTIONARY
5
D
102
{ACAD_REACTORS
330
C
102
}
100
AcDbDictionary
280
0
281
1
0
ACDBDICTIONARYWDFLT
5
E
102
{ACAD_REACTORS
330
C
102
}
100
AcDbDictionary
281
1
3
Normal
350
F
100
AcDbDictionaryWithDefault
340
F
0
DICTIONARY
5
17
102
{ACAD_REACTORS
330
C
102
}
100
AcDbDictionary
280
0
281
1
3
Standard
350
18
0
DICTIONARY
5
19
102
{ACAD_REACTORS
330
C
102
}
100
AcDbDictionary
281
1
0
DICTIONARY
5
1A
102
{ACAD_REACTORS
330
C
102
}
100
AcDbDictionary
281
1
3
Layout1
350
1E
3
Model
350
22
0
ACDBPLACEHOLDER
5
F
102
{ACAD_REACTORS
330
E
102
}
0
MLINESTYLE
5
18
102
{ACAD_REACTORS
330
17
102
}
100
AcDbMlineStyle
2
STANDARD
70
0
3

62
256
51
90.0
52
90.0
71
2
49
0.5
62
256
6
BYLAYER
49
-0.5
62
256
6
BYLAYER
0
LAYOUT
5
1E
102
{ACAD_REACTORS
330
1A
102
}
100
AcDbPlotSettings
1

2

4

6

40
0.0
41
0.0
42
0.0
43
0.0
44
0.0
45
0.0
46
0.0
47
0.0
48
0.0
49
0.0
140
0.0
141
0.0
142
1.0
143
1.0
70
0
72
0
73
0
74
0
7

75
0
147
1.0
148
0.0
149
0.0
100
AcDbLayout
1
Layout1
70
0
71
0
10
0.0
20
0.0
11
0.0
21
0.0
12
0.0
22
0.0
32
0.0
14
0.0
24
0.0
34
0.0
15
0.0
25
0.0
35
0.0
146
0.0
13
0.0
23
0.0
33
0.0
16
0.0
26
0.0
36
0.0
17
0.0
27
0.0
37
0.0
76
0
330
1B
331
0
345
0
346
0
0
LAYOUT
5
22
102
{ACAD_REACTORS
330
1A
102
}
100
AcDbPlotSettings
1

2

4

6

40
0.0
41
0.0
42
0.0
43
0.0
44
0.0
45
0.0
46
0.0
47
0.0
48
0.0
49
0.0
140
0.0
141
0.0
142
1.0
143
1.0
70
0
72
0
73
0
74
0
7

75
0
147
1.0
148
0.0
149
0.0
100
AcDbLayout
1
Model
70
0
71
0
10
0.0
20
0.0
11
0.0
21
0.0
12
0.0
22
0.0
32
0.0
14
0.0
24
0.0
34
0.0
15
0.0
25
0.0
35
0.0
146
0.0
13
0.0
23
0.0
33
0.0
16
0.0
26
0.0
36
0.0
17
0.0
27
0.0
37
0.0
76
0
330
1F
331
0
345
0
346
0
0
ENDSEC
0
EOF
