  0
SECTION
  2
HEADER
  9
$ACADVER
  1
AC1009
  9
$INSBASE
 10
0
 20
0
  9
$EXTMIN
 10
-8.502099342100109
 20
45.80827795210001
  9
$EXTMAX
 10
443.0854965827477
 20
317.6509867979
  9
$LIMMIN
 10
-8.502099342100109
 20
45.80827795210001
  9
$LIMMAX
 10
443.0854965827477
 20
317.6509867979
  9
$VIEWCTR
 10
10
 20
10
  9
$VIEWSIZE
 40
10
  9
$SNAPMODE
 70
0
  9
$SNAPUNIT
 10
1
 20
1
  9
$SNAPBASE
 10
0
 20
0
  9
$SNAPANG
 50
0
  9
$SNAPSTYLE
 70
0
  9
$SNAPISOPAIR
 70
0
  9
$GRIDMODE
 70
0
  9
$GRIDUNIT
 10
0
 20
0
  9
$ORTHOMODE
 70
0
  9
$REGENMODE
 70
1
  9
$FILLMODE
 70
1
  9
$QTEXTMODE
 70
0
  9
$DRAGMODE
 70
2
  9
$LTSCALE
 40
1
  9
$OSMODE
 70
0
  9
$ATTMODE
 70
1
  9
$TEXTSIZE
 40
3.5
  9
$TRACEWID
 40
0.5
  9
$TEXTSTYLE
  7
STANDARD
  9
$CLAYER
  8
0
  9
$CELTYPE
  6
BYLAYER
  9
$CECOLOR
 62
256
  9
$DIMSCALE
 40
1
  9
$DIMASZ
 40
0.18
  9
$DIMEXO
 40
0.0625
  9
$DIMDLI
 40
0.38
  9
$DIMRND
 40
0
  9
$DIMDLE
 40
0
  9
$DIMEXE
 40
0.18
  9
$DIMTP
 40
0
  9
$DIMTM
 40
0
  9
$DIMTXT
 40
0.18
  9
$DIMCEN
 40
0.09
  9
$DIMTSZ
 40
0
  9
$DIMTOL
 70
0
  9
$DIMLIM
 70
0
  9
$DIMTIH
 70
1
  9
$DIMTOH
 70
1
  9
$DIMSE1
 70
0
  9
$DIMSE2
 70
0
  9
$DIMTAD
 70
0
  9
$DIMZIN
 70
0
  9
$DIMBLK
  1

  9
$DIMASO
 70
1
  9
$DIMSHO
 70
1
  9
$DIMPOST
  1

  9
$DIMAPOST
  1

  9
$DIMALT
 70
0
  9
$DIMALTD
 70
2
  9
$DIMALTF
 40
25.4
  9
$DIMLFAC
 40
1
  9
$DIMTOFL
 70
0
  9
$DIMTVP
 40
0
  9
$DIMTIX
 70
0
  9
$DIMSOXD
 70
0
  9
$DIMSAH
 70
0
  9
$DIMBLK1
  1

  9
$DIMBLK2
  1

  9
$DIMSTYLE
  2
*UNNAMED
  9
$DIMCLRD
 70
0
  9
$DIMCLRE
 70
0
  9
$DIMCLRT
 70
0
  9
$DIMTFAC
 40
1
  9
$DIMGAP
 40
0.09
  9
$LUNITS
 70
2
  9
$LUPREC
 70
4
  9
$AXISMODE
 70
0
  9
$AXISUNIT
 10
0
 20
0
  9
$SKETCHINC
 40
0.1
  9
$FILLETRAD
 40
2
  9
$AUNITS
 70
0
  9
$AUPREC
 70
0
  9
$MENU
  1
ACAD
  9
$ELEVATION
 40
0
  9
$THICKNESS
 40
0
  9
$VIEWDIR
 10
0
 20
0
 30
1
  9
$LIMCHECK
 70
0
  9
$BLIPMODE
 70
1
  9
$CHAMFERA
 40
0
  9
$CHAMFERB
 40
0
  9
$FASTZOOM
 70
1
  9
$SKPOLY
 70
0
  9
$ANGBASE
 50
0
  9
$ANGDIR
 70
0
  9
$PDMODE
 70
0
  9
$PDSIZE
 40
0
  9
$PLINEWID
 40
0
  9
$COORDS
 70
2
  0
ENDSEC
  0
SECTION
  2
TABLES
  0
TABLE
  2
DIMSTYLE
 70
0
  0
ENDTAB
  0
TABLE
  2
LTYPE
 70
9
  0
LTYPE
  2
CONTINUOUS
 70
64
  3
Solid line
 72
65
 73
0
 40
0
  0
LTYPE
  2
BORDER
 70
64
  3
__ __ . __ __ .
 72
65
 73
6
 40
20.79679718074957
 49
5.941942051642734
 49
-2.970971025821367
 49
5.941942051642734
 49
-2.970971025821367
 49
0
 49
-2.970971025821367
  0
LTYPE
  2
CENTER
 70
64
  3
____ _ ____ _
 72
65
 73
4
 40
23.76776820657094
 49
14.85485512910683
 49
-2.970971025821367
 49
2.970971025821367
 49
-2.970971025821367
  0
LTYPE
  2
DASHDOT
 70
64
  3
__ . __ . __ .
 72
65
 73
4
 40
11.88388410328547
 49
5.941942051642734
 49
-2.970971025821367
 49
0
 49
-2.970971025821367
  0
LTYPE
  2
DASHED
 70
64
  3
__ __ __ __ __
 72
65
 73
2
 40
8.912913077464101
 49
5.941942051642734
 49
-2.970971025821367
  0
LTYPE
  2
DIVIDE
 70
64
  3
__ . . __ . . 
 72
65
 73
6
 40
14.85485512910683
 49
5.941942051642734
 49
-2.970971025821367
 49
0
 49
-2.970971025821367
 49
0
 49
-2.970971025821367
  0
LTYPE
  2
DOT
 70
64
  3
..............
 72
65
 73
4
 40
5.941942051642734
 49
0
 49
-2.970971025821367
 49
0
 49
-2.970971025821367
  0
LTYPE
  2
HIDDEN
 70
64
  3
_ _ _ _ _ _ _
 72
65
 73
2
 40
4.45645653873205
 49
2.970971025821367
 49
-1.485485512910683
  0
LTYPE
  2
PHANTOM
 70
64
  3
_____ _ _ _____ _ _ 
 72
65
 73
6
 40
29.70971025821367
 49
14.85485512910683
 49
-2.970971025821367
 49
2.970971025821367
 49
-2.970971025821367
 49
2.970971025821367
 49
-2.970971025821367
  0
ENDTAB
  0
TABLE
  2
LAYER
 70
4
  0
LAYER
  2
DEFAULT_1
 70
0
 62
7
  6
CONTINUOUS
  0
LAYER
  2
0
 70
0
 62
7
  6
CONTINUOUS
  0
LAYER
  2
1
 70
0
 62
7
  6
CONTINUOUS
  0
ENDTAB
  0
TABLE
  2
STYLE
 70
4
  0
STYLE
  2
STANDARD
 70
0
 40
0
 41
1
 50
0
 71
0
 42
3.5
  3
txt
  4

  0
STYLE
  2
SIMPLEX
 70
0
 40
0
 41
1
 50
0
 71
0
 42
3.5
  3
simplex
  4

  0
STYLE
  2
COMPLEX
 70
0
 40
0
 41
1
 50
0
 71
0
 42
3.5
  3
complex
  4

  0
STYLE
  2
ITALIC
 70
0
 40
0
 41
1
 50
0
 71
0
 42
3.5
  3
italic
  4

  0
ENDTAB
  0
TABLE
  2
VIEW
 70
0
  0
ENDTAB
  0
ENDSEC
  0
SECTION
  2
BLOCKS
  0
ENDSEC
  0
SECTION
  2
ENTITIES
  0
POLYLINE
  8
0
 62
7
 66
1
  0
VERTEX
  8
0
 10
394.9345542247479
 20
57.71423826309996
 30
0
  0
VERTEX
  8
0
 10
394.0685178477479
 20
59.89058836069995
 30
0
  0
VERTEX
  8
0
 10
393.7802414805478
 20
62.05728025529999
 30
0
  0
VERTEX
  8
0
 10
394.0685178477479
 20
64.22391965949998
 30
0
  0
VERTEX
  8
0
 10
394.9345542247479
 20
66.40021726689997
 30
0
  0
SEQEND
  8
0
  0
POLYLINE
  8
0
 62
7
 66
1
  0
VERTEX
  8
0
 10
383.0659873301479
 20
283.0266796693
 30
0
  0
VERTEX
  8
0
 10
383.9319712169479
 20
287.3308788881
 30
0
  0
VERTEX
  8
0
 10
384.220247584148
 20
291.6159716614999
 30
0
  0
VERTEX
  8
0
 10
384.1888059337475
 20
302.3273913392999
 30
0
  0
SEQEND
  8
0
  0
POLYLINE
  8
0
 62
7
 66
1
  0
VERTEX
  8
0
 10
383.0659873301479
 20
245.6304321107
 30
0
  0
VERTEX
  8
0
 10
383.9319712169479
 20
252.4319592103
 30
0
  0
VERTEX
  8
0
 10
384.220247584148
 20
259.2033044251
 30
0
  0
VERTEX
  8
0
 10
383.9319712169479
 20
265.9745446594999
 30
0
  0
VERTEX
  8
0
 10
383.0659873301479
 20
272.7758617981
 30
0
  0
SEQEND
  8
0
  0
POLYLINE
  8
0
 62
7
 66
1
  0
VERTEX
  8
0
 10
394.9345542247479
 20
73.18376646129997
 30
0
  0
VERTEX
  8
0
 10
394.0685178477479
 20
78.35667905889994
 30
0
  0
VERTEX
  8
0
 10
393.7802414805478
 20
83.50667966930001
 30
0
  0
VERTEX
  8
0
 10
394.0685178477479
 20
88.65660154429992
 30
0
  0
VERTEX
  8
0
 10
394.9345542247479
 20
93.82938291629995
 30
0
  0
SEQEND
  8
0
  0
POLYLINE
  8
0
 62
7
 66
1
  0
VERTEX
  8
0
 10
383.0659873301479
 20
149.5092388733
 30
0
  0
VERTEX
  8
0
 10
383.9319712169479
 20
157.9764385805
 30
0
  0
VERTEX
  8
0
 10
384.220247584148
 20
166.4061077699
 30
0
  0
VERTEX
  8
0
 10
383.9319712169479
 20
174.8356719789001
 30
0
  0
VERTEX
  8
0
 10
383.0659873301479
 20
183.3026354799001
 30
0
  0
SEQEND
  8
0
  0
POLYLINE
  8
0
 62
7
 66
1
  0
VERTEX
  8
0
 10
383.0659873301479
 20
198.7453411682999
 30
0
  0
VERTEX
  8
0
 10
383.9319712169479
 20
207.0087212953001
 30
0
  0
VERTEX
  8
0
 10
384.220247584148
 20
215.2354632387
 30
0
  0
VERTEX
  8
0
 10
383.9319712169479
 20
223.4620739565
 30
0
  0
VERTEX
  8
0
 10
383.0659873301479
 20
231.7252178773001
 30
0
  0
SEQEND
  8
0
  0
POLYLINE
  8
0
 62
7
 66
1
  0
VERTEX
  8
0
 10
394.9345542247479
 20
105.4178881653
 30
0
  0
VERTEX
  8
0
 10
394.0685178477479
 20
112.7998522766999
 30
0
  0
VERTEX
  8
0
 10
393.7802414805478
 20
120.1491149721
 30
0
  0
VERTEX
  8
0
 10
394.0685178477479
 20
127.4982726869
 30
0
  0
VERTEX
  8
0
 10
394.9345542247479
 20
134.8800793274999
 30
0
  0
SEQEND
  8
0
  0
POLYLINE
  8
0
 62
7
 66
1
  0
VERTEX
  8
0
 10
394.9345542247479
 20
198.7453411682999
 30
0
  0
VERTEX
  8
0
 10
394.0685178477479
 20
207.0087212953001
 30
0
  0
VERTEX
  8
0
 10
393.7802414805478
 20
215.2354632387
 30
0
  0
VERTEX
  8
0
 10
394.0685178477479
 20
223.4620739565
 30
0
  0
VERTEX
  8
0
 10
394.9345542247479
 20
231.7252178773001
 30
0
  0
SEQEND
  8
0
  0
POLYLINE
  8
0
 62
7
 66
1
  0
VERTEX
  8
0
 10
394.9345542247479
 20
149.5092388733
 30
0
  0
VERTEX
  8
0
 10
394.0685178477479
 20
157.9764385805
 30
0
  0
VERTEX
  8
0
 10
393.7802414805478
 20
166.4061077699
 30
0
  0
VERTEX
  8
0
 10
394.0685178477479
 20
174.8356719789001
 30
0
  0
VERTEX
  8
0
 10
394.9345542247479
 20
183.3026354799001
 30
0
  0
SEQEND
  8
0
  0
POLYLINE
  8
0
 62
7
 66
1
  0
VERTEX
  8
0
 10
383.0659873301479
 20
105.4178881653
 30
0
  0
VERTEX
  8
0
 10
383.9319712169479
 20
112.7998522766999
 30
0
  0
VERTEX
  8
0
 10
384.220247584148
 20
120.1491149721
 30
0
  0
VERTEX
  8
0
 10
383.9319712169479
 20
127.4982726869
 30
0
  0
VERTEX
  8
0
 10
383.0659873301479
 20
134.8800793274999
 30
0
  0
SEQEND
  8
0
  0
POLYLINE
  8
0
 62
7
 66
1
  0
VERTEX
  8
0
 10
383.0659873301479
 20
73.18376646129997
 30
0
  0
VERTEX
  8
0
 10
383.9319712169479
 20
78.35667905889994
 30
0
  0
VERTEX
  8
0
 10
384.220247584148
 20
83.50667966930001
 30
0
  0
VERTEX
  8
0
 10
383.9319712169479
 20
88.65660154429992
 30
0
  0
VERTEX
  8
0
 10
383.0659873301479
 20
93.82938291629995
 30
0
  0
SEQEND
  8
0
  0
POLYLINE
  8
0
 62
7
 66
1
  0
VERTEX
  8
0
 10
394.9345542247479
 20
245.6304321107
 30
0
  0
VERTEX
  8
0
 10
394.0685178477479
 20
252.4319592103
 30
0
  0
VERTEX
  8
0
 10
393.7802414805478
 20
259.2033044251
 30
0
  0
VERTEX
  8
0
 10
394.0685178477479
 20
265.9745446594999
 30
0
  0
VERTEX
  8
0
 10
394.9345542247479
 20
272.7758617981
 30
0
  0
SEQEND
  8
0
  0
POLYLINE
  8
0
 62
7
 66
1
  0
VERTEX
  8
0
 10
394.9345542247479
 20
283.0266796693
 30
0
  0
VERTEX
  8
0
 10
394.0685178477479
 20
287.3308788881
 30
0
  0
VERTEX
  8
0
 10
393.8372459317479
 20
301.0124051509001
 30
0
  0
SEQEND
  8
0
  0
POLYLINE
  8
0
 62
7
 66
1
  0
VERTEX
  8
0
 10
383.0659873301479
 20
57.71423826309996
 30
0
  0
VERTEX
  8
0
 10
383.9319712169479
 20
59.89058836069995
 30
0
  0
VERTEX
  8
0
 10
384.220247584148
 20
62.05728025529999
 30
0
  0
VERTEX
  8
0
 10
383.9319712169479
 20
64.22391965949998
 30
0
  0
VERTEX
  8
0
 10
383.0659873301479
 20
66.40021726689997
 30
0
  0
SEQEND
  8
0
  0
POINT
  8
0
 62
7
  6
DOT
 10
388.0002482305479
 20
65.90263956389998
 30
0
  0
LINE
  8
0
 62
7
 10
-4.910677173460726
 20
175.5668153424192
 30
0
 11
1.742781385239141
 21
142.1176203710442
 31
0
  0
LINE
  8
0
 62
7
 10
129.1227396187418
 20
57.0050533805354
 30
0
 11
162.5719345899206
 21
63.65851193919633
 31
0
  0
LINE
  8
0
 62
7
 10
80.20188981723732
 20
63.65851193921088
 30
0
 11
113.6510847884722
 21
57.0050533805765
 31
0
  0
LINE
  8
0
 62
7
 10
37.5510863308391
 20
88.52670483823607
 30
0
 11
65.90794458548487
 21
69.57925791397628
 31
0
  0
LINE
  8
0
 62
7
 10
7.663527360053536
 20
127.8236751394906
 30
0
 11
26.61097428442542
 21
99.4668168849434
 31
0
  0
LINE
  8
0
 62
7
 10
1.742781385410808
 20
224.4876651439628
 30
0
 11
-4.910677173419572
 21
191.0384701726889
 31
0
  0
LINE
  8
0
 62
7
 10
26.61097428423977
 20
267.1384686303218
 30
0
 11
7.663527360019089
 21
238.7816103754801
 31
0
  0
LINE
  8
0
 62
7
 10
65.90794458549453
 20
297.0260276011073
 30
0
 11
37.55108633094721
 21
278.0785806767355
 31
0
  0
LINE
  8
DEFAULT_1
 62
2
  6
CENTER
 10
249.7241589712999
 20
183.3026427575
 30
0
 11
137.3870122037001
 21
183.3026427575
 31
0
  0
LINE
  8
DEFAULT_1
 62
2
  6
CENTER
 10
137.3870122037001
 20
183.3026427575
 30
0
 11
-8.502099342100109
 21
183.3026427575
 31
0
  0
LINE
  8
DEFAULT_1
 62
2
  6
CENTER
 10
121.3869122037
 20
139.252296266993
 30
0
 11
121.3869122036999
 21
317.6509867979
 31
0
  0
LINE
  8
0
 62
7
 10
113.6510847884621
 20
309.6002321344255
 30
0
 11
80.20188981728325
 21
302.9467735757648
 31
0
  0
LINE
  8
0
 62
7
 10
162.5719345899667
 20
302.9467735757501
 30
0
 11
129.1227396186927
 21
309.6002321345805
 31
0
  0
LINE
  8
0
 62
7
 10
232.7350543699668
 20
228.3711397173459
 30
0
 11
231.9901784201157
 21
230.1694293378391
 31
0
  0
LINE
  8
0
 62
7
 10
247.6845015806646
 20
191.0384701725417
 30
0
 11
241.0310430219647
 21
224.4876651439167
 31
0
  0
LINE
  8
0
 62
7
 10
241.03104302195
 20
142.1176203712334
 30
0
 11
247.6845015805845
 21
175.5668153424683
 31
0
  0
LINE
  8
0
 62
7
 10
216.162850122925
 20
99.4668168848354
 30
0
 11
235.1102970471848
 21
127.8236751394811
 31
0
  0
LINE
  8
0
 62
7
 10
176.8658798216703
 20
69.57925791404972
 30
0
 11
205.2227380762568
 21
88.52670483822539
 31
0
  0
LINE
  8
0
 62
7
 10
205.2227380763646
 20
278.0785806767249
 30
0
 11
176.86587982168
 21
297.0260276011809
 31
0
  0
LINE
  8
0
 62
7
 10
235.1102970471111
 20
238.7816103756665
 30
0
 11
216.1628501229355
 21
267.1384686302528
 31
0
  0
LINE
  8
0
 62
7
 10
419.0002243907479
 20
56.76836423969996
 30
0
 11
394.9345542247479
 21
56.76836423969996
 31
0
  0
LINE
  8
0
 62
7
 10
383.0659873301479
 20
56.76836423969996
 30
0
 11
359.0002646739479
 21
56.76836423969996
 31
0
  0
LINE
  8
0
 62
7
 10
419.0002243907479
 20
57.71423826309996
 30
0
 11
394.9345542247479
 21
57.71423826309996
 31
0
  0
LINE
  8
0
 62
7
 10
383.0659873301479
 20
57.71423826309996
 30
0
 11
359.0002646739479
 21
57.71423826309996
 31
0
  0
LINE
  8
0
 62
7
 10
392.0002451427479
 20
65.90263609009998
 30
0
 11
386.0002439219479
 21
65.90263609009998
 31
0
  0
LINE
  8
0
 62
7
 10
419.0002243907479
 20
66.40021726689997
 30
0
 11
394.9345542247479
 21
66.40021726689997
 31
0
  0
LINE
  8
0
 62
7
 10
383.0659873301479
 20
66.40021726689997
 30
0
 11
359.0002646739479
 21
66.40021726689997
 31
0
  0
LINE
  8
0
 62
7
 10
419.0002243907479
 20
69.52503965470004
 30
0
 11
393.000236597748
 21
69.52503965470004
 31
0
  0
LINE
  8
0
 62
7
 10
385.0002524669478
 20
69.52503965470004
 30
0
 11
359.0002646739479
 21
69.52503965470004
 31
0
  0
LINE
  8
0
 62
7
 10
419.0002243907479
 20
73.18376646129997
 30
0
 11
394.9345542247479
 21
73.18376646129997
 31
0
  0
LINE
  8
0
 62
7
 10
383.0659873301479
 20
73.18376646129997
 30
0
 11
359.0002646739479
 21
73.18376646129997
 31
0
  0
LINE
  8
0
 62
7
 10
419.0002243907479
 20
93.82938291629995
 30
0
 11
394.9345542247479
 21
93.82938291629995
 31
0
  0
LINE
  8
0
 62
7
 10
383.0659873301479
 20
93.82938291629995
 30
0
 11
359.0002646739479
 21
93.82938291629995
 31
0
  0
LINE
  8
0
 62
7
 10
419.0002243907479
 20
96.71626707169997
 30
0
 11
393.000236597748
 21
96.71626707169997
 31
0
  0
LINE
  8
0
 62
7
 10
385.0002524669478
 20
96.71626707169997
 30
0
 11
359.0002646739479
 21
96.71626707169997
 31
0
  0
LINE
  8
0
 62
7
 10
393.000236597748
 20
74.4742651185
 30
0
 11
394.9345542247479
 21
73.18376646129997
 31
0
  0
LINE
  8
0
 62
7
 10
393.000236597748
 20
59.53872007449996
 30
0
 11
394.9345542247479
 21
57.71423826309996
 31
0
  0
LINE
  8
0
 62
7
 10
394.9345542247479
 20
309.8369067201
 30
0
 11
393.000236597748
 21
307.9026415833
 31
0
  0
LINE
  8
0
 62
7
 10
419.0002243907479
 20
102.9881677065
 30
0
 11
393.000236597748
 21
102.9881677065
 31
0
  0
LINE
  8
0
 62
7
 10
385.0002524669478
 20
102.9881677065
 30
0
 11
359.0002646739479
 21
102.9881677065
 31
0
  0
LINE
  8
0
 62
7
 10
419.0002243907479
 20
104.4460839661001
 30
0
 11
393.000236597748
 21
104.4460839661001
 31
0
  0
LINE
  8
0
 62
7
 10
385.0002524669478
 20
104.4460839661001
 30
0
 11
359.0002646739479
 21
104.4460839661001
 31
0
  0
LINE
  8
0
 62
7
 10
419.0002243907479
 20
105.4178881653
 30
0
 11
394.9345542247479
 21
105.4178881653
 31
0
  0
LINE
  8
0
 62
7
 10
383.0659873301479
 20
105.4178881653
 30
0
 11
359.0002646739479
 21
105.4178881653
 31
0
  0
LINE
  8
0
 62
7
 10
394.9345542247479
 20
56.76836423969996
 30
0
 11
393.000236597748
 21
58.70522764289996
 31
0
  0
LINE
  8
0
 62
7
 10
394.9345542247479
 20
272.7758617981
 30
0
 11
393.000236597748
 21
271.9734960755
 31
0
  0
LINE
  8
0
 62
7
 10
393.000236597748
 20
105.9779327211
 30
0
 11
394.9345542247479
 21
105.4178881653
 31
0
  0
LINE
  8
0
 62
7
 10
394.9345542247479
 20
66.40021726689997
 30
0
 11
393.000236597748
 21
68.49657224750007
 31
0
  0
LINE
  8
0
 62
7
 10
393.000236597748
 20
281.0065405091
 30
0
 11
394.9345542247479
 21
283.0266796693
 31
0
  0
LINE
  8
0
 62
7
 10
394.9345542247479
 20
93.82938291629995
 30
0
 11
393.000236597748
 21
95.76611509410003
 31
0
  0
LINE
  8
0
 62
7
 10
419.0002243907479
 20
134.8800793274999
 30
0
 11
394.9345542247479
 21
134.8800793274999
 31
0
  0
LINE
  8
0
 62
7
 10
383.0659873301479
 20
134.8800793274999
 30
0
 11
359.0002646739479
 21
134.8800793274999
 31
0
  0
LINE
  8
0
 62
7
 10
419.0002243907479
 20
137.0894720277
 30
0
 11
393.000236597748
 21
137.0894720277
 31
0
  0
LINE
  8
0
 62
7
 10
385.0002524669478
 20
137.0894720277
 30
0
 11
359.0002646739479
 21
137.0894720277
 31
0
  0
LINE
  8
0
 62
7
 10
419.0002243907479
 20
143.2853930481001
 30
0
 11
393.000236597748
 21
143.2853930481001
 31
0
  0
LINE
  8
0
 62
7
 10
385.0002524669478
 20
143.2853930481001
 30
0
 11
359.0002646739479
 21
143.2853930481001
 31
0
  0
LINE
  8
0
 62
7
 10
393.000236597748
 20
243.9783807191
 30
0
 11
394.9345542247479
 21
245.6304321107
 31
0
  0
LINE
  8
0
 62
7
 10
393.000236597748
 20
149.2535851869
 30
0
 11
394.9345542247479
 21
149.5092388733
 31
0
  0
LINE
  8
0
 62
7
 10
419.0002243907479
 20
145.1258581361
 30
0
 11
393.000236597748
 21
145.1258581361
 31
0
  0
LINE
  8
0
 62
7
 10
385.0002524669478
 20
145.1258581361
 30
0
 11
359.0002646739479
 21
145.1258581361
 31
0
  0
LINE
  8
0
 62
7
 10
419.0002243907479
 20
149.1281597719
 30
0
 11
393.000236597748
 21
149.1281597719
 31
0
  0
LINE
  8
0
 62
7
 10
385.0002524669478
 20
149.1281597719
 30
0
 11
359.0002646739479
 21
149.1281597719
 31
0
  0
LINE
  8
0
 62
7
 10
419.0002243907479
 20
149.5092388733
 30
0
 11
394.9345542247479
 21
149.5092388733
 31
0
  0
LINE
  8
0
 62
7
 10
383.0659873301479
 20
149.5092388733
 30
0
 11
359.0002646739479
 21
149.5092388733
 31
0
  0
LINE
  8
0
 62
7
 10
385.0002524669478
 20
149.2535851869
 30
0
 11
383.0659873301479
 21
149.5092388733
 31
0
  0
LINE
  8
0
 62
7
 10
394.9345542247479
 20
134.8800793274999
 30
0
 11
393.000236597748
 21
136.3622985657
 31
0
  0
LINE
  8
0
 62
7
 10
359.0002482305479
 20
56.76835600249996
 30
0
 11
359.0002646739479
 21
309.8369067201
 31
0
  0
LINE
  8
0
 62
7
 10
385.0002482305479
 20
58.70522412029999
 30
0
 11
385.0002524669478
 21
302.0330785951
 31
0
  0
LINE
  8
0
 62
7
 10
385.0002524669478
 20
301.7026525696999
 30
0
 11
385.0002524669478
 21
307.9026415833
 31
0
  0
LINE
  8
DEFAULT_1
 62
2
  6
CENTER
 10
389.0002482305479
 20
56.79278987269998
 30
0
 11
389.0002482305479
 21
309.5511949055
 31
0
  0
LINE
  8
0
 62
7
 10
393.000236597748
 20
197.7128845033
 30
0
 11
394.9345542247479
 21
198.7453411682999
 31
0
  0
LINE
  8
0
 62
7
 10
419.0002243907479
 20
183.3026354799001
 30
0
 11
394.9345542247479
 21
183.3026354799001
 31
0
  0
LINE
  8
0
 62
7
 10
383.0659873301479
 20
183.3026354799001
 30
0
 11
359.0002646739479
 21
183.3026354799001
 31
0
  0
LINE
  8
0
 62
7
 10
419.0002243907479
 20
184.4982055483001
 30
0
 11
393.000236597748
 21
184.4982055483001
 31
0
  0
LINE
  8
0
 62
7
 10
385.0002524669478
 20
184.4982055483001
 30
0
 11
359.0002646739479
 21
184.4982055483001
 31
0
  0
LINE
  8
0
 62
7
 10
394.9345542247479
 20
183.3026354799001
 30
0
 11
393.000236597748
 21
184.1047125063
 31
0
  0
LINE
  8
0
 62
7
 10
392.0002451427479
 20
300.7026611147
 30
0
 11
392.0002451427479
 21
65.90263609009998
 31
0
  0
LINE
  8
0
 62
7
 10
393.000236597748
 20
301.7026525696999
 30
0
 11
393.000236597748
 21
307.9026415833
 31
0
  0
LINE
  8
0
 62
7
 10
393.0002482305479
 20
58.70522412029999
 30
0
 11
393.000236597748
 21
300.8367736635
 31
0
  0
LINE
  8
0
 62
7
 10
383.0659873301479
 20
183.3026354799001
 30
0
 11
385.0002524669478
 21
184.1047125063
 31
0
  0
LINE
  8
0
 62
7
 10
419.0002243907479
 20
189.6748711976999
 30
0
 11
393.000236597748
 21
189.6748711976999
 31
0
  0
LINE
  8
0
 62
7
 10
385.0002524669478
 20
189.6748711976999
 30
0
 11
359.0002646739479
 21
189.6748711976999
 31
0
  0
LINE
  8
0
 62
7
 10
419.0002243907479
 20
191.6176922424999
 30
0
 11
393.000236597748
 21
191.6176922424999
 31
0
  0
LINE
  8
0
 62
7
 10
385.0002524669478
 20
191.6176922424999
 30
0
 11
359.0002646739479
 21
191.6176922424999
 31
0
  0
LINE
  8
0
 62
7
 10
419.0002243907479
 20
197.2063799867
 30
0
 11
393.000236597748
 21
197.2063799867
 31
0
  0
LINE
  8
0
 62
7
 10
385.0002524669478
 20
197.2063799867
 30
0
 11
359.0002646739479
 21
197.2063799867
 31
0
  0
LINE
  8
0
 62
7
 10
385.0002524669478
 20
197.7128845033
 30
0
 11
383.0659873301479
 21
198.7453411682999
 31
0
  0
LINE
  8
0
 62
7
 10
419.0002243907479
 20
198.7453411682999
 30
0
 11
394.9345542247479
 21
198.7453411682999
 31
0
  0
LINE
  8
0
 62
7
 10
383.0659873301479
 20
198.7453411682999
 30
0
 11
359.0002646739479
 21
198.7453411682999
 31
0
  0
LINE
  8
0
 62
7
 10
419.0002482305479
 20
56.76835600249996
 30
0
 11
419.0002243907479
 21
309.8369067201
 31
0
  0
LINE
  8
0
 62
7
 10
383.0659873301479
 20
134.8800793274999
 30
0
 11
385.0002524669478
 21
136.3622985657
 31
0
  0
LINE
  8
0
 62
7
 10
419.0002243907479
 20
231.7252178773001
 30
0
 11
393.0002482305479
 21
231.7250270092999
 31
0
  0
LINE
  8
0
 62
7
 10
385.0002482305479
 20
231.7252117858999
 30
0
 11
359.0002646739479
 21
231.7252178773001
 31
0
  0
LINE
  8
0
 62
7
 10
385.0002524669478
 20
243.9783807191
 30
0
 11
383.0659873301479
 21
245.6304321107
 31
0
  0
LINE
  8
0
 62
7
 10
419.0002243907479
 20
235.0942248353001
 30
0
 11
393.000236597748
 21
235.0942248353001
 31
0
  0
LINE
  8
0
 62
7
 10
385.0002524669478
 20
235.0942248353001
 30
0
 11
359.0002646739479
 21
235.0942248353001
 31
0
  0
LINE
  8
0
 62
7
 10
419.0002243907479
 20
236.8436193665
 30
0
 11
393.000236597748
 21
236.8436193665
 31
0
  0
LINE
  8
0
 62
7
 10
385.0002524669478
 20
236.8436193665
 30
0
 11
359.0002646739479
 21
236.8436193665
 31
0
  0
LINE
  8
0
 62
7
 10
383.0659873301479
 20
93.82938291629995
 30
0
 11
385.0002524669478
 21
95.76611509410003
 31
0
  0
LINE
  8
0
 62
7
 10
419.0002243907479
 20
243.1678790101
 30
0
 11
393.000236597748
 21
243.1678790101
 31
0
  0
LINE
  8
0
 62
7
 10
385.0002524669478
 20
243.1678790101
 30
0
 11
359.0002646739479
 21
243.1678790101
 31
0
  0
LINE
  8
0
 62
7
 10
419.0002243907479
 20
245.6304321107
 30
0
 11
394.9345542247479
 21
245.6304321107
 31
0
  0
LINE
  8
0
 62
7
 10
383.0659873301479
 20
245.6304321107
 30
0
 11
359.0002646739479
 21
245.6304321107
 31
0
  0
LINE
  8
0
 62
7
 10
385.0002524669478
 20
281.0065405091
 30
0
 11
383.0659873301479
 21
283.0266796693
 31
0
  0
LINE
  8
0
 62
7
 10
383.0659873301479
 20
66.40021726689997
 30
0
 11
385.0002524669478
 21
68.49657224750007
 31
0
  0
LINE
  8
0
 62
7
 10
385.0002524669478
 20
105.9779327211
 30
0
 11
383.0659873301479
 21
105.4178881653
 31
0
  0
LINE
  8
0
 62
7
 10
383.0659873301479
 20
272.7758617981
 30
0
 11
385.0002524669478
 21
271.9734960755
 31
0
  0
LINE
  8
0
 62
7
 10
383.0659873301479
 20
56.76836423969996
 30
0
 11
385.0002524669478
 21
58.70522764289996
 31
0
  0
LINE
  8
0
 62
7
 10
385.0002524669478
 20
59.53872007449996
 30
0
 11
383.0659873301479
 21
57.71423826309996
 31
0
  0
LINE
  8
0
 62
7
 10
394.5797374615479
 20
272.6288058067
 30
0
 11
393.0002482305479
 21
272.6288058067
 31
0
  0
LINE
  8
0
 62
7
 10
385.0002482305479
 20
272.6288058067
 30
0
 11
383.420758999348
 21
272.6288058067
 31
0
  0
LINE
  8
0
 62
7
 10
419.0002243907479
 20
272.7758617981
 30
0
 11
394.9345542247479
 21
272.7758617981
 31
0
  0
LINE
  8
0
 62
7
 10
383.0659873301479
 20
272.7758617981
 30
0
 11
359.0002646739479
 21
272.7758617981
 31
0
  0
LINE
  8
0
 62
7
 10
419.0002243907479
 20
273.9184167299
 30
0
 11
393.000236597748
 21
273.9184167299
 31
0
  0
LINE
  8
0
 62
7
 10
385.0002524669478
 20
273.9184167299
 30
0
 11
359.0002646739479
 21
273.9184167299
 31
0
  0
LINE
  8
0
 62
7
 10
385.0002524669478
 20
307.9026415833
 30
0
 11
383.0659873301479
 21
309.8369067201
 31
0
  0
LINE
  8
0
 62
7
 10
385.0002524669478
 20
74.4742651185
 30
0
 11
383.0659873301479
 21
73.18376646129997
 31
0
  0
LINE
  8
0
 62
7
 10
419.0002243907479
 20
280.0154199036999
 30
0
 11
393.000236597748
 21
280.0154199036999
 31
0
  0
LINE
  8
0
 62
7
 10
385.0002524669478
 20
280.0154199036999
 30
0
 11
359.0002646739479
 21
280.0154199036999
 31
0
  0
LINE
  8
0
 62
7
 10
419.0002243907479
 20
283.0266796693
 30
0
 11
394.9345542247479
 21
283.0266796693
 31
0
  0
LINE
  8
0
 62
7
 10
383.0659873301479
 20
283.0266796693
 30
0
 11
359.0002646739479
 21
283.0266796693
 31
0
  0
LINE
  8
0
 62
7
 10
419.0002482305479
 20
300.2050730255
 30
0
 11
393.8508930383575
 21
300.2050730255
 31
0
  0
LINE
  8
0
 62
7
 10
384.1950356579548
 20
300.2050730255
 30
0
 11
359.0002482305479
 21
300.2050730255
 31
0
  0
LINE
  8
0
 62
7
 10
386.0002439219479
 20
300.7026611147
 30
0
 11
392.0002451427479
 21
300.7026611147
 31
0
  0
LINE
  8
0
 62
7
 10
419.0002482305479
 20
302.1393590741
 30
0
 11
393.000236597748
 21
302.1393590741
 31
0
  0
LINE
  8
0
 62
7
 10
385.0002524669478
 20
302.1393590741
 30
0
 11
359.0002482305479
 21
302.1393590741
 31
0
  0
LINE
  8
0
 62
7
 10
419.0002482305479
 20
305.2408675817
 30
0
 11
393.000236597748
 21
305.2408675817
 31
0
  0
LINE
  8
0
 62
7
 10
385.0002524669478
 20
305.2408675817
 30
0
 11
359.0002482305479
 21
305.2408675817
 31
0
  0
LINE
  8
0
 62
7
 10
359.0002482305479
 20
309.8369231255001
 30
0
 11
383.065967834948
 21
309.8369231255001
 31
0
  0
LINE
  8
0
 62
7
 10
394.9345286259479
 20
309.8369231255001
 30
0
 11
419.0002482305479
 21
309.8369231255001
 31
0
  0
LINE
  8
DEFAULT_1
 62
2
  6
CENTER
 10
121.3869122037
 20
139.252296266993
 30
0
 11
121.3869122036999
 21
45.80827795210001
 31
0
  0
LINE
  8
1
 62
7
 10
235.1102970471111
 20
238.7816103756665
 30
0
 11
231.1799496075855
 21
232.027584505203
 31
0
  0
LINE
  8
1
 62
7
 10
231.1799496075855
 20
232.027584505203
 30
0
 11
232.3626163950887
 21
229.2702845274779
 31
0
  0
LINE
  8
0
 62
7
 10
232.735054370089
 20
228.3711397171283
 30
0
 11
231.9901784201834
 21
230.1694293375987
 31
0
  0
LINE
  8
1
 62
7
 10
233.4760502017761
 20
226.4843073101354
 30
0
 11
241.0310430219979
 21
224.4876651437291
 31
0
  0
LINE
  8
1
 62
7
 10
232.3626163950887
 20
229.2702845274779
 30
0
 11
233.4760502017761
 21
226.4843073101354
 31
0
  0
LINE
  8
0
 62
7
 10
207.0122146263379
 20
267.5515938912575
 30
0
 11
205.6358633376121
 21
268.9279451799416
 31
0
  0
LINE
  8
1
 62
7
 10
208.4188650107155
 20
266.0919548773961
 30
0
 11
216.1628501230334
 21
267.1384686300403
 31
0
  0
LINE
  8
1
 62
7
 10
206.3240389818873
 20
268.2397695356872
 30
0
 11
208.4188650107155
 21
266.0919548773961
 31
0
  0
LINE
  8
0
 62
7
 10
207.0122146261417
 20
267.5515938914118
 30
0
 11
205.6358633374578
 21
268.9279451801377
 31
0
  0
LINE
  8
1
 62
7
 10
205.2227380762406
 20
278.0785806768333
 30
0
 11
204.1762243235962
 21
270.3345955645154
 31
0
  0
LINE
  8
1
 62
7
 10
204.1762243235962
 20
270.3345955645154
 30
0
 11
206.3240389818873
 21
268.2397695356872
 31
0
  0
LINE
  8
0
 62
7
 10
122.3601395333621
 20
303.4218793962298
 30
0
 11
120.4136848742859
 21
303.4218793962003
 31
0
  0
LINE
  8
0
 62
7
 10
162.5719345901628
 20
302.946773575789
 30
0
 11
129.1227396189279
 21
309.6002321344234
 31
0
  0
LINE
  8
1
 62
7
 10
124.3869122037
 20
303.3844107769961
 30
0
 11
129.1227396189279
 21
309.6002321344234
 31
0
  0
LINE
  8
1
 62
7
 10
121.3869122037
 20
303.4218793962151
 30
0
 11
124.3869122037
 21
303.3844107769961
 31
0
  0
LINE
  8
0
 62
7
 10
122.3601395331143
 20
303.4218793962002
 30
0
 11
120.413684874038
 21
303.4218793962298
 31
0
  0
LINE
  8
1
 62
7
 10
113.6510847884722
 20
309.6002321344234
 30
0
 11
118.3869122037002
 21
303.3844107769961
 31
0
  0
LINE
  8
1
 62
7
 10
118.3869122037002
 20
303.3844107769961
 30
0
 11
121.3869122037
 21
303.4218793962151
 31
0
  0
LINE
  8
0
 62
7
 10
168.2536987837987
 20
293.9059089739837
 30
0
 11
166.4554091633283
 21
294.6507849238892
 31
0
  0
LINE
  8
1
 62
7
 10
162.571934589929
 20
302.9467735757981
 30
0
 11
164.5685767563355
 21
295.3917807555765
 31
0
  0
LINE
  8
1
 62
7
 10
164.5685767563355
 20
295.3917807555765
 30
0
 11
167.3545539736781
 21
294.278346948889
 31
0
  0
LINE
  8
0
 62
7
 10
168.253698784039
 20
293.9059089739162
 30
0
 11
166.4554091635459
 21
294.6507849237671
 31
0
  0
LINE
  8
1
 62
7
 10
170.1118539514032
 20
293.0956801613859
 30
0
 11
176.8658798218664
 21
297.0260276009116
 31
0
  0
LINE
  8
1
 62
7
 10
167.3545539736781
 20
294.278346948889
 30
0
 11
170.1118539514032
 21
293.0956801613859
 31
0
  0
LINE
  8
0
 62
7
 10
65.90794458569076
 20
297.0260276011463
 30
0
 11
37.55108633114332
 21
278.0785806767745
 31
0
  0
LINE
  8
0
 62
7
 10
1.267675564970205
 20
184.275870087162
 30
0
 11
1.267675564999763
 21
182.3294154280858
 31
0
  0
LINE
  8
0
 62
7
 10
26.610974284436
 20
267.1384686303608
 30
0
 11
7.663527360215312
 21
238.7816103755189
 31
0
  0
LINE
  8
0
 62
7
 10
1.742781385410808
 20
224.4876651439628
 30
0
 11
-4.910677173223462
 21
191.038470172728
 31
0
  0
LINE
  8
1
 62
7
 10
1.305144184203982
 20
186.3026427575
 30
0
 11
-4.910677173223462
 21
191.038470172728
 31
0
  0
LINE
  8
1
 62
7
 10
1.267675564984984
 20
183.3026427575
 30
0
 11
1.305144184203982
 21
186.3026427575
 31
0
  0
LINE
  8
0
 62
7
 10
1.267675564999763
 20
184.2758700869142
 30
0
 11
1.267675564970205
 21
182.329415427838
 31
0
  0
LINE
  8
1
 62
7
 10
-4.910677173223462
 20
175.5668153422723
 30
0
 11
1.305144184203982
 21
180.3026427575001
 31
0
  0
LINE
  8
1
 62
7
 10
1.305144184203982
 20
180.3026427575001
 30
0
 11
1.267675564984984
 21
183.3026427575
 31
0
  0
LINE
  8
0
 62
7
 10
10.78364598721623
 20
230.1694293375987
 30
0
 11
10.03877003731077
 21
228.3711397171283
 31
0
  0
LINE
  8
1
 62
7
 10
1.742781385401941
 20
224.487665143729
 30
0
 11
9.297774205623568
 21
226.4843073101354
 31
0
  0
LINE
  8
1
 62
7
 10
9.297774205623568
 20
226.4843073101354
 30
0
 11
10.41120801231091
 21
229.2702845274779
 31
0
  0
LINE
  8
0
 62
7
 10
10.78364598728376
 20
230.1694293378391
 30
0
 11
10.03877003743287
 21
228.3711397173459
 31
0
  0
LINE
  8
1
 62
7
 10
11.5938747998141
 20
232.027584505203
 30
0
 11
7.663527360288299
 21
238.7816103756664
 31
0
  0
LINE
  8
1
 62
7
 10
10.41120801231091
 20
229.2702845274779
 30
0
 11
11.5938747998141
 21
232.027584505203
 31
0
  0
LINE
  8
0
 62
7
 10
76.31841524385413
 20
294.6507849237667
 30
0
 11
74.52012562336108
 21
293.9059089739157
 31
0
  0
LINE
  8
0
 62
7
 10
65.90794458553341
 20
297.0260276009112
 30
0
 11
37.55108633094721
 21
278.0785806767355
 31
0
  0
LINE
  8
1
 62
7
 10
65.90794458553341
 20
297.0260276009112
 30
0
 11
72.66197045599688
 21
293.0956801613855
 31
0
  0
LINE
  8
1
 62
7
 10
72.66197045599688
 20
293.0956801613855
 30
0
 11
75.41927043372209
 21
294.2783469488887
 31
0
  0
LINE
  8
0
 62
7
 10
76.31841524407173
 20
294.6507849238889
 30
0
 11
74.5201256236013
 21
293.9059089739833
 31
0
  0
LINE
  8
1
 62
7
 10
78.20524765106461
 20
295.391780755576
 30
0
 11
80.20188981747094
 21
302.9467735757978
 31
0
  0
LINE
  8
1
 62
7
 10
75.41927043372209
 20
294.2783469488887
 30
0
 11
78.20524765106461
 21
295.391780755576
 31
0
  0
LINE
  8
0
 62
7
 10
37.13796106994255
 20
268.9279451801378
 30
0
 11
35.76160978125836
 21
267.551593891412
 31
0
  0
LINE
  8
1
 62
7
 10
38.59760008380385
 20
270.3345955645154
 30
0
 11
37.5510863311597
 21
278.0785806768334
 31
0
  0
LINE
  8
1
 62
7
 10
36.4497854255128
 20
268.2397695356873
 30
0
 11
38.59760008380385
 21
270.3345955645154
 31
0
  0
LINE
  8
0
 62
7
 10
37.13796106978816
 20
268.9279451799417
 30
0
 11
35.76160978106236
 21
267.5515938912577
 31
0
  0
LINE
  8
1
 62
7
 10
26.61097428436688
 20
267.1384686300407
 30
0
 11
34.35495939668454
 21
266.0919548773963
 31
0
  0
LINE
  8
1
 62
7
 10
34.35495939668454
 20
266.0919548773963
 30
0
 11
36.4497854255128
 21
268.2397695356873
 31
0
  0
LINE
  8
0
 62
7
 10
7.663527360092644
 20
127.8236751392945
 30
0
 11
26.61097428446442
 21
99.46681688474729
 31
0
  0
LINE
  8
0
 62
7
 10
37.5510863308391
 20
88.52670483823607
 30
0
 11
65.90794458552387
 21
69.57925791378005
 31
0
  0
LINE
  8
0
 62
7
 10
80.20188981723732
 20
63.65851193921088
 30
0
 11
113.6510847885111
 21
57.00505338038045
 31
0
  0
LINE
  8
0
 62
7
 10
129.1227396187418
 20
57.0050533805354
 30
0
 11
162.5719345899206
 21
63.65851193919633
 31
0
  0
LINE
  8
0
 62
7
 10
176.8658798217093
 20
69.57925791385372
 30
0
 11
205.2227380762568
 21
88.52670483822539
 31
0
  0
LINE
  8
0
 62
7
 10
241.5061488424299
 20
182.329415427838
 30
0
 11
241.5061488424003
 21
184.2758700869142
 31
0
  0
LINE
  8
0
 62
7
 10
216.1628501229639
 20
99.46681688463917
 30
0
 11
235.1102970471848
 21
127.8236751394811
 31
0
  0
LINE
  8
0
 62
7
 10
241.031043021989
 20
142.1176203710373
 30
0
 11
247.6845015806234
 21
175.5668153422722
 31
0
  0
LINE
  8
1
 62
7
 10
241.4686802231961
 20
180.3026427575
 30
0
 11
247.6845015806234
 21
175.5668153422722
 31
0
  0
LINE
  8
1
 62
7
 10
241.5061488424151
 20
183.3026427575
 30
0
 11
241.4686802231961
 21
180.3026427575
 31
0
  0
LINE
  8
0
 62
7
 10
241.5061488424003
 20
182.3294154280858
 30
0
 11
241.5061488424299
 21
184.275870087162
 31
0
  0
LINE
  8
1
 62
7
 10
247.6845015806234
 20
191.0384701727278
 30
0
 11
241.4686802231961
 21
186.3026427575
 31
0
  0
LINE
  8
1
 62
7
 10
241.4686802231961
 20
186.3026427575
 30
0
 11
241.5061488424151
 21
183.3026427575
 31
0
  0
LINE
  8
0
 62
7
 10
231.9901784201838
 20
136.4358561774014
 30
0
 11
232.7350543700893
 21
138.2341457978718
 31
0
  0
LINE
  8
1
 62
7
 10
241.0310430219981
 20
142.117620371271
 30
0
 11
233.4760502017764
 21
140.1209782048647
 31
0
  0
LINE
  8
1
 62
7
 10
233.4760502017764
 20
140.1209782048647
 30
0
 11
232.3626163950891
 21
137.3350009875221
 31
0
  0
LINE
  8
0
 62
7
 10
231.9901784201161
 20
136.435856177161
 30
0
 11
232.7350543699672
 21
138.2341457976542
 31
0
  0
LINE
  8
1
 62
7
 10
231.179949607586
 20
134.577701009797
 30
0
 11
235.1102970471117
 21
127.8236751393335
 31
0
  0
LINE
  8
1
 62
7
 10
232.3626163950891
 20
137.3350009875221
 30
0
 11
231.179949607586
 21
134.577701009797
 31
0
  0
LINE
  8
0
 62
7
 10
166.4554091635459
 20
71.95450059123328
 30
0
 11
168.253698784039
 21
72.69937654108429
 31
0
  0
LINE
  8
0
 62
7
 10
176.8658798218664
 20
69.57925791408883
 30
0
 11
205.2227380764527
 21
88.52670483826449
 31
0
  0
LINE
  8
1
 62
7
 10
176.8658798218664
 20
69.57925791408883
 30
0
 11
170.1118539514032
 21
73.50960535361452
 31
0
  0
LINE
  8
1
 62
7
 10
170.1118539514032
 20
73.50960535361452
 30
0
 11
167.3545539736779
 21
72.32693856611132
 31
0
  0
LINE
  8
0
 62
7
 10
166.4554091633283
 20
71.95450059111107
 30
0
 11
168.2536987837987
 21
72.69937654101676
 31
0
  0
LINE
  8
1
 62
7
 10
164.5685767563355
 20
71.21350475942398
 30
0
 11
162.571934589929
 21
63.65851193920224
 31
0
  0
LINE
  8
1
 62
7
 10
167.3545539736779
 20
72.32693856611132
 30
0
 11
164.5685767563355
 21
71.21350475942398
 31
0
  0
LINE
  8
0
 62
7
 10
205.6358633374575
 20
97.67734033486221
 30
0
 11
207.0122146261415
 21
99.05369162358801
 31
0
  0
LINE
  8
1
 62
7
 10
204.1762243235961
 20
96.27068995048461
 30
0
 11
205.2227380762403
 21
88.52670483816672
 31
0
  0
LINE
  8
1
 62
7
 10
206.3240389818873
 20
98.36551597931276
 30
0
 11
204.1762243235961
 21
96.27068995048461
 31
0
  0
LINE
  8
0
 62
7
 10
205.6358633376119
 20
97.67734033505832
 30
0
 11
207.0122146263377
 21
99.05369162374228
 31
0
  0
LINE
  8
1
 62
7
 10
216.1628501230332
 20
99.46681688495931
 30
0
 11
208.4188650107154
 21
100.5133306376037
 31
0
  0
LINE
  8
1
 62
7
 10
208.4188650107154
 20
100.5133306376037
 30
0
 11
206.3240389818873
 21
98.36551597931276
 31
0
  0
LINE
  8
0
 62
7
 10
80.20188981743331
 20
63.65851193924993
 30
0
 11
113.6510847887073
 21
57.0050533804195
 31
0
  0
LINE
  8
0
 62
7
 10
10.03877003743332
 20
138.2341457976541
 30
0
 11
10.78364598728422
 21
136.435856177161
 31
0
  0
LINE
  8
0
 62
7
 10
37.55108633103532
 20
88.52670483827507
 30
0
 11
65.90794458572009
 21
69.57925791381916
 31
0
  0
LINE
  8
0
 62
7
 10
7.663527360288867
 20
127.8236751393335
 30
0
 11
26.61097428446442
 21
99.46681688474729
 31
0
  0
LINE
  8
1
 62
7
 10
7.663527360288867
 20
127.8236751393335
 30
0
 11
11.59387479981444
 21
134.577701009797
 31
0
  0
LINE
  8
1
 62
7
 10
11.59387479981444
 20
134.577701009797
 30
0
 11
10.41120801231136
 21
137.3350009875221
 31
0
  0
LINE
  8
0
 62
7
 10
10.03877003731122
 20
138.2341457978718
 30
0
 11
10.78364598721669
 21
136.4358561774013
 31
0
  0
LINE
  8
1
 62
7
 10
9.297774205623909
 20
140.1209782048646
 30
0
 11
1.742781385402168
 21
142.1176203712709
 31
0
  0
LINE
  8
1
 62
7
 10
10.41120801231136
 20
137.3350009875221
 30
0
 11
9.297774205623909
 21
140.1209782048646
 31
0
  0
LINE
  8
0
 62
7
 10
35.76160978106213
 20
99.05369162374251
 30
0
 11
37.13796106978793
 21
97.67734033505843
 31
0
  0
LINE
  8
1
 62
7
 10
34.35495939668454
 20
100.5133306376039
 30
0
 11
26.61097428436665
 21
99.46681688495977
 31
0
  0
LINE
  8
1
 62
7
 10
36.4497854255128
 20
98.36551597931288
 30
0
 11
34.35495939668454
 21
100.5133306376039
 31
0
  0
LINE
  8
0
 62
7
 10
35.76160978125836
 20
99.05369162358812
 30
0
 11
37.13796106994232
 21
97.67734033486232
 31
0
  0
LINE
  8
1
 62
7
 10
37.55108633115924
 20
88.52670483816684
 30
0
 11
38.59760008380374
 21
96.27068995048461
 31
0
  0
LINE
  8
1
 62
7
 10
38.59760008380374
 20
96.27068995048461
 30
0
 11
36.4497854255128
 21
98.36551597931288
 31
0
  0
LINE
  8
0
 62
7
 10
120.4136848740379
 20
63.18340611877017
 30
0
 11
122.3601395331141
 21
63.18340611879972
 31
0
  0
LINE
  8
0
 62
7
 10
80.20188981723732
 20
63.65851193921088
 30
0
 11
113.6510847884722
 21
57.0050533805765
 31
0
  0
LINE
  8
1
 62
7
 10
118.3869122036999
 20
63.22087473800394
 30
0
 11
113.6510847884722
 21
57.0050533805765
 31
0
  0
LINE
  8
1
 62
7
 10
121.3869122036999
 20
63.18340611878494
 30
0
 11
118.3869122036999
 21
63.22087473800394
 31
0
  0
LINE
  8
0
 62
7
 10
120.4136848742858
 20
63.18340611879978
 30
0
 11
122.3601395333619
 21
63.18340611877017
 31
0
  0
LINE
  8
1
 62
7
 10
129.1227396189279
 20
57.00505338057661
 30
0
 11
124.3869122036999
 21
63.22087473800394
 31
0
  0
LINE
  8
1
 62
7
 10
124.3869122036999
 20
63.22087473800394
 30
0
 11
121.3869122036999
 21
63.18340611878494
 31
0
  0
LINE
  8
0
 62
7
 10
74.52012562360142
 20
72.69937654101631
 30
0
 11
76.31841524407173
 21
71.95450059111084
 31
0
  0
LINE
  8
1
 62
7
 10
80.20188981747106
 20
63.6585119392019
 30
0
 11
78.20524765106461
 21
71.21350475942364
 31
0
  0
LINE
  8
1
 62
7
 10
78.20524765106461
 20
71.21350475942364
 30
0
 11
75.41927043372198
 21
72.32693856611098
 31
0
  0
LINE
  8
0
 62
7
 10
74.52012562336108
 20
72.69937654108384
 30
0
 11
76.31841524385413
 21
71.95450059123294
 31
0
  0
LINE
  8
1
 62
7
 10
72.66197045599688
 20
73.50960535361406
 30
0
 11
65.90794458553353
 21
69.57925791408837
 31
0
  0
LINE
  8
1
 62
7
 10
75.41927043372198
 20
72.32693856611098
 30
0
 11
72.66197045599688
 21
73.50960535361406
 31
0
  0
LINE
  8
0
 62
7
 10
386.0002439219479
 20
300.7026611147
 30
0
 11
386.0002439219479
 21
65.90263609009998
 31
0
  0
LINE
  8
DEFAULT_1
 62
2
  6
CENTER
 10
443.0854965827477
 20
183.3026427575
 30
0
 11
330.748349815148
 21
183.3026427575
 31
0
  0
ARC
  8
DEFAULT_1
 62
2
  6
CENTER
 10
121.3869122037
 20
183.3026427575
 30
0
 40
126.5342803680002
 50
18.99870546210005
 51
26.00248691939999
  0
ARC
  8
DEFAULT_1
 62
2
  6
CENTER
 10
121.3869122037
 20
183.3026427575
 30
0
 40
126.534280368
 50
26.05735920270001
 51
41.40350757250003
  0
ARC
  8
DEFAULT_1
 62
2
  6
CENTER
 10
121.3869122037
 20
183.3026427575
 30
0
 40
126.5342803680001
 50
48.59658419180001
 51
71.0030602491
  0
ARC
  8
DEFAULT_1
 62
2
  6
CENTER
 10
121.3869122037
 20
183.3026427575
 30
0
 40
126.5342803680001
 50
71.035165267
 51
86.41437353289997
  0
ARC
  8
DEFAULT_1
 62
2
  6
CENTER
 10
121.3869122037
 20
183.3026427575
 30
0
 40
126.5342803680001
 50
93.58396120879996
 51
108.9160387912
  0
ARC
  8
DEFAULT_1
 62
2
  6
CENTER
 10
121.3869122037
 20
183.3026427575
 30
0
 40
126.534280368
 50
116.0856264671
 51
131.464834733
  0
ARC
  8
DEFAULT_1
 62
2
  6
CENTER
 10
121.3869122037
 20
183.3026427575
 30
0
 40
126.5342803679999
 50
131.4969397509
 51
153.9034158082
  0
ARC
  8
DEFAULT_1
 62
2
  6
CENTER
 10
121.3869122037
 20
183.3026427575
 30
0
 40
126.534280368
 50
161.0964924275001
 51
176.4426407973
  0
ARC
  8
DEFAULT_1
 62
2
  6
CENTER
 10
121.3869122037
 20
183.3026427575
 30
0
 40
126.534280368
 50
183.5648109528
 51
198.9351890471999
  0
ARC
  8
DEFAULT_1
 62
2
  6
CENTER
 10
121.3869122037
 20
183.3026427575
 30
0
 40
126.534280368
 50
206.0573592027
 51
221.4035075725
  0
ARC
  8
DEFAULT_1
 62
2
  6
CENTER
 10
121.3869122037
 20
183.3026427575
 30
0
 40
126.534280368
 50
228.5965841917999
 51
251.0030602490999
  0
ARC
  8
DEFAULT_1
 62
2
  6
CENTER
 10
121.3869122037
 20
183.3026427575
 30
0
 40
126.5342803680001
 50
251.0351652670001
 51
266.4143735329
  0
ARC
  8
DEFAULT_1
 62
2
  6
CENTER
 10
121.3869122037
 20
183.3026427575
 30
0
 40
126.534280368
 50
273.5839612088001
 51
288.9160387911999
  0
ARC
  8
DEFAULT_1
 62
2
  6
CENTER
 10
121.3869122037
 20
183.3026427575
 30
0
 40
126.5342803680002
 50
296.0856264670998
 51
311.464834733
  0
ARC
  8
DEFAULT_1
 62
2
  6
CENTER
 10
121.3869122037
 20
183.3026427575
 30
0
 40
126.5342803680001
 50
311.4969397509001
 51
333.9034158082
  0
ARC
  8
DEFAULT_1
 62
2
  6
CENTER
 10
121.3869122037
 20
183.3026427575
 30
0
 40
126.5342803679997
 50
341.0964924274999
 51
356.4426407972999
  0
ARC
  8
DEFAULT_1
 62
2
  6
CENTER
 10
121.3869122037
 20
183.3026427575
 30
0
 40
126.5342803680001
 50
3.564810952799939
 51
18.93518904719997
  0
ARC
  8
0
 62
7
 10
392.0002482305479
 20
301.7026395639001
 30
0
 40
1
 50
270
 51
0
  0
ARC
  8
0
 62
7
 10
386.0002482305479
 20
301.7026395639001
 30
0
 40
1
 50
180
 51
270
  0
ARC
  8
0
 62
7
 10
392.0002482305479
 20
64.90263956389998
 30
0
 40
1
 50
0
 51
90
  0
ARC
  8
0
 62
7
 10
386.0002482305479
 20
64.90263956389998
 30
0
 40
1
 50
90
 51
180
  0
ARC
  8
DEFAULT_1
 62
2
  6
CENTER
 10
121.3869122036994
 20
183.3026427575016
 30
0
 40
126.5342803679997
 50
41.49751308059923
 51
48.50129453789919
  0
ARC
  8
DEFAULT_1
 62
2
  6
CENTER
 10
121.3869122037
 20
183.3026427575
 30
0
 40
126.534280368
 50
86.49751308059997
 51
93.50129453789997
  0
ARC
  8
DEFAULT_1
 62
2
  6
CENTER
 10
121.3869122037
 20
183.3026427575
 30
0
 40
126.5342803680001
 50
71.0964924275
 51
86.44264079730003
  0
ARC
  8
DEFAULT_1
 62
2
  6
CENTER
 10
121.3869122037016
 20
183.3026427574993
 30
0
 40
126.5342803680003
 50
63.99870546210087
 51
71.00248691940087
  0
ARC
  8
DEFAULT_1
 62
2
  6
CENTER
 10
121.3869122037
 20
183.3026427575
 30
0
 40
126.534280368
 50
176.4975130806
 51
183.5012945379
  0
ARC
  8
DEFAULT_1
 62
2
  6
CENTER
 10
121.3869122037
 20
183.3026427575
 30
0
 40
126.534280368
 50
161.0964924275001
 51
176.4426407973
  0
ARC
  8
DEFAULT_1
 62
2
  6
CENTER
 10
121.3869122037
 20
183.3026427575
 30
0
 40
126.5342803679999
 50
131.4969397509
 51
153.9034158082
  0
ARC
  8
DEFAULT_1
 62
2
  6
CENTER
 10
121.3869122037
 20
183.3026427575
 30
0
 40
126.534280368
 50
116.0856264671
 51
131.464834733
  0
ARC
  8
DEFAULT_1
 62
2
  6
CENTER
 10
121.3869122036994
 20
183.3026427575016
 30
0
 40
126.5342803679991
 50
153.9987054621006
 51
161.0024869194007
  0
ARC
  8
DEFAULT_1
 62
2
  6
CENTER
 10
121.3869122037
 20
183.3026427575
 30
0
 40
126.534280368
 50
108.9987054621
 51
116.0024869194
  0
ARC
  8
DEFAULT_1
 62
2
  6
CENTER
 10
121.3869122037
 20
183.3026427575
 30
0
 40
126.5342803680001
 50
116.0573592027
 51
131.4035075724999
  0
ARC
  8
DEFAULT_1
 62
2
  6
CENTER
 10
121.3869122036983
 20
183.3026427574993
 30
0
 40
126.5342803679996
 50
131.4975130805992
 51
138.5012945378992
  0
ARC
  8
DEFAULT_1
 62
2
  6
CENTER
 10
121.3869122037
 20
183.3026427575
 30
0
 40
126.5342803679999
 50
356.4975130806001
 51
3.501294537900024
  0
ARC
  8
DEFAULT_1
 62
2
  6
CENTER
 10
121.3869122037
 20
183.3026427575
 30
0
 40
126.5342803679997
 50
341.0964924274999
 51
356.4426407972999
  0
ARC
  8
DEFAULT_1
 62
2
  6
CENTER
 10
121.3869122037
 20
183.3026427575
 30
0
 40
126.5342803680001
 50
311.4969397509001
 51
333.9034158082
  0
ARC
  8
DEFAULT_1
 62
2
  6
CENTER
 10
121.3869122037
 20
183.3026427575
 30
0
 40
126.5342803680002
 50
296.0856264670998
 51
311.464834733
  0
ARC
  8
DEFAULT_1
 62
2
  6
CENTER
 10
121.3869122037
 20
183.3026427575
 30
0
 40
126.534280368
 50
273.5839612088001
 51
288.9160387911999
  0
ARC
  8
DEFAULT_1
 62
2
  6
CENTER
 10
121.3869122037
 20
183.3026427575
 30
0
 40
126.5342803680001
 50
251.0351652670001
 51
266.4143735329
  0
ARC
  8
DEFAULT_1
 62
2
  6
CENTER
 10
121.3869122037
 20
183.3026427575
 30
0
 40
126.534280368
 50
228.5965841917999
 51
251.0030602490999
  0
ARC
  8
DEFAULT_1
 62
2
  6
CENTER
 10
121.3869122037
 20
183.3026427575
 30
0
 40
126.534280368
 50
206.0573592027
 51
221.4035075725
  0
ARC
  8
DEFAULT_1
 62
2
  6
CENTER
 10
121.3869122036983
 20
183.3026427574993
 30
0
 40
126.5342803680017
 50
333.9987054621008
 51
341.0024869194006
  0
ARC
  8
DEFAULT_1
 62
2
  6
CENTER
 10
121.3869122037
 20
183.3026427575
 30
0
 40
126.534280368
 50
288.9987054621
 51
296.0024869193999
  0
ARC
  8
DEFAULT_1
 62
2
  6
CENTER
 10
121.3869122037
 20
183.3026427575
 30
0
 40
126.5342803679999
 50
296.0573592027001
 51
311.4035075725
  0
ARC
  8
DEFAULT_1
 62
2
  6
CENTER
 10
121.3869122036994
 20
183.3026427575016
 30
0
 40
126.5342803680019
 50
311.4975130805996
 51
318.5012945378995
  0
ARC
  8
DEFAULT_1
 62
2
  6
CENTER
 10
121.3869122037
 20
183.3026427575
 30
0
 40
126.5342803679999
 50
198.9987054621
 51
206.0024869194
  0
ARC
  8
DEFAULT_1
 62
2
  6
CENTER
 10
121.3869122037
 20
183.3026427575
 30
0
 40
126.534280368
 50
206.0573592027
 51
221.4035075725
  0
ARC
  8
DEFAULT_1
 62
2
  6
CENTER
 10
121.3869122037
 20
183.3026427575
 30
0
 40
126.534280368
 50
228.5965841917999
 51
251.0030602490999
  0
ARC
  8
DEFAULT_1
 62
2
  6
CENTER
 10
121.3869122037
 20
183.3026427575
 30
0
 40
126.5342803680001
 50
251.0351652670001
 51
266.4143735329
  0
ARC
  8
DEFAULT_1
 62
2
  6
CENTER
 10
121.3869122037016
 20
183.3026427574993
 30
0
 40
126.5342803680009
 50
221.4975130805992
 51
228.5012945378992
  0
ARC
  8
DEFAULT_1
 62
2
  6
CENTER
 10
121.3869122037
 20
183.3026427575
 30
0
 40
126.534280368
 50
266.4975130806
 51
273.5012945378999
  0
ARC
  8
DEFAULT_1
 62
2
  6
CENTER
 10
121.3869122037
 20
183.3026427575
 30
0
 40
126.5342803680001
 50
251.0964924275001
 51
266.4426407973
  0
ARC
  8
DEFAULT_1
 62
2
  6
CENTER
 10
121.3869122036994
 20
183.3026427575016
 30
0
 40
126.5342803680016
 50
243.9987054621008
 51
251.0024869194006
  0
CIRCLE
  8
1
 62
7
 10
121.3869122037
 20
183.3026427575
 30
0
 40
10
  0
ENDSEC
  0
EOF
