  0
SECTION
  2
HEADER
  9
$ACADVER
  1
AC1009
  9
$INSBASE
 10
0
 20
0
  9
$EXTMIN
 10
34.1890196664
 20
39.9375766158
  9
$EXTMAX
 10
341.0664840637
 20
240.3760948754
  9
$LIMMIN
 10
34.1890196664
 20
39.9375766158
  9
$LIMMAX
 10
341.0664840637
 20
240.3760948754
  9
$VIEWCTR
 10
10
 20
10
  9
$VIEWSIZE
 40
10
  9
$SNAPMODE
 70
0
  9
$SNAPUNIT
 10
1
 20
1
  9
$SNAPBASE
 10
0
 20
0
  9
$SNAPANG
 50
0
  9
$SNAPSTYLE
 70
0
  9
$SNAPISOPAIR
 70
0
  9
$GRIDMODE
 70
0
  9
$GRIDUNIT
 10
0
 20
0
  9
$ORTHOMODE
 70
0
  9
$REGENMODE
 70
1
  9
$FILLMODE
 70
1
  9
$QTEXTMODE
 70
0
  9
$DRAGMODE
 70
2
  9
$LTSCALE
 40
1
  9
$OSMODE
 70
0
  9
$ATTMODE
 70
1
  9
$TEXTSIZE
 40
3.5
  9
$TRACEWID
 40
0.5
  9
$TEXTSTYLE
  7
STANDARD
  9
$CLAYER
  8
0
  9
$CELTYPE
  6
BYLAYER
  9
$CECOLOR
 62
256
  9
$DIMSCALE
 40
1
  9
$DIMASZ
 40
0.18
  9
$DIMEXO
 40
0.0625
  9
$DIMDLI
 40
0.38
  9
$DIMRND
 40
0
  9
$DIMDLE
 40
0
  9
$DIMEXE
 40
0.18
  9
$DIMTP
 40
0
  9
$DIMTM
 40
0
  9
$DIMTXT
 40
0.18
  9
$DIMCEN
 40
0.09
  9
$DIMTSZ
 40
0
  9
$DIMTOL
 70
0
  9
$DIMLIM
 70
0
  9
$DIMTIH
 70
1
  9
$DIMTOH
 70
1
  9
$DIMSE1
 70
0
  9
$DIMSE2
 70
0
  9
$DIMTAD
 70
0
  9
$DIMZIN
 70
0
  9
$DIMBLK
  1

  9
$DIMASO
 70
1
  9
$DIMSHO
 70
1
  9
$DIMPOST
  1

  9
$DIMAPOST
  1

  9
$DIMALT
 70
0
  9
$DIMALTD
 70
2
  9
$DIMALTF
 40
25.4
  9
$DIMLFAC
 40
1
  9
$DIMTOFL
 70
0
  9
$DIMTVP
 40
0
  9
$DIMTIX
 70
0
  9
$DIMSOXD
 70
0
  9
$DIMSAH
 70
0
  9
$DIMBLK1
  1

  9
$DIMBLK2
  1

  9
$DIMSTYLE
  2
*UNNAMED
  9
$DIMCLRD
 70
0
  9
$DIMCLRE
 70
0
  9
$DIMCLRT
 70
0
  9
$DIMTFAC
 40
1
  9
$DIMGAP
 40
0.09
  9
$LUNITS
 70
2
  9
$LUPREC
 70
4
  9
$AXISMODE
 70
0
  9
$AXISUNIT
 10
0
 20
0
  9
$SKETCHINC
 40
0.1
  9
$FILLETRAD
 40
2
  9
$AUNITS
 70
0
  9
$AUPREC
 70
0
  9
$MENU
  1
ACAD
  9
$ELEVATION
 40
0
  9
$THICKNESS
 40
0
  9
$VIEWDIR
 10
0
 20
0
 30
1
  9
$LIMCHECK
 70
0
  9
$BLIPMODE
 70
1
  9
$CHAMFERA
 40
0
  9
$CHAMFERB
 40
0
  9
$FASTZOOM
 70
1
  9
$SKPOLY
 70
0
  9
$ANGBASE
 50
0
  9
$ANGDIR
 70
0
  9
$PDMODE
 70
0
  9
$PDSIZE
 40
0
  9
$PLINEWID
 40
0
  9
$COORDS
 70
2
  0
ENDSEC
  0
SECTION
  2
TABLES
  0
TABLE
  2
DIMSTYLE
 70
0
  0
ENDTAB
  0
TABLE
  2
LTYPE
 70
9
  0
LTYPE
  2
CONTINUOUS
 70
64
  3
Solid line
 72
65
 73
0
 40
0
  0
LTYPE
  2
BORDER
 70
64
  3
__ __ . __ __ .
 72
65
 73
6
 40
14.13251480777039
 49
4.037861373648684
 49
-2.018930686824342
 49
4.037861373648684
 49
-2.018930686824342
 49
0
 49
-2.018930686824342
  0
LTYPE
  2
CENTER
 70
64
  3
____ _ ____ _
 72
65
 73
4
 40
16.15144549459474
 49
10.09465343412171
 49
-2.018930686824342
 49
2.018930686824342
 49
-2.018930686824342
  0
LTYPE
  2
DASHDOT
 70
64
  3
__ . __ . __ .
 72
65
 73
4
 40
8.075722747297368
 49
4.037861373648684
 49
-2.018930686824342
 49
0
 49
-2.018930686824342
  0
LTYPE
  2
DASHED
 70
64
  3
__ __ __ __ __
 72
65
 73
2
 40
6.056792060473025
 49
4.037861373648684
 49
-2.018930686824342
  0
LTYPE
  2
DIVIDE
 70
64
  3
__ . . __ . . 
 72
65
 73
6
 40
10.09465343412171
 49
4.037861373648684
 49
-2.018930686824342
 49
0
 49
-2.018930686824342
 49
0
 49
-2.018930686824342
  0
LTYPE
  2
DOT
 70
64
  3
..............
 72
65
 73
4
 40
4.037861373648684
 49
0
 49
-2.018930686824342
 49
0
 49
-2.018930686824342
  0
LTYPE
  2
HIDDEN
 70
64
  3
_ _ _ _ _ _ _
 72
65
 73
2
 40
3.028396030236513
 49
2.018930686824342
 49
-1.009465343412171
  0
LTYPE
  2
PHANTOM
 70
64
  3
_____ _ _ _____ _ _ 
 72
65
 73
6
 40
20.18930686824342
 49
10.09465343412171
 49
-2.018930686824342
 49
2.018930686824342
 49
-2.018930686824342
 49
2.018930686824342
 49
-2.018930686824342
  0
ENDTAB
  0
TABLE
  2
LAYER
 70
4
  0
LAYER
  2
DEFAULT_1
 70
0
 62
7
  6
CONTINUOUS
  0
LAYER
  2
0
 70
0
 62
7
  6
CONTINUOUS
  0
LAYER
  2
1
 70
0
 62
7
  6
CONTINUOUS
  0
ENDTAB
  0
TABLE
  2
STYLE
 70
4
  0
STYLE
  2
STANDARD
 70
0
 40
0
 41
1
 50
0
 71
0
 42
3.5
  3
txt
  4

  0
STYLE
  2
SIMPLEX
 70
0
 40
0
 41
1
 50
0
 71
0
 42
3.5
  3
simplex
  4

  0
STYLE
  2
COMPLEX
 70
0
 40
0
 41
1
 50
0
 71
0
 42
3.5
  3
complex
  4

  0
STYLE
  2
ITALIC
 70
0
 40
0
 41
1
 50
0
 71
0
 42
3.5
  3
italic
  4

  0
ENDTAB
  0
TABLE
  2
VIEW
 70
0
  0
ENDTAB
  0
ENDSEC
  0
SECTION
  2
BLOCKS
  0
ENDSEC
  0
SECTION
  2
ENTITIES
  0
POLYLINE
  8
0
 62
7
 66
1
  0
VERTEX
  8
0
 10
317.6468445003
 20
227.8733554075002
 30
0
  0
VERTEX
  8
0
 10
316.4782860516
 20
223.5850516225002
 30
0
  0
VERTEX
  8
0
 10
316.0893824795001
 20
219.3286422559002
 30
0
  0
VERTEX
  8
0
 10
316.4782449175
 20
213.5146473614
 30
0
  0
VERTEX
  8
0
 10
317.6468445003
 20
209.2261179929
 30
0
  0
SEQEND
  8
0
  0
POLYLINE
  8
0
 62
7
 66
1
  0
VERTEX
  8
0
 10
304.5090220028
 20
65.26475256170001
 30
0
  0
VERTEX
  8
0
 10
305.6775804515
 20
60.976448811
 30
0
  0
VERTEX
  8
0
 10
306.0664840236
 20
55.16257749679981
 30
0
  0
VERTEX
  8
0
 10
305.6776215856
 20
50.90604469719983
 30
0
  0
VERTEX
  8
0
 10
304.5090220028
 20
46.61751536309981
 30
0
  0
SEQEND
  8
0
  0
POLYLINE
  8
0
 62
7
 66
1
  0
VERTEX
  8
0
 10
317.6468445003
 20
198.5370745175
 30
0
  0
VERTEX
  8
0
 10
316.4782860516
 20
191.1095145035
 30
0
  0
VERTEX
  8
0
 10
316.0893824795
 20
183.7371972425
 30
0
  0
VERTEX
  8
0
 10
316.4782449175
 20
176.3646661302
 30
0
  0
VERTEX
  8
0
 10
317.6468445003
 20
168.936715394
 30
0
  0
SEQEND
  8
0
  0
POLYLINE
  8
0
 62
7
 66
1
  0
VERTEX
  8
0
 10
317.6468445003
 20
154.3352104893
 30
0
  0
VERTEX
  8
0
 10
316.4782860516
 20
145.7586029536
 30
0
  0
VERTEX
  8
0
 10
316.0893824795
 20
137.2457842547
 30
0
  0
VERTEX
  8
0
 10
316.4782449175
 20
128.7327186214
 30
0
  0
VERTEX
  8
0
 10
317.6468445003
 20
120.1556599188
 30
0
  0
SEQEND
  8
0
  0
POLYLINE
  8
0
 62
7
 66
1
  0
VERTEX
  8
0
 10
304.5090220028
 20
105.5541550321
 30
0
  0
VERTEX
  8
0
 10
305.6775804515
 20
98.12659503789999
 30
0
  0
VERTEX
  8
0
 10
306.0664840236
 20
90.75427779659999
 30
0
  0
VERTEX
  8
0
 10
305.6776215856
 20
83.38174670390001
 30
0
  0
VERTEX
  8
0
 10
304.5090220028
 20
75.9537959876
 30
0
  0
SEQEND
  8
0
  0
POLYLINE
  8
0
 62
7
 66
1
  0
VERTEX
  8
0
 10
317.6468445003
 20
105.5541550321
 30
0
  0
VERTEX
  8
0
 10
316.4782860516
 20
98.12659503789999
 30
0
  0
VERTEX
  8
0
 10
316.0893824795
 20
90.75427779659999
 30
0
  0
VERTEX
  8
0
 10
316.4782449175
 20
83.38174670390001
 30
0
  0
VERTEX
  8
0
 10
317.6468445003
 20
75.9537959876
 30
0
  0
SEQEND
  8
0
  0
POLYLINE
  8
0
 62
7
 66
1
  0
VERTEX
  8
0
 10
304.5090220028
 20
154.3352104893
 30
0
  0
VERTEX
  8
0
 10
305.6775804515
 20
145.7586029536
 30
0
  0
VERTEX
  8
0
 10
306.0664840236
 20
137.2457842547
 30
0
  0
VERTEX
  8
0
 10
305.6776215856
 20
128.7327186214
 30
0
  0
VERTEX
  8
0
 10
304.5090220028
 20
120.1556599188
 30
0
  0
SEQEND
  8
0
  0
POLYLINE
  8
0
 62
7
 66
1
  0
VERTEX
  8
0
 10
304.5090220028
 20
198.5370745175
 30
0
  0
VERTEX
  8
0
 10
305.6775804515
 20
191.1095145035
 30
0
  0
VERTEX
  8
0
 10
306.0664840236
 20
183.7371972425
 30
0
  0
VERTEX
  8
0
 10
305.6776215856
 20
176.3646661302
 30
0
  0
VERTEX
  8
0
 10
304.5090220028
 20
168.936715394
 30
0
  0
SEQEND
  8
0
  0
POLYLINE
  8
0
 62
7
 66
1
  0
VERTEX
  8
0
 10
317.6468445003
 20
65.26475256170001
 30
0
  0
VERTEX
  8
0
 10
316.4782860516
 20
60.976448811
 30
0
  0
VERTEX
  8
0
 10
316.0893824795001
 20
55.16257749679982
 30
0
  0
VERTEX
  8
0
 10
316.4782449175
 20
50.90604469719983
 30
0
  0
VERTEX
  8
0
 10
317.6468445003
 20
46.61751536309981
 30
0
  0
SEQEND
  8
0
  0
POLYLINE
  8
0
 62
7
 66
1
  0
VERTEX
  8
0
 10
304.5090220028
 20
227.8733554075002
 30
0
  0
VERTEX
  8
0
 10
305.6775804515
 20
223.5850516225002
 30
0
  0
VERTEX
  8
0
 10
306.0664840236
 20
219.3286422559002
 30
0
  0
VERTEX
  8
0
 10
305.6776215856
 20
213.5146473614
 30
0
  0
VERTEX
  8
0
 10
304.5090220028
 20
209.2261179929
 30
0
  0
SEQEND
  8
0
  0
LINE
  8
1
 62
7
 10
136.4006716183999
 20
48.69460799639403
 30
0
 11
133.4006716184
 21
48.74085538228454
 31
0
  0
LINE
  8
1
 62
7
 10
133.4006716184
 20
48.74085538228454
 30
0
 11
128.8471847189867
 21
43.00728728543874
 31
0
  0
LINE
  8
0
 62
7
 10
135.4997554812302
 20
48.6946079943457
 30
0
 11
137.3015881650359
 21
48.69460799844239
 31
0
  0
LINE
  8
1
 62
7
 10
139.4006716183998
 20
48.74085538228465
 30
0
 11
136.4006716183999
 21
48.69460799639403
 31
0
  0
LINE
  8
1
 62
7
 10
143.9541585178133
 20
43.00728728543892
 30
0
 11
139.4006716183998
 21
48.74085538228465
 31
0
  0
LINE
  8
0
 62
7
 10
135.4997550717639
 20
48.69460799844244
 30
0
 11
137.3015877555697
 21
48.69460799434573
 31
0
  0
LINE
  8
1
 62
7
 10
94.74645781139557
 20
59.09822075593114
 30
0
 11
92.12525790709717
 21
60.55816934489124
 31
0
  0
LINE
  8
1
 62
7
 10
95.82310909366439
 20
51.85606168002801
 30
0
 11
94.74645781139557
 21
59.09822075593114
 31
0
  0
LINE
  8
0
 62
7
 10
91.34504129204477
 20
61.00862761998319
 30
0
 11
92.90547416754126
 21
60.10771127453252
 31
0
  0
LINE
  8
1
 62
7
 10
92.12525790709717
 20
60.55816934489124
 30
0
 11
89.55030538868914
 21
62.09822075593107
 31
0
  0
LINE
  8
1
 62
7
 10
89.55030538868914
 20
62.09822075593107
 30
0
 11
82.74008600957461
 21
59.40954857944139
 31
0
  0
LINE
  8
0
 62
7
 10
91.34504164460461
 20
61.00862741170222
 30
0
 11
92.90547452419781
 21
60.10771107334722
 31
0
  0
LINE
  8
1
 62
7
 10
59.71340554429164
 20
92.97002170769709
 30
0
 11
58.25345695533157
 21
95.59122161199549
 31
0
  0
LINE
  8
1
 62
7
 10
58.25345695533157
 20
95.59122161199549
 30
0
 11
51.01129787942848
 21
96.66787289426435
 31
0
  0
LINE
  8
0
 62
7
 10
59.26294747393294
 20
93.75023796814115
 30
0
 11
60.1638638193836
 21
92.18980509264465
 31
0
  0
LINE
  8
1
 62
7
 10
61.25345695533146
 20
90.39506918928902
 30
0
 11
59.71340554429164
 21
92.97002170769709
 31
0
  0
LINE
  8
1
 62
7
 10
58.56478477884173
 20
83.5848498101745
 30
0
 11
61.25345695533146
 21
90.39506918928902
 31
0
  0
LINE
  8
0
 62
7
 10
58.56752262643528
 20
83.58087871740722
 30
0
 11
82.73611455685324
 21
59.41228667521622
 31
0
  0
LINE
  8
0
 62
7
 10
59.26294727274765
 20
93.75023832479771
 30
0
 11
60.16386361110265
 21
92.1898054452045
 31
0
  0
LINE
  8
0
 62
7
 10
95.82746568571434
 20
51.85399153657741
 30
0
 11
128.8423762921908
 21
43.00767281952356
 31
0
  0
LINE
  8
1
 62
7
 10
183.251037848111
 20
62.09822075593131
 30
0
 11
180.6760853297031
 21
60.5581693448916
 31
0
  0
LINE
  8
1
 62
7
 10
190.0612572272255
 20
59.40954857944152
 30
0
 11
183.251037848111
 21
62.09822075593131
 31
0
  0
LINE
  8
0
 62
7
 10
179.8958687126024
 20
60.10771107334752
 30
0
 11
181.4563015921955
 21
61.00862741170249
 31
0
  0
LINE
  8
1
 62
7
 10
180.6760853297031
 20
60.5581693448916
 30
0
 11
178.0548854254045
 21
59.09822075593151
 31
0
  0
LINE
  8
1
 62
7
 10
178.0548854254045
 20
59.09822075593151
 30
0
 11
176.9782341431356
 21
51.85606168002836
 31
0
  0
LINE
  8
0
 62
7
 10
179.8958690692589
 20
60.1077112745328
 30
0
 11
181.4563019447554
 21
61.00862761998354
 31
0
  0
LINE
  8
1
 62
7
 10
213.0879376925085
 20
92.97002170769667
 30
0
 11
211.5478862814688
 21
90.39506918928879
 31
0
  0
LINE
  8
1
 62
7
 10
211.5478862814688
 20
90.39506918928879
 30
0
 11
214.2365584579585
 21
83.58484981017425
 31
0
  0
LINE
  8
0
 62
7
 10
212.6374796256976
 20
92.18980544520427
 30
0
 11
213.5383959640526
 21
93.75023832479745
 31
0
  0
LINE
  8
1
 62
7
 10
214.5478862814686
 20
95.59122161199525
 30
0
 11
213.0879376925085
 21
92.97002170769667
 31
0
  0
LINE
  8
1
 62
7
 10
221.7900453573717
 20
96.66787289426408
 30
0
 11
214.5478862814686
 21
95.59122161199525
 31
0
  0
LINE
  8
0
 62
7
 10
212.6374794174166
 20
92.18980509264441
 30
0
 11
213.5383957628673
 21
93.75023796814092
 31
0
  0
LINE
  8
1
 62
7
 10
224.9052516551153
 20
140.2454354189998
 30
0
 11
224.9514990410058
 21
137.245435419
 31
0
  0
LINE
  8
1
 62
7
 10
230.638819751961
 20
144.7989223184133
 30
0
 11
224.9052516551153
 21
140.2454354189998
 31
0
  0
LINE
  8
0
 62
7
 10
224.9514990389575
 20
136.3445188723639
 30
0
 11
224.9514990430542
 21
138.1463515561696
 31
0
  0
LINE
  8
1
 62
7
 10
224.9514990410058
 20
137.245435419
 30
0
 11
224.9052516551153
 21
134.245435419
 31
0
  0
LINE
  8
1
 62
7
 10
224.9052516551153
 20
134.245435419
 30
0
 11
230.6388197519611
 21
129.6919485195866
 31
0
  0
LINE
  8
0
 62
7
 10
221.792115688431
 20
96.67222988112376
 30
0
 11
230.638434252777
 21
129.6871405285726
 31
0
  0
LINE
  8
0
 62
7
 10
224.9514990430542
 20
136.3445192818302
 30
0
 11
224.9514990389575
 21
138.1463519656359
 31
0
  0
LINE
  8
0
 62
7
 10
190.0652286799406
 20
59.41228667515095
 30
0
 11
214.2338206102945
 21
83.58087871733157
 31
0
  0
LINE
  8
0
 62
7
 10
143.958966944582
 20
43.00767281958316
 30
0
 11
176.9738775511345
 21
51.85399153658143
 31
0
  0
LINE
  8
0
 62
7
 10
95.8274660804272
 20
51.85399134894311
 30
0
 11
128.842376727876
 21
43.00767278459711
 31
0
  0
LINE
  8
0
 62
7
 10
58.56752287455099
 20
83.58087835745936
 30
0
 11
82.73611491675746
 21
59.41228642700885
 31
0
  0
LINE
  8
1
 62
7
 10
89.550305388689
 20
212.3926500820687
 30
0
 11
92.12525790709691
 21
213.9327014931084
 31
0
  0
LINE
  8
1
 62
7
 10
82.74008600957447
 20
215.0813222585584
 30
0
 11
89.550305388689
 21
212.3926500820687
 31
0
  0
LINE
  8
0
 62
7
 10
92.90547452419764
 20
214.3831597646525
 30
0
 11
91.34504164460449
 21
213.4822434262975
 31
0
  0
LINE
  8
1
 62
7
 10
92.12525790709691
 20
213.9327014931084
 30
0
 11
94.74645781139549
 21
215.3926500820685
 31
0
  0
LINE
  8
1
 62
7
 10
94.74645781139549
 20
215.3926500820685
 30
0
 11
95.82310909366436
 21
222.6348091579716
 31
0
  0
LINE
  8
0
 62
7
 10
92.90547416754114
 20
214.3831595634671
 30
0
 11
91.34504129204461
 21
213.4822432180164
 31
0
  0
LINE
  8
1
 62
7
 10
59.71340554429153
 20
181.5208491303033
 30
0
 11
61.25345695533124
 21
184.0958016487112
 31
0
  0
LINE
  8
1
 62
7
 10
61.25345695533124
 20
184.0958016487112
 30
0
 11
58.56478477884156
 21
190.9060210278257
 31
0
  0
LINE
  8
0
 62
7
 10
60.16386361110243
 20
182.3010653927957
 30
0
 11
59.26294727274742
 21
180.7406325132025
 31
0
  0
LINE
  8
1
 62
7
 10
58.25345695533136
 20
178.8996492260047
 30
0
 11
59.71340554429153
 21
181.5208491303033
 31
0
  0
LINE
  8
1
 62
7
 10
51.01129787942826
 20
177.8229979437359
 30
0
 11
58.25345695533136
 21
178.8996492260047
 31
0
  0
LINE
  8
0
 62
7
 10
60.16386381938343
 20
182.3010657453556
 30
0
 11
59.2629474739327
 21
180.740632869859
 31
0
  0
LINE
  8
1
 62
7
 10
47.89609158168472
 20
134.2454354190002
 30
0
 11
47.84984419579418
 21
137.245435419
 31
0
  0
LINE
  8
1
 62
7
 10
42.16252348483903
 20
129.6919485195867
 30
0
 11
47.89609158168472
 21
134.2454354190002
 31
0
  0
LINE
  8
0
 62
7
 10
47.84984419784252
 20
138.1463519656361
 30
0
 11
47.84984419374585
 21
136.3445192818304
 31
0
  0
LINE
  8
1
 62
7
 10
47.84984419579418
 20
137.245435419
 30
0
 11
47.89609158168469
 21
140.245435419
 31
0
  0
LINE
  8
1
 62
7
 10
47.89609158168469
 20
140.245435419
 30
0
 11
42.16252348483894
 21
144.7989223184134
 31
0
  0
LINE
  8
0
 62
7
 10
51.00922754836903
 20
177.8186409568762
 30
0
 11
42.162908984023
 21
144.8037303094274
 31
0
  0
LINE
  8
0
 62
7
 10
47.84984419374584
 20
138.1463515561698
 30
0
 11
47.84984419784256
 21
136.3445188723641
 31
0
  0
LINE
  8
0
 62
7
 10
82.73611455685941
 20
215.078584162849
 30
0
 11
58.56752262650545
 21
190.9099921206684
 31
0
  0
LINE
  8
1
 62
7
 10
136.4006716184001
 20
225.7962628416059
 30
0
 11
139.4006716184
 21
225.7500154557154
 31
0
  0
LINE
  8
1
 62
7
 10
139.4006716184
 20
225.7500154557154
 30
0
 11
143.9541585178133
 21
231.4835835525612
 31
0
  0
LINE
  8
0
 62
7
 10
137.3015877555698
 20
225.7962628436543
 30
0
 11
135.4997550717641
 21
225.7962628395576
 31
0
  0
LINE
  8
1
 62
7
 10
133.4006716184002
 20
225.7500154557154
 30
0
 11
136.4006716184001
 21
225.7962628416059
 31
0
  0
LINE
  8
1
 62
7
 10
128.8471847189867
 20
231.4835835525611
 30
0
 11
133.4006716184002
 21
225.7500154557154
 31
0
  0
LINE
  8
0
 62
7
 10
137.3015881650361
 20
225.7962628395576
 30
0
 11
135.4997554812303
 21
225.7962628436542
 31
0
  0
LINE
  8
1
 62
7
 10
178.0548854254044
 20
215.3926500820688
 30
0
 11
180.6760853297028
 21
213.9327014931088
 31
0
  0
LINE
  8
1
 62
7
 10
176.9782341431356
 20
222.634809157972
 30
0
 11
178.0548854254044
 21
215.3926500820688
 31
0
  0
LINE
  8
0
 62
7
 10
181.4563019447552
 20
213.4822432180168
 30
0
 11
179.8958690692587
 21
214.3831595634675
 31
0
  0
LINE
  8
1
 62
7
 10
180.6760853297028
 20
213.9327014931088
 30
0
 11
183.2510378481108
 21
212.3926500820689
 31
0
  0
LINE
  8
1
 62
7
 10
183.2510378481108
 20
212.3926500820689
 30
0
 11
190.0612572272254
 21
215.0813222585586
 31
0
  0
LINE
  8
0
 62
7
 10
181.4563015921954
 20
213.4822434262977
 30
0
 11
179.8958687126022
 21
214.3831597646528
 31
0
  0
LINE
  8
1
 62
7
 10
213.0879376925084
 20
181.5208491303029
 30
0
 11
214.5478862814684
 21
178.8996492260045
 31
0
  0
LINE
  8
1
 62
7
 10
214.5478862814684
 20
178.8996492260045
 30
0
 11
221.7900453573715
 21
177.8229979437356
 31
0
  0
LINE
  8
0
 62
7
 10
213.5383957628671
 20
180.7406328698589
 30
0
 11
212.6374794174164
 21
182.3010657453553
 31
0
  0
LINE
  8
1
 62
7
 10
211.5478862814686
 20
184.095801648711
 30
0
 11
213.0879376925084
 21
181.5208491303029
 31
0
  0
LINE
  8
1
 62
7
 10
214.2365584579583
 20
190.9060210278254
 30
0
 11
211.5478862814686
 21
184.095801648711
 31
0
  0
LINE
  8
DEFAULT_1
 62
2
  6
CENTER
 10
136.4006716184
 20
102.868979046665
 30
0
 11
136.4006716184
 21
39.9375766158
 31
0
  0
LINE
  8
0
 62
7
 10
306.0664840242
 20
231.7858169258002
 30
0
 11
281.0664840637
 21
231.7858168863002
 31
0
  0
LINE
  8
0
 62
7
 10
341.0664840637
 20
231.7858168863002
 30
0
 11
316.0893824789
 21
231.7858168863002
 31
0
  0
LINE
  8
0
 62
7
 10
307.0664840637
 20
228.9644856675002
 30
0
 11
281.0664840637
 21
228.9644856675002
 31
0
  0
LINE
  8
0
 62
7
 10
341.0664840637
 20
228.9644856675002
 30
0
 11
315.0893824394
 21
228.9644856675002
 31
0
  0
LINE
  8
0
 62
7
 10
304.5090220028
 20
227.8733554075002
 30
0
 11
281.0664840637
 21
227.8733554075002
 31
0
  0
LINE
  8
0
 62
7
 10
341.0664840637
 20
227.8733554075002
 30
0
 11
317.6468445003
 21
227.8733554075002
 31
0
  0
LINE
  8
0
 62
7
 10
314.0893824394
 20
223.6528974799002
 30
0
 11
308.0664840637
 21
223.6528974799002
 31
0
  0
LINE
  8
0
 62
7
 10
304.5090220028
 20
227.8733554075002
 30
0
 11
307.0664840637
 21
225.8384453768002
 31
0
  0
LINE
  8
0
 62
7
 10
304.5090220028
 20
209.2261179929
 30
0
 11
281.0664840637
 21
209.2261179929
 31
0
  0
LINE
  8
0
 62
7
 10
341.0664840637
 20
209.2261179929
 30
0
 11
317.6468445003
 21
209.2261179929
 31
0
  0
LINE
  8
0
 62
7
 10
307.0664840637
 20
206.4441026394
 30
0
 11
281.0664840637
 21
206.4441026394
 31
0
  0
LINE
  8
0
 62
7
 10
341.0664840637
 20
206.4441026394
 30
0
 11
315.0893824394
 21
206.4441026394
 31
0
  0
LINE
  8
0
 62
7
 10
307.0664840637
 20
48.65242540269982
 30
0
 11
304.5090220028
 21
46.61751536309981
 31
0
  0
LINE
  8
0
 62
7
 10
307.0664840637
 20
43.70505403079982
 30
0
 11
306.066484014
 21
42.7050539809998
 31
0
  0
LINE
  8
0
 62
7
 10
307.0664840637
 20
229.0580043400002
 30
0
 11
304.5090220028
 21
231.7858168863002
 31
0
  0
LINE
  8
0
 62
7
 10
307.0664840637
 20
230.7858168863002
 30
0
 11
306.066484014
 21
231.7858169361002
 31
0
  0
LINE
  8
0
 62
7
 10
307.0664840637
 20
200.4973698806
 30
0
 11
281.0664840637
 21
200.4973698806
 31
0
  0
LINE
  8
0
 62
7
 10
341.0664840637
 20
200.4973698806
 30
0
 11
315.0893824394
 21
200.4973698806
 31
0
  0
LINE
  8
0
 62
7
 10
307.0664840637
 20
199.2232817683
 30
0
 11
281.0664840637
 21
199.2232817683
 31
0
  0
LINE
  8
0
 62
7
 10
341.0664840637
 20
199.2232817683
 30
0
 11
315.0893824394
 21
199.2232817683
 31
0
  0
LINE
  8
0
 62
7
 10
304.5090220028
 20
198.5370745175
 30
0
 11
281.0664840637
 21
198.5370745175
 31
0
  0
LINE
  8
0
 62
7
 10
341.0664840637
 20
198.5370745175
 30
0
 11
317.6468445003
 21
198.5370745175
 31
0
  0
LINE
  8
0
 62
7
 10
307.0664840637
 20
76.7505510188
 30
0
 11
304.5090220028
 21
75.9537959876
 31
0
  0
LINE
  8
0
 62
7
 10
304.5090220028
 20
42.70505395169981
 30
0
 11
307.0664840637
 21
45.43286649499981
 31
0
  0
LINE
  8
0
 62
7
 10
304.5090220028
 20
198.5370745175
 30
0
 11
307.0664840637
 21
197.7403194988
 31
0
  0
LINE
  8
0
 62
7
 10
307.0664840637
 20
206.5363181088
 30
0
 11
304.5090220028
 21
209.2261179929
 31
0
  0
LINE
  8
0
 62
7
 10
304.5090220028
 20
65.26475256170001
 30
0
 11
307.0664840637
 21
67.9545524494
 31
0
  0
LINE
  8
0
 62
7
 10
304.5090220028
 20
168.936715394
 30
0
 11
281.0664840637
 21
168.936715394
 31
0
  0
LINE
  8
0
 62
7
 10
341.0664840637
 20
168.936715394
 30
0
 11
317.6468445003
 21
168.936715394
 31
0
  0
LINE
  8
0
 62
7
 10
341.0664840637
 20
42.70505395169981
 30
0
 11
341.0664840637
 21
231.7858168863002
 31
0
  0
LINE
  8
0
 62
7
 10
307.0664840637
 20
166.9394546731
 30
0
 11
281.0664840637
 21
166.9394546731
 31
0
  0
LINE
  8
0
 62
7
 10
341.0664840637
 20
166.9394546731
 30
0
 11
315.0893824394
 21
166.9394546731
 31
0
  0
LINE
  8
0
 62
7
 10
304.5090220028
 20
105.5541550321
 30
0
 11
307.0664840637
 21
107.4852125566
 31
0
  0
LINE
  8
0
 62
7
 10
307.0664840637
 20
167.0056578789
 30
0
 11
304.5090220028
 21
168.936715394
 31
0
  0
LINE
  8
0
 62
7
 10
317.6468445003
 20
154.3352104893
 30
0
 11
315.0893824394
 21
154.9901003463
 31
0
  0
LINE
  8
0
 62
7
 10
307.0664840637
 20
161.0342941803
 30
0
 11
281.0664840637
 21
161.0342941803
 31
0
  0
LINE
  8
0
 62
7
 10
341.0664840637
 20
161.0342941803
 30
0
 11
315.0893824394
 21
161.0342941803
 31
0
  0
LINE
  8
0
 62
7
 10
307.0664840637
 20
159.2938574553
 30
0
 11
281.0664840637
 21
159.2938574553
 31
0
  0
LINE
  8
0
 62
7
 10
341.0664840637
 20
159.2938574553
 30
0
 11
315.0893824394
 21
159.2938574553
 31
0
  0
LINE
  8
0
 62
7
 10
307.0664840637
 20
155.0125521934
 30
0
 11
281.0664840637
 21
155.0125521934
 31
0
  0
LINE
  8
0
 62
7
 10
341.0664840637
 20
155.0125521934
 30
0
 11
315.0893824394
 21
155.0125521934
 31
0
  0
LINE
  8
0
 62
7
 10
304.5090220028
 20
154.3352104893
 30
0
 11
307.0664840637
 21
154.9901003463
 31
0
  0
LINE
  8
0
 62
7
 10
304.5090220028
 20
154.3352104893
 30
0
 11
281.0664840637
 21
154.3352104893
 31
0
  0
LINE
  8
0
 62
7
 10
341.0664840637
 20
154.3352104893
 30
0
 11
317.6468445003
 21
154.3352104893
 31
0
  0
LINE
  8
0
 62
7
 10
315.0893824394
 20
43.70567744469981
 30
0
 11
315.0893824394
 21
230.7851934723002
 31
0
  0
LINE
  8
0
 62
7
 10
314.0893824394
 20
223.6528974799002
 30
0
 11
314.0893824394
 21
50.83797343719978
 31
0
  0
LINE
  8
DEFAULT_1
 62
2
  6
CENTER
 10
311.0664840637
 20
41.26500075679981
 30
0
 11
311.0664840637
 21
233.2137146401002
 31
0
  0
LINE
  8
0
 62
7
 10
308.0664840637
 20
223.6528974799002
 30
0
 11
308.0664840637
 21
50.83797343719978
 31
0
  0
LINE
  8
0
 62
7
 10
307.0664840637
 20
226.1784150881002
 30
0
 11
307.0664840637
 21
230.7851934723002
 31
0
  0
LINE
  8
0
 62
7
 10
307.0664840637
 20
48.65242540269982
 30
0
 11
307.0664840637
 21
225.8384453768002
 31
0
  0
LINE
  8
0
 62
7
 10
307.0664840637
 20
48.31245573979981
 30
0
 11
307.0664840637
 21
43.70567744469981
 31
0
  0
LINE
  8
0
 62
7
 10
315.0893824394
 20
167.0056578789
 30
0
 11
317.6468445003
 21
168.936715394
 31
0
  0
LINE
  8
0
 62
7
 10
317.6468445003
 20
105.5541550321
 30
0
 11
315.0893824394
 21
107.4852125566
 31
0
  0
LINE
  8
0
 62
7
 10
307.0664840637
 20
119.5007700743
 30
0
 11
304.5090220028
 21
120.1556599188
 31
0
  0
LINE
  8
0
 62
7
 10
304.5090220028
 20
120.1556599188
 30
0
 11
281.0664840637
 21
120.1556599188
 31
0
  0
LINE
  8
0
 62
7
 10
341.0664840637
 20
120.1556599188
 30
0
 11
317.6468445003
 21
120.1556599188
 31
0
  0
LINE
  8
0
 62
7
 10
307.0664840637
 20
119.4783182277
 30
0
 11
281.0664840637
 21
119.4783182277
 31
0
  0
LINE
  8
0
 62
7
 10
341.0664840637
 20
119.4783182277
 30
0
 11
315.0893824394
 21
119.4783182277
 31
0
  0
LINE
  8
0
 62
7
 10
307.0664840637
 20
115.1970129861
 30
0
 11
281.0664840637
 21
115.1970129861
 31
0
  0
LINE
  8
0
 62
7
 10
341.0664840637
 20
115.1970129861
 30
0
 11
315.0893824394
 21
115.1970129861
 31
0
  0
LINE
  8
0
 62
7
 10
315.0893824394
 20
119.5007700743
 30
0
 11
317.6468445003
 21
120.1556599188
 31
0
  0
LINE
  8
0
 62
7
 10
307.0664840637
 20
113.4565762633
 30
0
 11
281.0664840637
 21
113.4565762633
 31
0
  0
LINE
  8
0
 62
7
 10
341.0664840637
 20
113.4565762633
 30
0
 11
315.0893824394
 21
113.4565762633
 31
0
  0
LINE
  8
0
 62
7
 10
307.0664840637
 20
107.5514157627
 30
0
 11
281.0664840637
 21
107.5514157627
 31
0
  0
LINE
  8
0
 62
7
 10
341.0664840637
 20
107.5514157627
 30
0
 11
315.0893824394
 21
107.5514157627
 31
0
  0
LINE
  8
0
 62
7
 10
281.0664840637
 20
42.70505395169981
 30
0
 11
281.0664840637
 21
231.7858168863002
 31
0
  0
LINE
  8
0
 62
7
 10
304.5090220028
 20
105.5541550321
 30
0
 11
281.0664840637
 21
105.5541550321
 31
0
  0
LINE
  8
0
 62
7
 10
341.0664840637
 20
105.5541550321
 30
0
 11
317.6468445003
 21
105.5541550321
 31
0
  0
LINE
  8
0
 62
7
 10
315.0893824394
 20
206.5363181088
 30
0
 11
317.6468445003
 21
209.2261179929
 31
0
  0
LINE
  8
0
 62
7
 10
317.6468445003
 20
65.26475256170001
 30
0
 11
315.0893824394
 21
67.9545524494
 31
0
  0
LINE
  8
0
 62
7
 10
315.0893824394
 20
76.7505510188
 30
0
 11
317.6468445003
 21
75.9537959876
 31
0
  0
LINE
  8
0
 62
7
 10
317.6468445003
 20
198.5370745175
 30
0
 11
315.0893824394
 21
197.7403194988
 31
0
  0
LINE
  8
0
 62
7
 10
316.0893824891
 20
231.7858169361002
 30
0
 11
315.0893824394
 21
230.7858168863002
 31
0
  0
LINE
  8
0
 62
7
 10
315.0893824394
 20
229.0580043400002
 30
0
 11
317.6468445003
 21
231.7858168863002
 31
0
  0
LINE
  8
0
 62
7
 10
317.6468445003
 20
42.70505395169981
 30
0
 11
315.0893824394
 21
45.43286649499981
 31
0
  0
LINE
  8
0
 62
7
 10
316.0893824891
 20
42.7050539809998
 30
0
 11
315.0893824394
 21
43.70505403079982
 31
0
  0
LINE
  8
0
 62
7
 10
304.5090220028
 20
75.9537959876
 30
0
 11
281.0664840637
 21
75.9537959876
 31
0
  0
LINE
  8
0
 62
7
 10
341.0664840637
 20
75.9537959876
 30
0
 11
317.6468445003
 21
75.9537959876
 31
0
  0
LINE
  8
0
 62
7
 10
307.0664840637
 20
75.2675887772
 30
0
 11
281.0664840637
 21
75.2675887772
 31
0
  0
LINE
  8
0
 62
7
 10
341.0664840637
 20
75.2675887772
 30
0
 11
315.0893824394
 21
75.2675887772
 31
0
  0
LINE
  8
0
 62
7
 10
307.0664840637
 20
73.9935006708
 30
0
 11
281.0664840637
 21
73.9935006708
 31
0
  0
LINE
  8
0
 62
7
 10
341.0664840637
 20
73.9935006708
 30
0
 11
315.0893824394
 21
73.9935006708
 31
0
  0
LINE
  8
0
 62
7
 10
317.6468445003
 20
227.8733554075002
 30
0
 11
315.0893824394
 21
225.8384453768002
 31
0
  0
LINE
  8
0
 62
7
 10
315.0893824394
 20
48.65242540269982
 30
0
 11
317.6468445003
 21
46.61751536309981
 31
0
  0
LINE
  8
0
 62
7
 10
307.0664840637
 20
68.046767919
 30
0
 11
281.0664840637
 21
68.046767919
 31
0
  0
LINE
  8
0
 62
7
 10
341.0664840637
 20
68.046767919
 30
0
 11
315.0893824394
 21
68.046767919
 31
0
  0
LINE
  8
0
 62
7
 10
304.5090220028
 20
65.26475256170001
 30
0
 11
281.0664840637
 21
65.26475256170001
 31
0
  0
LINE
  8
0
 62
7
 10
341.0664840637
 20
65.26475256170001
 30
0
 11
317.6468445003
 21
65.26475256170001
 31
0
  0
LINE
  8
0
 62
7
 10
314.0893824394
 20
50.83797343719978
 30
0
 11
308.0664840637
 21
50.83797343719978
 31
0
  0
LINE
  8
0
 62
7
 10
304.5090220028
 20
46.61751536309981
 30
0
 11
281.0664840637
 21
46.61751536309981
 31
0
  0
LINE
  8
0
 62
7
 10
341.0664840637
 20
46.61751536309981
 30
0
 11
317.6468445003
 21
46.61751536309981
 31
0
  0
LINE
  8
0
 62
7
 10
307.0664840637
 20
45.52638516739981
 30
0
 11
281.0664840637
 21
45.52638516739981
 31
0
  0
LINE
  8
0
 62
7
 10
341.0664840637
 20
45.52638516739981
 30
0
 11
315.0893824394
 21
45.52638516739981
 31
0
  0
LINE
  8
0
 62
7
 10
316.0893824789
 20
42.70505395169981
 30
0
 11
341.0664840637
 21
42.70505395169981
 31
0
  0
LINE
  8
0
 62
7
 10
281.0664840637
 20
42.70505395169981
 30
0
 11
306.0664840242
 21
42.7050539912998
 31
0
  0
LINE
  8
0
 62
7
 10
214.2338206103647
 20
190.9099921205927
 30
0
 11
190.0652286799468
 21
215.0785841627837
 31
0
  0
LINE
  8
0
 62
7
 10
190.0652283199927
 20
59.41228642703528
 30
0
 11
214.2338203621837
 21
83.58087835745323
 31
0
  0
LINE
  8
0
 62
7
 10
221.7921155008484
 20
96.67222948621777
 30
0
 11
230.6384342178764
 21
129.6871400927907
 31
0
  0
LINE
  8
0
 62
7
 10
230.638434252775
 20
144.8037303094837
 30
0
 11
221.792115688393
 21
177.8186409569296
 31
0
  0
LINE
  8
0
 62
7
 10
213.5383959640523
 20
180.7406325132023
 30
0
 11
212.6374796256974
 21
182.3010653927955
 31
0
  0
LINE
  8
0
 62
7
 10
176.9738775510857
 20
222.6368793014225
 30
0
 11
143.9589669446092
 21
231.4831980184765
 31
0
  0
LINE
  8
0
 62
7
 10
128.8423767279163
 20
231.483198053375
 30
0
 11
95.82746608047036
 21
222.636879488993
 31
0
  0
LINE
  8
DEFAULT_1
 62
2
  6
CENTER
 10
136.4006716184
 20
101.870435419
 30
0
 11
136.4006716184
 21
240.3760948754
 31
0
  0
LINE
  8
DEFAULT_1
 62
2
  6
CENTER
 10
144.4007716184
 20
137.245435419
 30
0
 11
34.1890196664
 21
137.245435419
 31
0
  0
LINE
  8
DEFAULT_1
 62
2
  6
CENTER
 10
234.1454439692
 20
137.245435419
 30
0
 11
144.4007716184
 21
137.245435419
 31
0
  0
LINE
  8
0
 62
7
 10
82.73611491671065
 20
215.0785844109388
 30
0
 11
58.56752287451965
 21
190.9099924805209
 31
0
  0
LINE
  8
0
 62
7
 10
51.00922773595155
 20
177.8186413517822
 30
0
 11
42.16290901892358
 21
144.8037307452092
 31
0
  0
LINE
  8
0
 62
7
 10
42.16290898402502
 20
129.6871405285163
 30
0
 11
51.00922754831041
 21
96.67222988104446
 31
0
  0
LINE
  8
0
 62
7
 10
58.56752262646116
 20
83.58087871731065
 30
0
 11
82.7361145568791
 21
59.41228667511966
 31
0
  0
LINE
  8
0
 62
7
 10
95.82746568561777
 20
51.85399153655155
 30
0
 11
128.8423762921908
 21
43.00767281952356
 31
0
  0
LINE
  8
0
 62
7
 10
143.9589665088838
 20
43.00767278462503
 30
0
 11
176.9738771563555
 21
51.85399134891041
 31
0
  0
ARC
  8
DEFAULT_1
 62
2
  6
CENTER
 10
136.4006716183982
 20
137.2454354189996
 30
0
 40
94.54038146729975
 50
265.419497890601
 51
274.582641696401
  0
ARC
  8
DEFAULT_1
 62
2
  6
CENTER
 10
136.4006716184
 20
137.245435419
 30
0
 40
94.54038146730026
 50
235.4173583036002
 51
244.5805021094001
  0
ARC
  8
DEFAULT_1
 62
2
  6
CENTER
 10
136.4006716184
 20
137.245435419
 30
0
 40
94.54038146729999
 50
244.6446666319999
 51
265.3553331138999
  0
ARC
  8
DEFAULT_1
 62
2
  6
CENTER
 10
136.4006716184
 20
137.245435419
 30
0
 40
94.54038146729999
 50
214.6256072107
 51
235.3743925032
  0
ARC
  8
DEFAULT_1
 62
2
  6
CENTER
 10
136.4006716184
 20
137.245435419
 30
0
 40
94.54038146730001
 50
205.4194978906
 51
214.5826416964
  0
ARC
  8
DEFAULT_1
 62
2
  6
CENTER
 10
136.4006716184018
 20
137.2454354189996
 30
0
 40
94.5403814672989
 50
295.4173583035991
 51
304.5805021093993
  0
ARC
  8
DEFAULT_1
 62
2
  6
CENTER
 10
136.4006716184006
 20
137.245435418999
 30
0
 40
94.54038146729936
 50
325.4194978906002
 51
334.5826416964002
  0
ARC
  8
DEFAULT_1
 62
2
  6
CENTER
 10
136.4006716184
 20
137.245435419
 30
0
 40
94.54038146729999
 50
214.6256074968
 51
235.3743927893
  0
ARC
  8
DEFAULT_1
 62
2
  6
CENTER
 10
136.4006716184
 20
137.245435419
 30
0
 40
94.54038146729995
 50
244.6446668860999
 51
265.3553333680001
  0
ARC
  8
DEFAULT_1
 62
2
  6
CENTER
 10
136.4006716184
 20
137.245435419
 30
0
 40
94.54038146729991
 50
274.6256074968
 51
295.3743927893
  0
ARC
  8
DEFAULT_1
 62
2
  6
CENTER
 10
136.4006716184
 20
137.245435419
 30
0
 40
94.54038146729999
 50
304.6446668861
 51
325.355333368
  0
ARC
  8
DEFAULT_1
 62
2
  6
CENTER
 10
136.4006716184
 20
137.245435419
 30
0
 40
94.54038146730002
 50
334.6256074968
 51
355.3743927893
  0
ARC
  8
DEFAULT_1
 62
2
  6
CENTER
 10
136.4006716184
 20
137.245435419
 30
0
 40
94.54038146730009
 50
355.4173583036
 51
4.580502109400012
  0
ARC
  8
DEFAULT_1
 62
2
  6
CENTER
 10
136.4006716183982
 20
137.2454354189996
 30
0
 40
94.54038146729961
 50
115.417358303599
 51
124.580502109399
  0
ARC
  8
DEFAULT_1
 62
2
  6
CENTER
 10
136.4006716184006
 20
137.245435419001
 30
0
 40
94.54038146730036
 50
145.4194978906005
 51
154.5826416964005
  0
ARC
  8
DEFAULT_1
 62
2
  6
CENTER
 10
136.4006716184
 20
137.245435419
 30
0
 40
94.54038146730001
 50
124.6446668861
 51
145.355333368
  0
ARC
  8
DEFAULT_1
 62
2
  6
CENTER
 10
136.4006716184
 20
137.245435419
 30
0
 40
94.54038146729995
 50
154.6256074968
 51
175.3743927893
  0
ARC
  8
DEFAULT_1
 62
2
  6
CENTER
 10
136.4006716184
 20
137.245435419
 30
0
 40
94.54038146730004
 50
175.4173583036
 51
184.5805021094
  0
ARC
  8
DEFAULT_1
 62
2
  6
CENTER
 10
136.4006716184018
 20
137.2454354189996
 30
0
 40
94.54038146730051
 50
85.41949789060105
 51
94.58264169640098
  0
ARC
  8
DEFAULT_1
 62
2
  6
CENTER
 10
136.4006716184
 20
137.245435419
 30
0
 40
94.54038146730028
 50
55.41735830360016
 51
64.58050210940017
  0
ARC
  8
0
 62
7
 10
308.0664840637
 20
224.6528974799002
 30
0
 40
1.000000000000022
 50
202.5
 51
270
  0
ARC
  8
0
 62
7
 10
308.0664840637
 20
49.8379734371998
 30
0
 40
0.9999999999999787
 50
90
 51
157.5000000000011
  0
ARC
  8
0
 62
7
 10
314.0893824394
 20
224.6528974799002
 30
0
 40
1
 50
270
 51
337.4999999999988
  0
ARC
  8
0
 62
7
 10
314.0893824394
 20
49.8379734371998
 30
0
 40
0.9999999999999673
 50
22.50000000000088
 51
90
  0
ARC
  8
DEFAULT_1
 62
2
  6
CENTER
 10
136.4006716184
 20
137.245435419
 30
0
 40
94.54038146730002
 50
4.644666631999962
 51
25.35533311389997
  0
ARC
  8
DEFAULT_1
 62
2
  6
CENTER
 10
136.4006716184
 20
137.245435419
 30
0
 40
94.54038146729999
 50
334.6256072107
 51
355.3743925032
  0
ARC
  8
DEFAULT_1
 62
2
  6
CENTER
 10
136.4006716184
 20
137.245435419
 30
0
 40
94.54038146729997
 50
304.644666632
 51
325.3553331139
  0
ARC
  8
DEFAULT_1
 62
2
  6
CENTER
 10
136.4006716184
 20
137.245435419
 30
0
 40
94.54038146729999
 50
274.6256072107001
 51
295.3743925031999
  0
ARC
  8
DEFAULT_1
 62
2
  6
CENTER
 10
136.4006716184
 20
137.245435419
 30
0
 40
94.54038146729999
 50
244.6446666319999
 51
265.3553331138999
  0
ARC
  8
DEFAULT_1
 62
2
  6
CENTER
 10
136.4006716184
 20
137.245435419
 30
0
 40
94.54038146729999
 50
214.6256072107
 51
235.3743925032
  0
ARC
  8
DEFAULT_1
 62
2
  6
CENTER
 10
136.4006716184
 20
137.245435419
 30
0
 40
94.54038146729999
 50
184.644666632
 51
205.3553331139
  0
ARC
  8
DEFAULT_1
 62
2
  6
CENTER
 10
136.4006716184
 20
137.245435419
 30
0
 40
94.54038146729999
 50
154.6256072107
 51
175.3743925032
  0
ARC
  8
DEFAULT_1
 62
2
  6
CENTER
 10
136.4006716184
 20
137.245435419
 30
0
 40
94.54038146729999
 50
124.6446666319999
 51
145.3553331139
  0
ARC
  8
DEFAULT_1
 62
2
  6
CENTER
 10
136.4006716184
 20
137.245435419
 30
0
 40
94.54038146729999
 50
94.62560721069995
 51
115.3743925032
  0
ARC
  8
DEFAULT_1
 62
2
  6
CENTER
 10
136.4006716184
 20
137.245435419
 30
0
 40
94.54038146729998
 50
64.644666632
 51
85.35533311389999
  0
ARC
  8
DEFAULT_1
 62
2
  6
CENTER
 10
136.4006716184
 20
137.245435419
 30
0
 40
94.54038146730001
 50
34.62560721070004
 51
55.37439250320001
  0
ARC
  8
DEFAULT_1
 62
2
  6
CENTER
 10
136.4006716184
 20
137.245435419
 30
0
 40
94.54038146730004
 50
25.41949789060002
 51
34.58264169639995
  0
CIRCLE
  8
1
 62
7
 10
136.4006716184
 20
137.245435419
 30
0
 40
9.999999999999931
  0
ENDSEC
  0
EOF
