  0
SECTION
  2
HEADER
  9
$ACADVER
  1
AC1009
  9
$INSBASE
 10
0
 20
0
  9
$EXTMIN
 10
56.44240643080001
 20
114.5554603548
  9
$EXTMAX
 10
325.7577422068
 20
250.4768147777
  9
$LIMMIN
 10
56.44240643080001
 20
114.5554603548
  9
$LIMMAX
 10
325.7577422068
 20
250.4768147777
  9
$VIEWCTR
 10
10
 20
10
  9
$VIEWSIZE
 40
10
  9
$SNAPMODE
 70
0
  9
$SNAPUNIT
 10
1
 20
1
  9
$SNAPBASE
 10
0
 20
0
  9
$SNAPANG
 50
0
  9
$SNAPSTYLE
 70
0
  9
$SNAPISOPAIR
 70
0
  9
$GRIDMODE
 70
0
  9
$GRIDUNIT
 10
0
 20
0
  9
$ORTHOMODE
 70
0
  9
$REGENMODE
 70
1
  9
$FILLMODE
 70
1
  9
$QTEXTMODE
 70
0
  9
$DRAGMODE
 70
2
  9
$LTSCALE
 40
1
  9
$OSMODE
 70
0
  9
$ATTMODE
 70
1
  9
$TEXTSIZE
 40
3.5
  9
$TRACEWID
 40
0.5
  9
$TEXTSTYLE
  7
STANDARD
  9
$CLAYER
  8
0
  9
$CELTYPE
  6
BYLAYER
  9
$CECOLOR
 62
256
  9
$DIMSCALE
 40
1
  9
$DIMASZ
 40
0.18
  9
$DIMEXO
 40
0.0625
  9
$DIMDLI
 40
0.38
  9
$DIMRND
 40
0
  9
$DIMDLE
 40
0
  9
$DIMEXE
 40
0.18
  9
$DIMTP
 40
0
  9
$DIMTM
 40
0
  9
$DIMTXT
 40
0.18
  9
$DIMCEN
 40
0.09
  9
$DIMTSZ
 40
0
  9
$DIMTOL
 70
0
  9
$DIMLIM
 70
0
  9
$DIMTIH
 70
1
  9
$DIMTOH
 70
1
  9
$DIMSE1
 70
0
  9
$DIMSE2
 70
0
  9
$DIMTAD
 70
0
  9
$DIMZIN
 70
0
  9
$DIMBLK
  1

  9
$DIMASO
 70
1
  9
$DIMSHO
 70
1
  9
$DIMPOST
  1

  9
$DIMAPOST
  1

  9
$DIMALT
 70
0
  9
$DIMALTD
 70
2
  9
$DIMALTF
 40
25.4
  9
$DIMLFAC
 40
1
  9
$DIMTOFL
 70
0
  9
$DIMTVP
 40
0
  9
$DIMTIX
 70
0
  9
$DIMSOXD
 70
0
  9
$DIMSAH
 70
0
  9
$DIMBLK1
  1

  9
$DIMBLK2
  1

  9
$DIMSTYLE
  2
*UNNAMED
  9
$DIMCLRD
 70
0
  9
$DIMCLRE
 70
0
  9
$DIMCLRT
 70
0
  9
$DIMTFAC
 40
1
  9
$DIMGAP
 40
0.09
  9
$LUNITS
 70
2
  9
$LUPREC
 70
4
  9
$AXISMODE
 70
0
  9
$AXISUNIT
 10
0
 20
0
  9
$SKETCHINC
 40
0.1
  9
$FILLETRAD
 40
2
  9
$AUNITS
 70
0
  9
$AUPREC
 70
0
  9
$MENU
  1
ACAD
  9
$ELEVATION
 40
0
  9
$THICKNESS
 40
0
  9
$VIEWDIR
 10
0
 20
0
 30
1
  9
$LIMCHECK
 70
0
  9
$BLIPMODE
 70
1
  9
$CHAMFERA
 40
0
  9
$CHAMFERB
 40
0
  9
$FASTZOOM
 70
1
  9
$SKPOLY
 70
0
  9
$ANGBASE
 50
0
  9
$ANGDIR
 70
0
  9
$PDMODE
 70
0
  9
$PDSIZE
 40
0
  9
$PLINEWID
 40
0
  9
$COORDS
 70
2
  0
ENDSEC
  0
SECTION
  2
TABLES
  0
TABLE
  2
DIMSTYLE
 70
0
  0
ENDTAB
  0
TABLE
  2
LTYPE
 70
9
  0
LTYPE
  2
CONTINUOUS
 70
64
  3
Solid line
 72
65
 73
0
 40
0
  0
LTYPE
  2
BORDER
 70
64
  3
__ __ . __ __ .
 72
65
 73
6
 40
12.40267993705263
 49
3.543622839157894
 49
-1.771811419578947
 49
3.543622839157894
 49
-1.771811419578947
 49
0
 49
-1.771811419578947
  0
LTYPE
  2
CENTER
 70
64
  3
____ _ ____ _
 72
65
 73
4
 40
14.17449135663158
 49
8.859057097894736
 49
-1.771811419578947
 49
1.771811419578947
 49
-1.771811419578947
  0
LTYPE
  2
DASHDOT
 70
64
  3
__ . __ . __ .
 72
65
 73
4
 40
7.087245678315789
 49
3.543622839157894
 49
-1.771811419578947
 49
0
 49
-1.771811419578947
  0
LTYPE
  2
DASHED
 70
64
  3
__ __ __ __ __
 72
65
 73
2
 40
5.315434258736842
 49
3.543622839157894
 49
-1.771811419578947
  0
LTYPE
  2
DIVIDE
 70
64
  3
__ . . __ . . 
 72
65
 73
6
 40
8.859057097894736
 49
3.543622839157894
 49
-1.771811419578947
 49
0
 49
-1.771811419578947
 49
0
 49
-1.771811419578947
  0
LTYPE
  2
DOT
 70
64
  3
..............
 72
65
 73
4
 40
3.543622839157894
 49
0
 49
-1.771811419578947
 49
0
 49
-1.771811419578947
  0
LTYPE
  2
HIDDEN
 70
64
  3
_ _ _ _ _ _ _
 72
65
 73
2
 40
2.657717129368421
 49
1.771811419578947
 49
-0.8859057097894736
  0
LTYPE
  2
PHANTOM
 70
64
  3
_____ _ _ _____ _ _ 
 72
65
 73
6
 40
17.71811419578947
 49
8.859057097894736
 49
-1.771811419578947
 49
1.771811419578947
 49
-1.771811419578947
 49
1.771811419578947
 49
-1.771811419578947
  0
ENDTAB
  0
TABLE
  2
LAYER
 70
4
  0
LAYER
  2
DEFAULT_1
 70
0
 62
7
  6
CONTINUOUS
  0
LAYER
  2
0
 70
0
 62
7
  6
CONTINUOUS
  0
LAYER
  2
1
 70
0
 62
7
  6
CONTINUOUS
  0
ENDTAB
  0
TABLE
  2
STYLE
 70
4
  0
STYLE
  2
STANDARD
 70
0
 40
0
 41
1
 50
0
 71
0
 42
3.5
  3
txt
  4

  0
STYLE
  2
SIMPLEX
 70
0
 40
0
 41
1
 50
0
 71
0
 42
3.5
  3
simplex
  4

  0
STYLE
  2
COMPLEX
 70
0
 40
0
 41
1
 50
0
 71
0
 42
3.5
  3
complex
  4

  0
STYLE
  2
ITALIC
 70
0
 40
0
 41
1
 50
0
 71
0
 42
3.5
  3
italic
  4

  0
ENDTAB
  0
TABLE
  2
VIEW
 70
0
  0
ENDTAB
  0
ENDSEC
  0
SECTION
  2
BLOCKS
  0
ENDSEC
  0
SECTION
  2
ENTITIES
  0
POLYLINE
  8
0
 62
7
 66
1
  0
VERTEX
  8
0
 10
286.3899365234
 20
241.1542213067999
 30
0
  0
VERTEX
  8
0
 10
285.9746862793
 20
241.4904081354
 30
0
  0
VERTEX
  8
0
 10
285.5157641602
 20
241.8739805230999
 30
0
  0
VERTEX
  8
0
 10
285.0143249512
 20
242.3054633721999
 30
0
  0
SEQEND
  8
0
  0
POLYLINE
  8
0
 62
7
 66
1
  0
VERTEX
  8
0
 10
285.0143249512
 20
227.7109349645999
 30
0
  0
VERTEX
  8
0
 10
285.5156854248
 20
227.1611391271999
 30
0
  0
VERTEX
  8
0
 10
285.9743188477
 20
226.6129311194
 30
0
  0
VERTEX
  8
0
 10
286.3899365234
 20
226.0693422521999
 30
0
  0
SEQEND
  8
0
  0
POLYLINE
  8
0
 62
7
 66
1
  0
VERTEX
  8
0
 10
295.7655584717
 20
227.7109349645999
 30
0
  0
VERTEX
  8
0
 10
295.264197998
 20
227.1611391271999
 30
0
  0
VERTEX
  8
0
 10
294.8055645752
 20
226.6129311194
 30
0
  0
VERTEX
  8
0
 10
294.3899468994
 20
226.0693422521999
 30
0
  0
SEQEND
  8
0
  0
POLYLINE
  8
0
 62
7
 66
1
  0
VERTEX
  8
0
 10
295.1803448486
 20
218.3285942663999
 30
0
  0
VERTEX
  8
0
 10
295.2640930176
 20
218.3294078649999
 30
0
  0
VERTEX
  8
0
 10
295.7655584717
 20
218.3663216222999
 30
0
  0
SEQEND
  8
0
  0
POLYLINE
  8
0
 62
7
 66
1
  0
VERTEX
  8
0
 10
286.3899365234
 20
218.4130510534999
 30
0
  0
VERTEX
  8
0
 10
285.9746862793
 20
218.3463359655999
 30
0
  0
VERTEX
  8
0
 10
285.5995385742
 20
218.3285942663999
 30
0
  0
SEQEND
  8
0
  0
POLYLINE
  8
0
 62
7
 66
1
  0
VERTEX
  8
0
 10
294.3899468994
 20
218.4130510534999
 30
0
  0
VERTEX
  8
0
 10
294.8051708984
 20
218.3463359655999
 30
0
  0
VERTEX
  8
0
 10
295.1803448486
 20
218.3285942663999
 30
0
  0
SEQEND
  8
0
  0
POLYLINE
  8
0
 62
7
 66
1
  0
VERTEX
  8
0
 10
285.5995385742
 20
218.3285942663999
 30
0
  0
VERTEX
  8
0
 10
285.5157641602
 20
218.3294078649999
 30
0
  0
VERTEX
  8
0
 10
285.0143249512
 20
218.3663216222999
 30
0
  0
SEQEND
  8
0
  0
POLYLINE
  8
0
 62
7
 66
1
  0
VERTEX
  8
0
 10
294.3899468994
 20
241.1542213067999
 30
0
  0
VERTEX
  8
0
 10
294.8051708984
 20
241.4904081354
 30
0
  0
VERTEX
  8
0
 10
295.2640930176
 20
241.8739805230999
 30
0
  0
VERTEX
  8
0
 10
295.7655584717
 20
242.3054633721999
 30
0
  0
SEQEND
  8
0
  0
POLYLINE
  8
0
 62
7
 66
1
  0
VERTEX
  8
0
 10
286.3899365234
 20
125.4510642082001
 30
0
  0
VERTEX
  8
0
 10
285.9746862793
 20
125.1148773796001
 30
0
  0
VERTEX
  8
0
 10
285.5157641602
 20
124.7313049919001
 30
0
  0
VERTEX
  8
0
 10
285.0143249512
 20
124.2998221428001
 30
0
  0
SEQEND
  8
0
  0
POLYLINE
  8
0
 62
7
 66
1
  0
VERTEX
  8
0
 10
285.0143249512
 20
138.8943505504
 30
0
  0
VERTEX
  8
0
 10
285.5156854248
 20
139.4441463878
 30
0
  0
VERTEX
  8
0
 10
285.9743188477
 20
139.9923543956
 30
0
  0
VERTEX
  8
0
 10
286.3899365234
 20
140.5359432628
 30
0
  0
SEQEND
  8
0
  0
POLYLINE
  8
0
 62
7
 66
1
  0
VERTEX
  8
0
 10
286.3899365234
 20
192.492417567
 30
0
  0
VERTEX
  8
0
 10
285.9746862793
 20
192.9229555919
 30
0
  0
VERTEX
  8
0
 10
285.5157641602
 20
193.330476649
 30
0
  0
VERTEX
  8
0
 10
285.0143249512
 20
193.7097579601
 30
0
  0
SEQEND
  8
0
  0
POLYLINE
  8
0
 62
7
 66
1
  0
VERTEX
  8
0
 10
283.0203259277
 20
180.9081902721
 30
0
  0
VERTEX
  8
0
 10
284.3543127441
 20
175.3427557018
 30
0
  0
VERTEX
  8
0
 10
285.1497497559
 20
169.8771838023
 30
0
  0
VERTEX
  8
0
 10
285.4147729492
 20
164.4504284312
 30
0
  0
VERTEX
  8
0
 10
285.1499072266
 20
159.0234630992
 30
0
  0
VERTEX
  8
0
 10
284.3544702148
 20
153.557051356
 30
0
  0
VERTEX
  8
0
 10
283.0203259277
 20
147.9908687999
 30
0
  0
SEQEND
  8
0
  0
POLYLINE
  8
0
 62
7
 66
1
  0
VERTEX
  8
0
 10
297.7595574951
 20
180.9081902721
 30
0
  0
VERTEX
  8
0
 10
296.4255706787
 20
175.3427557018
 30
0
  0
VERTEX
  8
0
 10
295.6301074219
 20
169.8771838023
 30
0
  0
VERTEX
  8
0
 10
295.3651104736
 20
164.4504284312
 30
0
  0
VERTEX
  8
0
 10
295.6299761963
 20
159.0234630992
 30
0
  0
VERTEX
  8
0
 10
296.425413208
 20
153.557051356
 30
0
  0
VERTEX
  8
0
 10
297.7595574951
 20
147.9908687999
 30
0
  0
SEQEND
  8
0
  0
POLYLINE
  8
0
 62
7
 66
1
  0
VERTEX
  8
0
 10
295.7655584717
 20
181.8597594859
 30
0
  0
VERTEX
  8
0
 10
295.264197998
 20
182.1309371593
 30
0
  0
VERTEX
  8
0
 10
294.8055645752
 20
182.4403146007
 30
0
  0
VERTEX
  8
0
 10
294.3899468994
 20
182.7834038951
 30
0
  0
SEQEND
  8
0
  0
POLYLINE
  8
0
 62
7
 66
1
  0
VERTEX
  8
0
 10
294.3899468994
 20
192.492417567
 30
0
  0
VERTEX
  8
0
 10
294.8051708984
 20
192.9229555919
 30
0
  0
VERTEX
  8
0
 10
295.2640930176
 20
193.330476649
 30
0
  0
VERTEX
  8
0
 10
295.7655584717
 20
193.7097579601
 30
0
  0
SEQEND
  8
0
  0
POLYLINE
  8
0
 62
7
 66
1
  0
VERTEX
  8
0
 10
285.0143249512
 20
181.8597594859
 30
0
  0
VERTEX
  8
0
 10
285.5156854248
 20
182.1309371593
 30
0
  0
VERTEX
  8
0
 10
285.9743188477
 20
182.4403146007
 30
0
  0
VERTEX
  8
0
 10
286.3899365234
 20
182.7834038951
 30
0
  0
SEQEND
  8
0
  0
POLYLINE
  8
0
 62
7
 66
1
  0
VERTEX
  8
0
 10
295.7655584717
 20
138.8943505504
 30
0
  0
VERTEX
  8
0
 10
295.264197998
 20
139.4441463878
 30
0
  0
VERTEX
  8
0
 10
294.8055645752
 20
139.9923543956
 30
0
  0
VERTEX
  8
0
 10
294.3899468994
 20
140.5359432628
 30
0
  0
SEQEND
  8
0
  0
POLYLINE
  8
0
 62
7
 66
1
  0
VERTEX
  8
0
 10
295.1803448486
 20
148.2766912486
 30
0
  0
VERTEX
  8
0
 10
295.2640930176
 20
148.27587765
 30
0
  0
VERTEX
  8
0
 10
295.7655584717
 20
148.2389638927
 30
0
  0
SEQEND
  8
0
  0
POLYLINE
  8
0
 62
7
 66
1
  0
VERTEX
  8
0
 10
286.3899365234
 20
148.1922344615
 30
0
  0
VERTEX
  8
0
 10
285.9746862793
 20
148.2589495494
 30
0
  0
VERTEX
  8
0
 10
285.5995385742
 20
148.2766912486
 30
0
  0
SEQEND
  8
0
  0
POLYLINE
  8
0
 62
7
 66
1
  0
VERTEX
  8
0
 10
294.3899468994
 20
148.1922344615
 30
0
  0
VERTEX
  8
0
 10
294.8051708984
 20
148.2589495494
 30
0
  0
VERTEX
  8
0
 10
295.1803448486
 20
148.2766912486
 30
0
  0
SEQEND
  8
0
  0
POLYLINE
  8
0
 62
7
 66
1
  0
VERTEX
  8
0
 10
285.5995385742
 20
148.2766912486
 30
0
  0
VERTEX
  8
0
 10
285.5157641602
 20
148.27587765
 30
0
  0
VERTEX
  8
0
 10
285.0143249512
 20
148.2389638927
 30
0
  0
SEQEND
  8
0
  0
POLYLINE
  8
0
 62
7
 66
1
  0
VERTEX
  8
0
 10
294.3899468994
 20
125.4510642082001
 30
0
  0
VERTEX
  8
0
 10
294.8051708984
 20
125.1148773796001
 30
0
  0
VERTEX
  8
0
 10
295.2640930176
 20
124.7313049919001
 30
0
  0
VERTEX
  8
0
 10
295.7655584717
 20
124.2998221428001
 30
0
  0
SEQEND
  8
0
  0
POINT
  8
0
 62
7
  6
DOT
 10
288.3899382477
 20
126.7137316241001
 30
0
  0
LINE
  8
DEFAULT_1
 62
2
  6
CENTER
 10
254.0459918698001
 20
183.3026427575001
 30
0
 11
325.7577422068
 21
183.3026427575
 31
0
  0
LINE
  8
1
 62
7
 10
121.3869122036999
 20
126.0428270485
 30
0
 11
125.2280173481496
 21
126.1718068954375
 31
0
  0
LINE
  8
1
 62
7
 10
128.5255154768239
 20
121.3428960315897
 30
0
 11
125.2280173481496
 21
126.1718068954375
 31
0
  0
LINE
  8
1
 62
7
 10
117.5458070592506
 20
126.1718068954376
 30
0
 11
121.3869122036999
 21
126.0428270485
 31
0
  0
LINE
  8
1
 62
7
 10
117.5458070592506
 20
126.1718068954376
 30
0
 11
114.2483089305763
 21
121.3428960315898
 31
0
  0
LINE
  8
1
 62
7
 10
78.27323925588911
 20
145.6211127994709
 30
0
 11
80.89810822637412
 21
142.8138387801741
 31
0
  0
LINE
  8
1
 62
7
 10
78.27323925588911
 20
145.6211127994709
 30
0
 11
72.5270003505814
 21
144.5382404696342
 31
0
  0
LINE
  8
1
 62
7
 10
80.89810822637412
 20
142.8138387801741
 30
0
 11
83.70538224567068
 21
140.1889698096894
 31
0
  0
LINE
  8
1
 62
7
 10
82.62250991583414
 20
134.4427309043817
 30
0
 11
83.70538224567068
 21
140.1889698096894
 31
0
  0
LINE
  8
0
 62
7
 10
82.62250991583414
 20
134.4427309043817
 30
0
 11
114.2483089305763
 21
121.3428960315898
 31
0
  0
LINE
  8
1
 62
7
 10
159.0684421617291
 20
140.1889698096892
 30
0
 11
161.875716181026
 21
142.8138387801742
 31
0
  0
LINE
  8
1
 62
7
 10
159.0684421617291
 20
140.1889698096892
 30
0
 11
160.1513144915658
 21
134.4427309043815
 31
0
  0
LINE
  8
1
 62
7
 10
161.875716181026
 20
142.8138387801742
 30
0
 11
164.5005851515107
 21
145.6211127994708
 31
0
  0
LINE
  8
1
 62
7
 10
170.2468240568183
 20
144.5382404696342
 30
0
 11
164.5005851515107
 21
145.6211127994708
 31
0
  0
LINE
  8
1
 62
7
 10
178.6467279127
 20
183.3026427575
 30
0
 11
178.5177480657625
 21
187.1437479019496
 31
0
  0
LINE
  8
1
 62
7
 10
183.3466589296103
 20
190.4412460306239
 30
0
 11
178.5177480657625
 21
187.1437479019496
 31
0
  0
LINE
  8
1
 62
7
 10
178.5177480657625
 20
179.4615376130507
 30
0
 11
178.6467279127
 21
183.3026427575
 31
0
  0
LINE
  8
1
 62
7
 10
178.5177480657625
 20
179.4615376130507
 30
0
 11
183.3466589296102
 21
176.1640394843763
 31
0
  0
LINE
  8
0
 62
7
 10
170.2468240568183
 20
144.5382404696342
 30
0
 11
183.3466589296102
 21
176.1640394843763
 31
0
  0
LINE
  8
0
 62
7
 10
128.5255154768094
 20
121.3428960315874
 30
0
 11
160.1513144915776
 21
134.4427309043901
 31
0
  0
LINE
  8
0
 62
7
 10
82.62250991583414
 20
134.4427309043817
 30
0
 11
114.2483089305763
 21
121.3428960315898
 31
0
  0
LINE
  8
1
 62
7
 10
83.70538224567085
 20
226.4163157053109
 30
0
 11
80.89810822637406
 21
223.7914467348258
 31
0
  0
LINE
  8
1
 62
7
 10
83.70538224567085
 20
226.4163157053109
 30
0
 11
82.6225099158342
 21
232.1625546106185
 31
0
  0
LINE
  8
1
 62
7
 10
80.89810822637406
 20
223.7914467348258
 30
0
 11
78.27323925588935
 21
220.9841727155293
 31
0
  0
LINE
  8
1
 62
7
 10
72.52700035058166
 20
222.0670450453658
 30
0
 11
78.27323925588935
 21
220.9841727155293
 31
0
  0
LINE
  8
1
 62
7
 10
64.1270964947
 20
183.3026427575
 30
0
 11
64.25607634163747
 21
179.4615376130504
 31
0
  0
LINE
  8
1
 62
7
 10
59.42716547778966
 20
176.1640394843761
 30
0
 11
64.25607634163747
 21
179.4615376130504
 31
0
  0
LINE
  8
1
 62
7
 10
64.25607634163751
 20
187.1437479019493
 30
0
 11
64.1270964947
 21
183.3026427575
 31
0
  0
LINE
  8
1
 62
7
 10
64.25607634163751
 20
187.1437479019493
 30
0
 11
59.42716547778979
 21
190.4412460306237
 31
0
  0
LINE
  8
0
 62
7
 10
72.52700035058166
 20
222.0670450453658
 30
0
 11
59.42716547778979
 21
190.4412460306237
 31
0
  0
LINE
  8
1
 62
7
 10
121.3869122037001
 20
240.5624584665
 30
0
 11
117.5458070592504
 21
240.4334786195625
 31
0
  0
LINE
  8
1
 62
7
 10
114.2483089305761
 20
245.2623894834104
 30
0
 11
117.5458070592504
 21
240.4334786195625
 31
0
  0
LINE
  8
1
 62
7
 10
125.2280173481494
 20
240.4334786195624
 30
0
 11
121.3869122037001
 21
240.5624584665
 31
0
  0
LINE
  8
1
 62
7
 10
125.2280173481494
 20
240.4334786195624
 30
0
 11
128.5255154768237
 21
245.2623894834102
 31
0
  0
LINE
  8
1
 62
7
 10
164.5005851515109
 20
220.9841727155291
 30
0
 11
161.8757161810259
 21
223.7914467348259
 31
0
  0
LINE
  8
1
 62
7
 10
164.5005851515109
 20
220.9841727155291
 30
0
 11
170.2468240568186
 21
222.0670450453658
 31
0
  0
LINE
  8
1
 62
7
 10
161.8757161810259
 20
223.7914467348259
 30
0
 11
159.0684421617293
 21
226.4163157053106
 31
0
  0
LINE
  8
1
 62
7
 10
160.1513144915658
 20
232.1625546106183
 30
0
 11
159.0684421617293
 21
226.4163157053106
 31
0
  0
LINE
  8
0
 62
7
 10
296.5180488047984
 20
218.459947124033
 30
0
 11
295.7655584717
 21
218.3663216222999
 31
0
  0
LINE
  8
0
 62
7
 10
294.3899468994
 20
142.4565062536999
 30
0
 11
294.3899468994
 21
242.272827569
 31
0
  0
LINE
  8
0
 62
7
 10
286.3899382477
 20
141.2601765030999
 30
0
 11
286.3899365234
 21
242.3022221002999
 31
0
  0
LINE
  8
0
 62
7
 10
287.3899279785
 20
239.8915520989999
 30
0
 11
287.3899279785
 21
141.6208750235999
 31
0
  0
LINE
  8
0
 62
7
 10
293.3899291992
 20
239.8915520989999
 30
0
 11
293.3899291992
 21
142.5905981578999
 31
0
  0
LINE
  8
0
 62
7
 10
283.0203259277
 20
244.0381397637999
 30
0
 11
285.0143249512
 21
242.3054633721999
 31
0
  0
LINE
  8
0
 62
7
 10
285.5156854248
 20
243.1644004449999
 30
0
 11
283.0203259277
 21
245.6722657404
 31
0
  0
LINE
  8
0
 62
7
 10
285.5156854248
 20
243.1644004449999
 30
0
 11
286.3899365234
 21
242.2728275689999
 31
0
  0
LINE
  8
0
 62
7
 10
285.0143249512
 20
227.7109349645999
 30
0
 11
283.0203259277
 21
229.7990752233999
 31
0
  0
LINE
  8
0
 62
7
 10
295.7655584717
 20
227.7109349645999
 30
0
 11
297.7595574951
 21
229.7990752233999
 31
0
  0
LINE
  8
0
 62
7
 10
260.3899487305
 20
218.7882250036999
 30
0
 11
260.3899382477
 21
245.6722593355999
 31
0
  0
LINE
  8
0
 62
7
 10
297.7595574951
 20
218.6144167150999
 30
0
 11
296.5180488047984
 21
218.459947124033
 31
0
  0
LINE
  8
0
 62
7
 10
260.3899487305
 20
218.6144167150999
 30
0
 11
283.0203259277
 21
218.6144167150999
 31
0
  0
LINE
  8
0
 62
7
 10
297.7595574951
 20
218.6144167150999
 30
0
 11
320.3899346924
 21
218.6144167150999
 31
0
  0
LINE
  8
0
 62
7
 10
283.0203259277
 20
218.6144167150999
 30
0
 11
285.0143249512
 21
218.3663216222999
 31
0
  0
LINE
  8
0
 62
7
 10
295.264197998
 20
243.1644004449999
 30
0
 11
294.3899468994
 21
242.272827569
 31
0
  0
LINE
  8
0
 62
7
 10
297.7595574951
 20
245.6722657404
 30
0
 11
295.264197998
 21
243.1644004449999
 31
0
  0
LINE
  8
0
 62
7
 10
260.3899487305
 20
220.5994399084999
 30
0
 11
286.3899365234
 21
220.5994399084999
 31
0
  0
LINE
  8
0
 62
7
 10
294.3899468994
 20
220.5994399084999
 30
0
 11
320.3899346924
 21
220.5994399084999
 31
0
  0
LINE
  8
0
 62
7
 10
260.3899487305
 20
221.9717970861999
 30
0
 11
286.3899365234
 21
221.9717970861999
 31
0
  0
LINE
  8
0
 62
7
 10
294.3899468994
 20
221.9717970861999
 30
0
 11
320.3899346924
 21
221.9717970861999
 31
0
  0
LINE
  8
0
 62
7
 10
297.7595574951
 20
244.0381397637999
 30
0
 11
295.7655584717
 21
242.3054633721999
 31
0
  0
LINE
  8
0
 62
7
 10
260.3899487305
 20
227.7109349645999
 30
0
 11
285.0143249512
 21
227.7109349645999
 31
0
  0
LINE
  8
0
 62
7
 10
295.7655584717
 20
227.7109349645999
 30
0
 11
320.3899346924
 21
227.7109349645999
 31
0
  0
LINE
  8
0
 62
7
 10
260.3899487305
 20
229.7990752233999
 30
0
 11
283.0203259277
 21
229.7990752233999
 31
0
  0
LINE
  8
0
 62
7
 10
297.7595574951
 20
229.7990752233999
 30
0
 11
320.3899346924
 21
229.7990752233999
 31
0
  0
LINE
  8
0
 62
7
 10
287.3899279785
 20
239.8915520989999
 30
0
 11
293.3899291992
 21
239.8915520989999
 31
0
  0
LINE
  8
0
 62
7
 10
283.4439281349
 20
243.6707445115999
 30
0
 11
285.0143298035
 21
243.6707445115999
 31
0
  0
LINE
  8
0
 62
7
 10
295.7655466919
 20
243.6707445115999
 30
0
 11
297.3359483605
 21
243.6707445115999
 31
0
  0
LINE
  8
0
 62
7
 10
260.3899487305
 20
244.0381397637999
 30
0
 11
283.0203259277
 21
244.0381397637999
 31
0
  0
LINE
  8
0
 62
7
 10
297.7595574951
 20
244.0381397637999
 30
0
 11
320.3899346924
 21
244.0381397637999
 31
0
  0
LINE
  8
0
 62
7
 10
260.3899487305
 20
245.6722657404
 30
0
 11
283.0203259277
 21
245.6722657404
 31
0
  0
LINE
  8
0
 62
7
 10
297.7595574951
 20
245.6722657404
 30
0
 11
320.3899346924
 21
245.6722657404
 31
0
  0
LINE
  8
DEFAULT_1
 62
2
  6
CENTER
 10
121.3869122037
 20
154.316204829039
 30
0
 11
121.3869122037
 21
114.5554603548
 31
0
  0
LINE
  8
0
 62
7
 10
285.0143249512
 20
124.2998221428001
 30
0
 11
283.0203259277
 21
122.5671457512
 31
0
  0
LINE
  8
0
 62
7
 10
283.0203259277
 20
120.9330197746
 30
0
 11
285.5156854248
 21
123.4408850700001
 31
0
  0
LINE
  8
0
 62
7
 10
286.3899365234
 20
124.3324579460001
 30
0
 11
285.5156854248
 21
123.4408850700001
 31
0
  0
LINE
  8
0
 62
7
 10
283.0203259277
 20
136.8062102916
 30
0
 11
285.0143249512
 21
138.8943505504
 31
0
  0
LINE
  8
0
 62
7
 10
320.3899382477
 20
120.9330261794
 30
0
 11
320.3899346924
 21
245.6722775602
 31
0
  0
LINE
  8
0
 62
7
 10
283.0203259277
 20
195.09156338
 30
0
 11
260.3899487305
 21
195.09156338
 31
0
  0
LINE
  8
0
 62
7
 10
320.3899346924
 20
195.09156338
 30
0
 11
297.7595574951
 21
195.09156338
 31
0
  0
LINE
  8
0
 62
7
 10
285.0143249512
 20
193.7097579601
 30
0
 11
260.3899487305
 21
193.7097579601
 31
0
  0
LINE
  8
0
 62
7
 10
320.3899346924
 20
193.7097579601
 30
0
 11
295.7655584717
 21
193.7097579601
 31
0
  0
LINE
  8
0
 62
7
 10
285.0143249512
 20
193.7097579601
 30
0
 11
283.0203259277
 21
195.09156338
 31
0
  0
LINE
  8
0
 62
7
 10
286.3899365234
 20
188.3320940807
 30
0
 11
260.3899487305
 21
188.3320940807
 31
0
  0
LINE
  8
0
 62
7
 10
320.3899346924
 20
188.3320940807
 30
0
 11
294.3899468994
 21
188.3320940807
 31
0
  0
LINE
  8
0
 62
7
 10
283.0203259277
 20
180.9081902721
 30
0
 11
285.0143249512
 21
181.8597594859
 31
0
  0
LINE
  8
0
 62
7
 10
294.3899468994
 20
124.3324579460001
 30
0
 11
294.3899468994
 21
224.1487792613
 31
0
  0
LINE
  8
0
 62
7
 10
293.3899291992
 20
224.0146873571
 30
0
 11
293.3899291992
 21
126.7137334160001
 31
0
  0
LINE
  8
0
 62
7
 10
297.7595574951
 20
180.9081902721
 30
0
 11
295.7655584717
 21
181.8597594859
 31
0
  0
LINE
  8
0
 62
7
 10
286.3899365234
 20
186.5917934825
 30
0
 11
260.3899487305
 21
186.5917934825
 31
0
  0
LINE
  8
0
 62
7
 10
320.3899346924
 20
186.5917934825
 30
0
 11
294.3899468994
 21
186.5917934825
 31
0
  0
LINE
  8
0
 62
7
 10
285.0143249512
 20
181.8597594859
 30
0
 11
260.3899487305
 21
181.8597594859
 31
0
  0
LINE
  8
0
 62
7
 10
320.3899346924
 20
181.8597594859
 30
0
 11
295.7655584717
 21
181.8597594859
 31
0
  0
LINE
  8
0
 62
7
 10
295.7655584717
 20
193.7097579601
 30
0
 11
297.7595574951
 21
195.09156338
 31
0
  0
LINE
  8
DEFAULT_1
 62
2
  6
CENTER
 10
290.3899382477
 20
120.9586963796
 30
0
 11
290.3899382477
 21
245.6704467166
 31
0
  0
LINE
  8
0
 62
7
 10
287.3899279785
 20
224.9844104914
 30
0
 11
287.3899279785
 21
126.713733416
 31
0
  0
LINE
  8
0
 62
7
 10
286.3899365234
 20
124.3030634147001
 30
0
 11
286.3899382477
 21
225.3451090119
 31
0
  0
LINE
  8
0
 62
7
 10
283.0203259277
 20
180.9081902721
 30
0
 11
260.3899487305
 21
180.9081902721
 31
0
  0
LINE
  8
0
 62
7
 10
320.3899346924
 20
180.9081902721
 30
0
 11
297.7595574951
 21
180.9081902721
 31
0
  0
LINE
  8
0
 62
7
 10
297.7595574951
 20
136.8062102916
 30
0
 11
295.7655584717
 21
138.8943505504
 31
0
  0
LINE
  8
0
 62
7
 10
260.3899382477
 20
147.9908650151
 30
0
 11
260.3899487305
 21
245.6722775602
 31
0
  0
LINE
  8
0
 62
7
 10
260.3899382477
 20
120.9330261794
 30
0
 11
260.3899487305
 21
147.8170605113
 31
0
  0
LINE
  8
0
 62
7
 10
295.7655584717
 20
148.2389638927
 30
0
 11
297.7595574951
 21
147.9908687999
 31
0
  0
LINE
  8
0
 62
7
 10
283.0203259277
 20
147.9908687999
 30
0
 11
260.3899487305
 21
147.9908687999
 31
0
  0
LINE
  8
0
 62
7
 10
320.3899346924
 20
147.9908687999
 30
0
 11
297.7595574951
 21
147.9908687999
 31
0
  0
LINE
  8
0
 62
7
 10
285.0143249512
 20
148.2389638927
 30
0
 11
283.0203259277
 21
147.9908687999
 31
0
  0
LINE
  8
0
 62
7
 10
294.3899468994
 20
124.3324579460001
 30
0
 11
295.264197998
 21
123.4408850700001
 31
0
  0
LINE
  8
0
 62
7
 10
295.264197998
 20
123.4408850700001
 30
0
 11
297.7595574951
 21
120.9330197746
 31
0
  0
LINE
  8
0
 62
7
 10
286.3899365234
 20
146.0058456065
 30
0
 11
260.3899487305
 21
146.0058456065
 31
0
  0
LINE
  8
0
 62
7
 10
320.3899346924
 20
146.0058456065
 30
0
 11
294.3899468994
 21
146.0058456065
 31
0
  0
LINE
  8
0
 62
7
 10
286.3899365234
 20
144.6334884288
 30
0
 11
260.3899487305
 21
144.6334884288
 31
0
  0
LINE
  8
0
 62
7
 10
320.3899346924
 20
144.6334884288
 30
0
 11
294.3899468994
 21
144.6334884288
 31
0
  0
LINE
  8
0
 62
7
 10
295.7655584717
 20
124.2998221428001
 30
0
 11
297.7595574951
 21
122.5671457512
 31
0
  0
LINE
  8
0
 62
7
 10
285.0143249512
 20
138.8943505504
 30
0
 11
260.3899487305
 21
138.8943505504
 31
0
  0
LINE
  8
0
 62
7
 10
320.3899346924
 20
138.8943505504
 30
0
 11
295.7655584717
 21
138.8943505504
 31
0
  0
LINE
  8
0
 62
7
 10
283.0203259277
 20
136.8062102916
 30
0
 11
260.3899487305
 21
136.8062102916
 31
0
  0
LINE
  8
0
 62
7
 10
320.3899346924
 20
136.8062102916
 30
0
 11
297.7595574951
 21
136.8062102916
 31
0
  0
LINE
  8
0
 62
7
 10
293.3899291992
 20
126.7137334160001
 30
0
 11
287.3899279785
 21
126.713733416
 31
0
  0
LINE
  8
0
 62
7
 10
285.0143298035
 20
122.9345410034
 30
0
 11
283.4439281349
 21
122.9345410034
 31
0
  0
LINE
  8
0
 62
7
 10
297.3359483605
 20
122.9345410034
 30
0
 11
295.7655466919
 21
122.9345410034
 31
0
  0
LINE
  8
0
 62
7
 10
283.0203259277
 20
122.5671457512
 30
0
 11
260.3899487305
 21
122.5671457512
 31
0
  0
LINE
  8
0
 62
7
 10
320.3899346924
 20
122.5671457512
 30
0
 11
297.7595574951
 21
122.5671457512
 31
0
  0
LINE
  8
0
 62
7
 10
283.0203259277
 20
120.9330197746
 30
0
 11
260.3899487305
 21
120.9330197746
 31
0
  0
LINE
  8
0
 62
7
 10
320.3899346924
 20
120.9330197746
 30
0
 11
297.7595574951
 21
120.9330197746
 31
0
  0
LINE
  8
0
 62
7
 10
170.24682405678
 20
144.5382404697265
 30
0
 11
183.3466589295719
 21
176.1640394844687
 31
0
  0
LINE
  8
0
 62
7
 10
183.3466589295743
 20
190.4412460307018
 30
0
 11
170.2468240568099
 21
222.0670450453776
 31
0
  0
LINE
  8
0
 62
7
 10
160.1513144915658
 20
232.1625546106183
 30
0
 11
128.5255154768237
 21
245.2623894834102
 31
0
  0
LINE
  8
0
 62
7
 10
114.2483089305906
 20
245.2623894834126
 30
0
 11
82.62250991582238
 21
232.1625546106099
 31
0
  0
LINE
  8
DEFAULT_1
 62
2
  6
CENTER
 10
121.3869122037
 20
153.789740781055
 30
0
 11
121.3869122037
 21
250.4768147777
 31
0
  0
LINE
  8
DEFAULT_1
 62
2
  6
CENTER
 10
116.0119122037
 20
183.3026427575
 30
0
 11
56.44240643080001
 21
183.3026427575
 31
0
  0
LINE
  8
DEFAULT_1
 62
2
  6
CENTER
 10
185.5555355875
 20
183.3026427575
 30
0
 11
116.0119122037
 21
183.3026427575
 31
0
  0
LINE
  8
0
 62
7
 10
72.52700035058166
 20
222.0670450453658
 30
0
 11
59.42716547778979
 21
190.4412460306237
 31
0
  0
LINE
  8
0
 62
7
 10
59.42716547778744
 20
176.1640394843906
 30
0
 11
72.52700035055183
 21
144.5382404697148
 31
0
  0
LINE
  8
0
 62
7
 10
82.62250991579589
 20
134.4427309044741
 30
0
 11
114.248308930538
 21
121.3428960316822
 31
0
  0
LINE
  8
0
 62
7
 10
128.5255154767711
 20
121.3428960316798
 30
0
 11
160.1513144915393
 21
134.4427309044825
 31
0
  0
ARC
  8
DEFAULT_1
 62
2
  6
CENTER
 10
121.3869122037
 20
183.3026427575
 30
0
 40
62.36962298289996
 50
263.4334450216
 51
276.5693736461
  0
ARC
  8
DEFAULT_1
 62
2
  6
CENTER
 10
121.3869122037
 20
183.3026427575
 30
0
 40
62.36962298290002
 50
218.4331970825
 51
263.3866799676999
  0
ARC
  8
DEFAULT_1
 62
2
  6
CENTER
 10
121.3869122037
 20
183.3026427575
 30
0
 40
62.36962298290002
 50
218.4331970825
 51
263.3866799676999
  0
ARC
  8
DEFAULT_1
 62
2
  6
CENTER
 10
121.3869122037
 20
183.3026427575
 30
0
 40
62.36962298289999
 50
276.5919330538998
 51
308.4080669461001
  0
ARC
  8
DEFAULT_1
 62
2
  6
CENTER
 10
121.3869122037
 20
183.3026427575
 30
0
 40
62.36962298290003
 50
308.4306263539
 51
321.5665549784
  0
ARC
  8
DEFAULT_1
 62
2
  6
CENTER
 10
121.3869122037
 20
183.3026427575
 30
0
 40
62.36962298289993
 50
321.6133200323
 51
6.56680291750008
  0
ARC
  8
DEFAULT_1
 62
2
  6
CENTER
 10
121.3869122037
 20
183.3026427575
 30
0
 40
62.3696229829001
 50
128.4306263539
 51
141.5665549784
  0
ARC
  8
DEFAULT_1
 62
2
  6
CENTER
 10
121.3869122037
 20
183.3026427575
 30
0
 40
62.36962298289999
 50
141.6133200323
 51
186.5668029175
  0
ARC
  8
1
 62
7
 10
253.2601370381138
 20
206.85299004755
 30
0
 40
32.00000000000011
 50
338.4357351415115
 51
21.56426485848824
  0
ARC
  8
1
 62
7
 10
330.7242180081987
 20
206.85299004755
 30
0
 40
35.00000000000003
 50
160.364161434909
 51
199.6358385650912
  0
ARC
  8
1
 62
7
 10
269.10819363639
 20
236.9186074935999
 30
0
 40
15.62802497557927
 50
332.8989082887062
 51
27.10109171129383
  0
ARC
  8
1
 62
7
 10
311.6716897864101
 20
236.9186074935999
 30
0
 40
15.62802497557938
 50
152.8989082887064
 51
207.1010917112936
  0
ARC
  8
0
 62
7
 10
287.3899382477
 20
240.8915538908999
 30
0
 40
1
 50
180
 51
270
  0
ARC
  8
0
 62
7
 10
293.3899382477
 20
240.8915538908999
 30
0
 40
1
 50
270
 51
0
  0
ARC
  8
1
 62
7
 10
269.10819363639
 20
129.6866780214
 30
0
 40
15.62802497557928
 50
332.8989082887062
 51
27.10109171129373
  0
ARC
  8
1
 62
7
 10
311.6716897864101
 20
129.6866780214
 30
0
 40
15.62802497557937
 50
152.8989082887065
 51
207.1010917112936
  0
ARC
  8
0
 62
7
 10
287.3899382477
 20
125.7137316241001
 30
0
 40
1
 50
90
 51
180
  0
ARC
  8
0
 62
7
 10
293.3899382477
 20
125.7137316241001
 30
0
 40
1
 50
0
 51
90
  0
ARC
  8
DEFAULT_1
 62
2
  6
CENTER
 10
121.3869122037
 20
183.3026427575
 30
0
 40
62.3696229829
 50
186.6139026695
 51
218.3860973305
  0
ARC
  8
DEFAULT_1
 62
2
  6
CENTER
 10
121.3869122037
 20
183.3026427575
 30
0
 40
62.36962298289999
 50
141.6133200323
 51
186.5668029175
  0
ARC
  8
DEFAULT_1
 62
2
  6
CENTER
 10
121.3869122037
 20
183.3026427575
 30
0
 40
62.36962298289991
 50
96.59193305389994
 51
128.4080669461
  0
ARC
  8
DEFAULT_1
 62
2
  6
CENTER
 10
121.3869122037
 20
183.3026427575
 30
0
 40
62.36962298290004
 50
83.43344502160002
 51
96.56937364609998
  0
ARC
  8
DEFAULT_1
 62
2
  6
CENTER
 10
121.3869122037
 20
183.3026427575
 30
0
 40
62.36962298289996
 50
38.43319708250006
 51
83.38667996770005
  0
ARC
  8
DEFAULT_1
 62
2
  6
CENTER
 10
121.3869122037
 20
183.3026427575
 30
0
 40
62.36962298289998
 50
6.613902669500006
 51
38.38609733049999
  0
ARC
  8
DEFAULT_1
 62
2
  6
CENTER
 10
121.3869122037
 20
183.3026427575
 30
0
 40
62.36962298289993
 50
321.6133200323
 51
6.56680291750008
  0
ARC
  8
DEFAULT_1
 62
2
  6
CENTER
 10
121.3869122037
 20
183.3026427575
 30
0
 40
62.36962298289999
 50
276.5919330538998
 51
308.4080669461001
  0
ARC
  8
DEFAULT_1
 62
2
  6
CENTER
 10
121.3869122037
 20
183.3026427575
 30
0
 40
62.36962298290002
 50
218.4331970825
 51
263.3866799676999
  0
CIRCLE
  8
1
 62
7
 10
121.3869122037
 20
183.3026427575
 30
0
 40
10.00000000000004
  0
ENDSEC
  0
EOF
