  0
SECTION
  2
HEADER
  9
$ACADVER
  1
AC1009
  9
$INSBASE
 10
0
 20
0
  9
$EXTMIN
 10
53.51818431580001
 20
53.16810387660001
  9
$EXTMAX
 10
348.3714397475
 20
223.9601583979
  9
$LIMMIN
 10
53.51818431580001
 20
53.16810387660001
  9
$LIMMAX
 10
348.3714397475
 20
223.9601583979
  9
$VIEWCTR
 10
10
 20
10
  9
$VIEWSIZE
 40
10
  9
$SNAPMODE
 70
0
  9
$SNAPUNIT
 10
1
 20
1
  9
$SNAPBASE
 10
0
 20
0
  9
$SNAPANG
 50
0
  9
$SNAPSTYLE
 70
0
  9
$SNAPISOPAIR
 70
0
  9
$GRIDMODE
 70
0
  9
$GRIDUNIT
 10
0
 20
0
  9
$ORTHOMODE
 70
0
  9
$REGENMODE
 70
1
  9
$FILLMODE
 70
1
  9
$QTEXTMODE
 70
0
  9
$DRAGMODE
 70
2
  9
$LTSCALE
 40
1
  9
$OSMODE
 70
0
  9
$ATTMODE
 70
1
  9
$TEXTSIZE
 40
3.5
  9
$TRACEWID
 40
0.5
  9
$TEXTSTYLE
  7
STANDARD
  9
$CLAYER
  8
0
  9
$CELTYPE
  6
BYLAYER
  9
$CECOLOR
 62
256
  9
$DIMSCALE
 40
1
  9
$DIMASZ
 40
0.18
  9
$DIMEXO
 40
0.0625
  9
$DIMDLI
 40
0.38
  9
$DIMRND
 40
0
  9
$DIMDLE
 40
0
  9
$DIMEXE
 40
0.18
  9
$DIMTP
 40
0
  9
$DIMTM
 40
0
  9
$DIMTXT
 40
0.18
  9
$DIMCEN
 40
0.09
  9
$DIMTSZ
 40
0
  9
$DIMTOL
 70
0
  9
$DIMLIM
 70
0
  9
$DIMTIH
 70
1
  9
$DIMTOH
 70
1
  9
$DIMSE1
 70
0
  9
$DIMSE2
 70
0
  9
$DIMTAD
 70
0
  9
$DIMZIN
 70
0
  9
$DIMBLK
  1

  9
$DIMASO
 70
1
  9
$DIMSHO
 70
1
  9
$DIMPOST
  1

  9
$DIMAPOST
  1

  9
$DIMALT
 70
0
  9
$DIMALTD
 70
2
  9
$DIMALTF
 40
25.4
  9
$DIMLFAC
 40
1
  9
$DIMTOFL
 70
0
  9
$DIMTVP
 40
0
  9
$DIMTIX
 70
0
  9
$DIMSOXD
 70
0
  9
$DIMSAH
 70
0
  9
$DIMBLK1
  1

  9
$DIMBLK2
  1

  9
$DIMSTYLE
  2
*UNNAMED
  9
$DIMCLRD
 70
0
  9
$DIMCLRE
 70
0
  9
$DIMCLRT
 70
0
  9
$DIMTFAC
 40
1
  9
$DIMGAP
 40
0.09
  9
$LUNITS
 70
2
  9
$LUPREC
 70
4
  9
$AXISMODE
 70
0
  9
$AXISUNIT
 10
0
 20
0
  9
$SKETCHINC
 40
0.1
  9
$FILLETRAD
 40
2
  9
$AUNITS
 70
0
  9
$AUPREC
 70
0
  9
$MENU
  1
ACAD
  9
$ELEVATION
 40
0
  9
$THICKNESS
 40
0
  9
$VIEWDIR
 10
0
 20
0
 30
1
  9
$LIMCHECK
 70
0
  9
$BLIPMODE
 70
1
  9
$CHAMFERA
 40
0
  9
$CHAMFERB
 40
0
  9
$FASTZOOM
 70
1
  9
$SKPOLY
 70
0
  9
$ANGBASE
 50
0
  9
$ANGDIR
 70
0
  9
$PDMODE
 70
0
  9
$PDSIZE
 40
0
  9
$PLINEWID
 40
0
  9
$COORDS
 70
2
  0
ENDSEC
  0
SECTION
  2
TABLES
  0
TABLE
  2
DIMSTYLE
 70
0
  0
ENDTAB
  0
TABLE
  2
LTYPE
 70
9
  0
LTYPE
  2
CONTINUOUS
 70
64
  3
Solid line
 72
65
 73
0
 40
0
  0
LTYPE
  2
BORDER
 70
64
  3
__ __ . __ __ .
 72
65
 73
6
 40
13.57876834224934
 49
3.879648097785526
 49
-1.939824048892763
 49
3.879648097785526
 49
-1.939824048892763
 49
0
 49
-1.939824048892763
  0
LTYPE
  2
CENTER
 70
64
  3
____ _ ____ _
 72
65
 73
4
 40
15.51859239114211
 49
9.699120244463815
 49
-1.939824048892763
 49
1.939824048892763
 49
-1.939824048892763
  0
LTYPE
  2
DASHDOT
 70
64
  3
__ . __ . __ .
 72
65
 73
4
 40
7.759296195571053
 49
3.879648097785526
 49
-1.939824048892763
 49
0
 49
-1.939824048892763
  0
LTYPE
  2
DASHED
 70
64
  3
__ __ __ __ __
 72
65
 73
2
 40
5.819472146678289
 49
3.879648097785526
 49
-1.939824048892763
  0
LTYPE
  2
DIVIDE
 70
64
  3
__ . . __ . . 
 72
65
 73
6
 40
9.699120244463815
 49
3.879648097785526
 49
-1.939824048892763
 49
0
 49
-1.939824048892763
 49
0
 49
-1.939824048892763
  0
LTYPE
  2
DOT
 70
64
  3
..............
 72
65
 73
4
 40
3.879648097785526
 49
0
 49
-1.939824048892763
 49
0
 49
-1.939824048892763
  0
LTYPE
  2
HIDDEN
 70
64
  3
_ _ _ _ _ _ _
 72
65
 73
2
 40
2.909736073339145
 49
1.939824048892763
 49
-0.9699120244463816
  0
LTYPE
  2
PHANTOM
 70
64
  3
_____ _ _ _____ _ _ 
 72
65
 73
6
 40
19.39824048892763
 49
9.699120244463815
 49
-1.939824048892763
 49
1.939824048892763
 49
-1.939824048892763
 49
1.939824048892763
 49
-1.939824048892763
  0
ENDTAB
  0
TABLE
  2
LAYER
 70
4
  0
LAYER
  2
DEFAULT_1
 70
0
 62
7
  6
CONTINUOUS
  0
LAYER
  2
0
 70
0
 62
7
  6
CONTINUOUS
  0
LAYER
  2
1
 70
0
 62
7
  6
CONTINUOUS
  0
ENDTAB
  0
TABLE
  2
STYLE
 70
4
  0
STYLE
  2
STANDARD
 70
0
 40
0
 41
1
 50
0
 71
0
 42
3.5
  3
txt
  4

  0
STYLE
  2
SIMPLEX
 70
0
 40
0
 41
1
 50
0
 71
0
 42
3.5
  3
simplex
  4

  0
STYLE
  2
COMPLEX
 70
0
 40
0
 41
1
 50
0
 71
0
 42
3.5
  3
complex
  4

  0
STYLE
  2
ITALIC
 70
0
 40
0
 41
1
 50
0
 71
0
 42
3.5
  3
italic
  4

  0
ENDTAB
  0
TABLE
  2
VIEW
 70
0
  0
ENDTAB
  0
ENDSEC
  0
SECTION
  2
BLOCKS
  0
ENDSEC
  0
SECTION
  2
ENTITIES
  0
POLYLINE
  8
0
 62
7
 66
1
  0
VERTEX
  8
0
 10
307.0272845459
 20
200.5673946869002
 30
0
  0
VERTEX
  8
0
 10
307.2979766846
 20
200.2755883514002
 30
0
  0
VERTEX
  8
0
 10
307.5582232666
 20
199.9851861297002
 30
0
  0
VERTEX
  8
0
 10
307.808260498
 20
199.6962798797002
 30
0
  0
SEQEND
  8
0
  0
POLYLINE
  8
0
 62
7
 66
1
  0
VERTEX
  8
0
 10
307.808260498
 20
64.99389765169985
 30
0
  0
VERTEX
  8
0
 10
307.5584594727
 20
64.77274317169984
 30
0
  0
VERTEX
  8
0
 10
307.2980554199
 20
64.53963404089986
 30
0
  0
VERTEX
  8
0
 10
304.7551922607
 20
62.23278009799985
 30
0
  0
SEQEND
  8
0
  0
POLYLINE
  8
0
 62
7
 66
1
  0
VERTEX
  8
0
 10
307.808260498
 20
86.67210199739985
 30
0
  0
VERTEX
  8
0
 10
307.5584594727
 20
86.60381220249985
 30
0
  0
VERTEX
  8
0
 10
307.2980554199
 20
86.52077265169984
 30
0
  0
VERTEX
  8
0
 10
307.0272845459
 20
86.42253717809984
 30
0
  0
SEQEND
  8
0
  0
POLYLINE
  8
0
 62
7
 66
1
  0
VERTEX
  8
0
 10
307.0272845459
 20
78.26905847929984
 30
0
  0
VERTEX
  8
0
 10
307.2979766846
 20
78.56086481479984
 30
0
  0
VERTEX
  8
0
 10
307.5582232666
 20
78.85126703649985
 30
0
  0
VERTEX
  8
0
 10
307.808260498
 20
79.14017328649985
 30
0
  0
SEQEND
  8
0
  0
POLYLINE
  8
0
 62
7
 66
1
  0
VERTEX
  8
0
 10
318.8613391113
 20
62.23278009799985
 30
0
  0
VERTEX
  8
0
 10
317.6409411621
 20
64.97807184599985
 30
0
  0
VERTEX
  8
0
 10
317.0317657471
 20
67.69551752469985
 30
0
  0
VERTEX
  8
0
 10
317.0317657471
 20
70.40465662389985
 30
0
  0
VERTEX
  8
0
 10
317.640914917
 20
73.12212854769985
 30
0
  0
VERTEX
  8
0
 10
318.8613391113
 20
75.86744654089985
 30
0
  0
SEQEND
  8
0
  0
POLYLINE
  8
0
 62
7
 66
1
  0
VERTEX
  8
0
 10
304.7551922607
 20
75.86744654089985
 30
0
  0
VERTEX
  8
0
 10
305.9756164551
 20
73.12212854769985
 30
0
  0
VERTEX
  8
0
 10
306.584765625
 20
70.40465662389985
 30
0
  0
VERTEX
  8
0
 10
306.584765625
 20
67.69551752469985
 30
0
  0
VERTEX
  8
0
 10
305.97559021
 20
64.97807184599985
 30
0
  0
VERTEX
  8
0
 10
304.7551922607
 20
62.23278009799985
 30
0
  0
SEQEND
  8
0
  0
POLYLINE
  8
0
 62
7
 66
1
  0
VERTEX
  8
0
 10
307.808260498
 20
174.4942742385998
 30
0
  0
VERTEX
  8
0
 10
307.5584594727
 20
174.7416344680999
 30
0
  0
VERTEX
  8
0
 10
307.2980554199
 20
174.9844542922999
 30
0
  0
VERTEX
  8
0
 10
307.0272845459
 20
175.2220250930999
 30
0
  0
SEQEND
  8
0
  0
POLYLINE
  8
0
 62
7
 66
1
  0
VERTEX
  8
0
 10
316.5892468262
 20
163.8924279250998
 30
0
  0
VERTEX
  8
0
 10
316.3185546875
 20
163.9239483108999
 30
0
  0
VERTEX
  8
0
 10
316.0583081055
 20
163.9694573440999
 30
0
  0
VERTEX
  8
0
 10
315.808270874
 20
164.0283513869998
 30
0
  0
SEQEND
  8
0
  0
POLYLINE
  8
0
 62
7
 66
1
  0
VERTEX
  8
0
 10
307.0272845459
 20
163.8924279250998
 30
0
  0
VERTEX
  8
0
 10
307.2979766846
 20
163.9239483108999
 30
0
  0
VERTEX
  8
0
 10
307.5582232666
 20
163.9694573440999
 30
0
  0
VERTEX
  8
0
 10
307.808260498
 20
164.0283513869998
 30
0
  0
SEQEND
  8
0
  0
POLYLINE
  8
0
 62
7
 66
1
  0
VERTEX
  8
0
 10
315.808270874
 20
128.4975149001999
 30
0
  0
VERTEX
  8
0
 10
316.0580718994
 20
128.6081905593998
 30
0
  0
VERTEX
  8
0
 10
316.3184759521
 20
128.7069378127999
 30
0
  0
VERTEX
  8
0
 10
316.5892468262
 20
128.7930611648999
 30
0
  0
SEQEND
  8
0
  0
POLYLINE
  8
0
 62
7
 66
1
  0
VERTEX
  8
0
 10
307.0272845459
 20
116.7518407668999
 30
0
  0
VERTEX
  8
0
 10
307.2979766846
 20
116.9516842117998
 30
0
  0
VERTEX
  8
0
 10
307.5582232666
 20
117.1592830886999
 30
0
  0
VERTEX
  8
0
 10
307.808260498
 20
117.3742437209998
 30
0
  0
SEQEND
  8
0
  0
POLYLINE
  8
0
 62
7
 66
1
  0
VERTEX
  8
0
 10
318.8613391113
 20
163.6924663772998
 30
0
  0
VERTEX
  8
0
 10
317.64046875
 20
156.7937011184999
 30
0
  0
VERTEX
  8
0
 10
317.0317132568
 20
149.9710073318998
 30
0
  0
VERTEX
  8
0
 10
317.0316870117
 20
143.1690603103999
 30
0
  0
VERTEX
  8
0
 10
317.6403900146
 20
136.3459072341998
 30
0
  0
VERTEX
  8
0
 10
318.8613391113
 20
129.4466170730998
 30
0
  0
SEQEND
  8
0
  0
POLYLINE
  8
0
 62
7
 66
1
  0
VERTEX
  8
0
 10
304.7551922607
 20
115.1439861526999
 30
0
  0
VERTEX
  8
0
 10
305.9760626221
 20
109.1827752151999
 30
0
  0
VERTEX
  8
0
 10
306.5848181152
 20
103.2872951736999
 30
0
  0
VERTEX
  8
0
 10
306.5848443604
 20
97.40974054719985
 30
0
  0
VERTEX
  8
0
 10
305.9761413574
 20
91.51386682889984
 30
0
  0
VERTEX
  8
0
 10
304.7551922607
 20
85.55219660189985
 30
0
  0
SEQEND
  8
0
  0
POLYLINE
  8
0
 62
7
 66
1
  0
VERTEX
  8
0
 10
318.8613391113
 20
115.1439861526999
 30
0
  0
VERTEX
  8
0
 10
317.64046875
 20
109.1827752151999
 30
0
  0
VERTEX
  8
0
 10
317.0317132568
 20
103.2872951736999
 30
0
  0
VERTEX
  8
0
 10
317.0316870117
 20
97.40974054719985
 30
0
  0
VERTEX
  8
0
 10
317.6403900146
 20
91.51386682889984
 30
0
  0
VERTEX
  8
0
 10
318.8613391113
 20
85.55219660189985
 30
0
  0
SEQEND
  8
0
  0
POLYLINE
  8
0
 62
7
 66
1
  0
VERTEX
  8
0
 10
304.7551922607
 20
163.6924663772998
 30
0
  0
VERTEX
  8
0
 10
305.9760626221
 20
156.7937011184999
 30
0
  0
VERTEX
  8
0
 10
306.5848181152
 20
149.9710073318998
 30
0
  0
VERTEX
  8
0
 10
306.5848443604
 20
143.1690603103999
 30
0
  0
VERTEX
  8
0
 10
305.9761413574
 20
136.3459072341998
 30
0
  0
VERTEX
  8
0
 10
304.7551922607
 20
129.4466170730998
 30
0
  0
SEQEND
  8
0
  0
POLYLINE
  8
0
 62
7
 66
1
  0
VERTEX
  8
0
 10
307.808260498
 20
128.4975149001999
 30
0
  0
VERTEX
  8
0
 10
307.5584594727
 20
128.6081905593998
 30
0
  0
VERTEX
  8
0
 10
307.2980554199
 20
128.7069378127999
 30
0
  0
VERTEX
  8
0
 10
307.0272845459
 20
128.7930611648999
 30
0
  0
SEQEND
  8
0
  0
POLYLINE
  8
0
 62
7
 66
1
  0
VERTEX
  8
0
 10
316.5892468262
 20
116.7518407668999
 30
0
  0
VERTEX
  8
0
 10
316.3185546875
 20
116.9516842117998
 30
0
  0
VERTEX
  8
0
 10
316.0583081055
 20
117.1592830886999
 30
0
  0
VERTEX
  8
0
 10
315.808270874
 20
117.3742437209998
 30
0
  0
SEQEND
  8
0
  0
POLYLINE
  8
0
 62
7
 66
1
  0
VERTEX
  8
0
 10
315.808270874
 20
174.4942742385998
 30
0
  0
VERTEX
  8
0
 10
316.0580718994
 20
174.7416344680999
 30
0
  0
VERTEX
  8
0
 10
316.3184759521
 20
174.9844542922999
 30
0
  0
VERTEX
  8
0
 10
316.5892468262
 20
175.2220250930999
 30
0
  0
SEQEND
  8
0
  0
POLYLINE
  8
0
 62
7
 66
1
  0
VERTEX
  8
0
 10
316.5892468262
 20
78.26905847929984
 30
0
  0
VERTEX
  8
0
 10
316.3185546875
 20
78.56086481479984
 30
0
  0
VERTEX
  8
0
 10
316.0583081055
 20
78.85126703649985
 30
0
  0
VERTEX
  8
0
 10
315.808270874
 20
79.14017328649985
 30
0
  0
SEQEND
  8
0
  0
POLYLINE
  8
0
 62
7
 66
1
  0
VERTEX
  8
0
 10
315.808270874
 20
64.99389765169985
 30
0
  0
VERTEX
  8
0
 10
316.0580718994
 20
64.77274317169984
 30
0
  0
VERTEX
  8
0
 10
316.318449707
 20
64.53963404089986
 30
0
  0
SEQEND
  8
0
  0
POLYLINE
  8
0
 62
7
 66
1
  0
VERTEX
  8
0
 10
315.808270874
 20
86.67210199739985
 30
0
  0
VERTEX
  8
0
 10
316.0580718994
 20
86.60381220249985
 30
0
  0
VERTEX
  8
0
 10
316.3184759521
 20
86.52077265169984
 30
0
  0
VERTEX
  8
0
 10
316.5892468262
 20
86.42253717809984
 30
0
  0
SEQEND
  8
0
  0
LINE
  8
DEFAULT_1
 62
2
  6
CENTER
 10
348.3714397475
 20
139.4182265831
 30
0
 11
273.0883258795
 21
139.4182265831
 31
0
  0
LINE
  8
1
 62
7
 10
315.808270874
 20
202.9690056706999
 30
0
 11
325.5929457102
 21
202.9690056706999
 31
0
  0
LINE
  8
1
 62
7
 10
317.0317657471
 20
210.4251536974904
 30
0
 11
315.808270874
 21
210.423386802912
 31
0
  0
LINE
  8
0
 62
7
 10
281.8082727051
 20
216.6036730682002
 30
0
 11
304.7551922607
 21
216.6036730682002
 31
0
  0
LINE
  8
0
 62
7
 10
281.8082727051
 20
200.5673946869002
 30
0
 11
307.0272845459
 21
200.5673946869002
 31
0
  0
LINE
  8
0
 62
7
 10
318.8613391113
 20
202.9690066253002
 30
0
 11
341.808258667
 21
202.9690066253002
 31
0
  0
LINE
  8
0
 62
7
 10
316.5892468262
 20
200.5673946869002
 30
0
 11
341.808258667
 21
200.5673946869002
 31
0
  0
LINE
  8
0
 62
7
 10
318.8613391113
 20
202.9690066253002
 30
0
 11
341.808258667
 21
202.9690066253002
 31
0
  0
LINE
  8
0
 62
7
 10
281.8082727051
 20
200.5673946869002
 30
0
 11
307.0272845459
 21
200.5673946869002
 31
0
  0
LINE
  8
0
 62
7
 10
281.8082727051
 20
202.9690066253002
 30
0
 11
304.7551922607
 21
202.9690066253002
 31
0
  0
LINE
  8
0
 62
7
 10
318.8613391113
 20
216.6036730682002
 30
0
 11
341.808258667
 21
216.6036730682002
 31
0
  0
LINE
  8
1
 62
7
 10
327.9188682734
 20
210.4408761682998
 30
0
 11
317.0317657471
 21
210.4251536974904
 31
0
  0
LINE
  8
1
 62
7
 10
298.7764064967
 20
210.4408761682998
 30
0
 11
307.808260498
 21
210.423386802912
 31
0
  0
LINE
  8
1
 62
7
 10
299.1344373154
 20
207.9751679173999
 30
0
 11
328.92885499531
 21
207.9751679173999
 31
0
  0
LINE
  8
1
 62
7
 10
301.0666847727
 20
202.9690056706999
 30
0
 11
307.808260498
 21
202.9690056706999
 31
0
  0
LINE
  8
1
 62
7
 10
207.3706479515106
 20
116.9070030491823
 30
0
 11
205.5384840564221
 21
111.8996847969738
 31
0
  0
LINE
  8
1
 62
7
 10
208.831624046087
 20
122.0349275287788
 30
0
 11
207.3706479515106
 21
116.9070030491823
 31
0
  0
LINE
  8
1
 62
7
 10
205.5384840564221
 20
111.8996847969738
 30
0
 11
210.1902449677261
 21
108.2431473793
 31
0
  0
LINE
  8
1
 62
7
 10
214.7442364456651
 20
122.2588919793895
 30
0
 11
208.831624046087
 21
122.0349275287788
 31
0
  0
LINE
  8
1
 62
7
 10
180.9071175429185
 20
80.48307824295698
 30
0
 11
176.4816379931285
 21
77.50899159799214
 31
0
  0
LINE
  8
1
 62
7
 10
185.1031904157827
 20
83.77291609047798
 30
0
 11
180.9071175429185
 21
80.48307824295698
 31
0
  0
LINE
  8
1
 62
7
 10
176.4816379931285
 20
77.50899159799214
 30
0
 11
178.0957328555784
 21
71.81655422567108
 31
0
  0
LINE
  8
1
 62
7
 10
190.0182373293002
 20
80.4787607661643
 30
0
 11
185.1031904157827
 21
83.77291609047798
 31
0
  0
LINE
  8
1
 62
7
 10
138.0882258795
 20
66.57037697064932
 30
0
 11
132.7598134465108
 21
66.76552194581764
 31
0
  0
LINE
  8
1
 62
7
 10
143.4166383124893
 20
66.76552194581763
 30
0
 11
138.0882258795
 21
66.57037697064932
 31
0
  0
LINE
  8
1
 62
7
 10
132.7598134465108
 20
66.76552194581764
 30
0
 11
130.7197128837172
 21
61.21150221624582
 31
0
  0
LINE
  8
1
 62
7
 10
145.4567388752828
 20
61.21150221624593
 30
0
 11
143.4166383124893
 21
66.76552194581763
 31
0
  0
LINE
  8
1
 62
7
 10
95.26933421608155
 20
80.48307824295695
 30
0
 11
91.07326134321744
 21
83.77291609047792
 31
0
  0
LINE
  8
1
 62
7
 10
99.69481376587154
 20
77.50899159799207
 30
0
 11
95.26933421608155
 21
80.48307824295695
 31
0
  0
LINE
  8
1
 62
7
 10
91.07326134321744
 20
83.77291609047792
 30
0
 11
86.1582144296998
 21
80.47876076616424
 31
0
  0
LINE
  8
1
 62
7
 10
98.08071890342171
 20
71.81655422567124
 30
0
 11
99.69481376587154
 21
77.50899159799207
 31
0
  0
LINE
  8
1
 62
7
 10
68.8058038074894
 20
116.9070030491823
 30
0
 11
67.34482771291309
 21
122.0349275287787
 31
0
  0
LINE
  8
1
 62
7
 10
70.63796770257795
 20
111.8996847969737
 30
0
 11
68.8058038074894
 21
116.9070030491823
 31
0
  0
LINE
  8
1
 62
7
 10
67.34482771291309
 20
122.0349275287787
 30
0
 11
61.43221531333486
 21
122.2588919793895
 31
0
  0
LINE
  8
1
 62
7
 10
65.98620679127401
 20
108.2431473793001
 30
0
 11
70.63796770257795
 21
111.8996847969737
 31
0
  0
LINE
  8
1
 62
7
 10
68.80580380748941
 20
161.9294501170177
 30
0
 11
70.63796770257792
 21
166.9367683692263
 31
0
  0
LINE
  8
1
 62
7
 10
67.34482771291306
 20
156.8015256374212
 30
0
 11
68.80580380748941
 21
161.9294501170177
 31
0
  0
LINE
  8
1
 62
7
 10
70.63796770257792
 20
166.9367683692263
 30
0
 11
65.98620679127394
 21
170.5933057869
 31
0
  0
LINE
  8
1
 62
7
 10
61.43221531333495
 20
156.5775611868104
 30
0
 11
67.34482771291306
 21
156.8015256374212
 31
0
  0
LINE
  8
1
 62
7
 10
95.26933421608155
 20
198.3533749232431
 30
0
 11
99.69481376587152
 21
201.3274615682079
 31
0
  0
LINE
  8
1
 62
7
 10
91.07326134321744
 20
195.063537075722
 30
0
 11
95.26933421608155
 21
198.3533749232431
 31
0
  0
LINE
  8
1
 62
7
 10
99.69481376587152
 20
201.3274615682079
 30
0
 11
98.08071890342168
 21
207.0198989405289
 31
0
  0
LINE
  8
1
 62
7
 10
86.15821442969985
 20
198.3576924000357
 30
0
 11
91.07326134321744
 21
195.063537075722
 31
0
  0
LINE
  8
1
 62
7
 10
138.0882258795
 20
212.2660761955507
 30
0
 11
143.4166383124892
 21
212.0709312203823
 31
0
  0
LINE
  8
1
 62
7
 10
132.7598134465108
 20
212.0709312203824
 30
0
 11
138.0882258795
 21
212.2660761955507
 31
0
  0
LINE
  8
1
 62
7
 10
143.4166383124892
 20
212.0709312203823
 30
0
 11
145.4567388752828
 21
217.6249509499541
 31
0
  0
LINE
  8
1
 62
7
 10
130.7197128837172
 20
217.624950949954
 30
0
 11
132.7598134465108
 21
212.0709312203824
 31
0
  0
LINE
  8
1
 62
7
 10
180.9071175429185
 20
198.353374923243
 30
0
 11
185.1031904157826
 21
195.0635370757221
 31
0
  0
LINE
  8
1
 62
7
 10
176.4816379931284
 20
201.3274615682079
 30
0
 11
180.9071175429185
 21
198.353374923243
 31
0
  0
LINE
  8
1
 62
7
 10
185.1031904157826
 20
195.0635370757221
 30
0
 11
190.0182373293002
 21
198.3576924000358
 31
0
  0
LINE
  8
1
 62
7
 10
178.0957328555783
 20
207.0198989405288
 30
0
 11
176.4816379931284
 21
201.3274615682079
 31
0
  0
LINE
  8
1
 62
7
 10
207.3706479515107
 20
161.9294501170177
 30
0
 11
208.8316240460869
 21
156.8015256374213
 31
0
  0
LINE
  8
1
 62
7
 10
205.538484056422
 20
166.9367683692263
 30
0
 11
207.3706479515107
 21
161.9294501170177
 31
0
  0
LINE
  8
1
 62
7
 10
208.8316240460869
 20
156.8015256374213
 30
0
 11
214.7442364456651
 21
156.5775611868105
 31
0
  0
LINE
  8
1
 62
7
 10
210.190244967726
 20
170.5933057868999
 30
0
 11
205.538484056422
 21
166.9367683692263
 31
0
  0
LINE
  8
0
 62
7
 10
318.8613469302
 20
217.9713087629999
 30
0
 11
341.8082649409
 21
217.9713087629999
 31
0
  0
LINE
  8
0
 62
7
 10
281.8082649409
 20
217.9713087629999
 30
0
 11
304.7551829516
 21
217.9713087629999
 31
0
  0
LINE
  8
0
 62
7
 10
298.7764064967
 20
210.4408761682998
 30
0
 11
281.8082649409
 21
210.4408761682998
 31
0
  0
LINE
  8
0
 62
7
 10
341.8082649409
 20
210.4408761682998
 30
0
 11
327.9188682734
 21
210.4408761682998
 31
0
  0
LINE
  8
0
 62
7
 10
299.1344373154
 20
207.9751679173999
 30
0
 11
281.8082649409
 21
207.9751679173999
 31
0
  0
LINE
  8
0
 62
7
 10
341.8082649409
 20
207.9751679173999
 30
0
 11
327.2735649369
 21
207.9751679173999
 31
0
  0
LINE
  8
0
 62
7
 10
314.8082531738
 20
207.8182244338998
 30
0
 11
308.8082519531
 21
207.8182244338998
 31
0
  0
LINE
  8
0
 62
7
 10
301.0666847727
 20
202.9690056706999
 30
0
 11
281.8082649409
 21
202.9690056706999
 31
0
  0
LINE
  8
0
 62
7
 10
341.8082649409
 20
202.9690056706999
 30
0
 11
325.5929457102
 21
202.9690056706999
 31
0
  0
LINE
  8
0
 62
7
 10
307.0272845459
 20
86.42253717809984
 30
0
 11
304.7551922607
 21
85.55219660189985
 31
0
  0
LINE
  8
0
 62
7
 10
304.7551922607
 20
60.86514704129985
 30
0
 11
307.808260498
 21
63.93027490999985
 31
0
  0
LINE
  8
0
 62
7
 10
304.7551922607
 20
217.9713054885999
 30
0
 11
307.808260498
 21
214.9182372512998
 31
0
  0
LINE
  8
0
 62
7
 10
304.7551922607
 20
75.86744654089985
 30
0
 11
307.0272845459
 21
78.26905847929984
 31
0
  0
LINE
  8
0
 62
7
 10
304.7551922607
 20
177.1498339309999
 30
0
 11
281.8082727051
 21
177.1498339309999
 31
0
  0
LINE
  8
0
 62
7
 10
341.808258667
 20
177.1498339309999
 30
0
 11
318.8613391113
 21
177.1498339309999
 31
0
  0
LINE
  8
0
 62
7
 10
307.0272845459
 20
175.2220250930999
 30
0
 11
281.8082727051
 21
175.2220250930999
 31
0
  0
LINE
  8
0
 62
7
 10
341.808258667
 20
175.2220250930999
 30
0
 11
316.5892468262
 21
175.2220250930999
 31
0
  0
LINE
  8
0
 62
7
 10
307.808260498
 20
169.0965197219998
 30
0
 11
281.8082727051
 21
169.0965197219998
 31
0
  0
LINE
  8
0
 62
7
 10
341.808258667
 20
169.0965197219998
 30
0
 11
315.808270874
 21
169.0965197219998
 31
0
  0
LINE
  8
0
 62
7
 10
341.8082649409
 20
60.86514293789985
 30
0
 11
341.808258667
 21
217.9713054885999
 31
0
  0
LINE
  8
0
 62
7
 10
307.0272845459
 20
175.2220250930999
 30
0
 11
304.7551922607
 21
177.1498339309999
 31
0
  0
LINE
  8
0
 62
7
 10
318.8613391113
 20
163.6924663772998
 30
0
 11
316.5892468262
 21
163.8924279250998
 31
0
  0
LINE
  8
0
 62
7
 10
307.808260498
 20
167.4942815627998
 30
0
 11
281.8082727051
 21
167.4942815627998
 31
0
  0
LINE
  8
0
 62
7
 10
341.808258667
 20
167.4942815627998
 30
0
 11
315.808270874
 21
167.4942815627998
 31
0
  0
LINE
  8
0
 62
7
 10
307.0272845459
 20
163.8924279250998
 30
0
 11
281.8082727051
 21
163.8924279250998
 31
0
  0
LINE
  8
0
 62
7
 10
341.808258667
 20
163.8924279250998
 30
0
 11
316.5892468262
 21
163.8924279250998
 31
0
  0
LINE
  8
0
 62
7
 10
304.7551922607
 20
163.6924663772998
 30
0
 11
281.8082727051
 21
163.6924663772998
 31
0
  0
LINE
  8
0
 62
7
 10
341.808258667
 20
163.6924663772998
 30
0
 11
318.8613391113
 21
163.6924663772998
 31
0
  0
LINE
  8
0
 62
7
 10
304.7551922607
 20
163.6924663772998
 30
0
 11
307.0272845459
 21
163.8924279250998
 31
0
  0
LINE
  8
0
 62
7
 10
304.7551922607
 20
115.1439861526999
 30
0
 11
307.0272845459
 21
116.7518407668999
 31
0
  0
LINE
  8
0
 62
7
 10
316.5892468262
 20
128.7930611648999
 30
0
 11
318.8613391113
 21
129.4466170730998
 31
0
  0
LINE
  8
0
 62
7
 10
315.808270874
 20
208.8182158889998
 30
0
 11
315.808270874
 21
214.9182372512998
 31
0
  0
LINE
  8
0
 62
7
 10
315.808270874
 20
63.93027490999985
 30
0
 11
315.808270874
 21
208.8182158889998
 31
0
  0
LINE
  8
0
 62
7
 10
314.8082531738
 20
71.01822809599985
 30
0
 11
314.8082531738
 21
207.8182244338998
 31
0
  0
LINE
  8
DEFAULT_1
 62
2
  6
CENTER
 10
311.8082649409
 20
61.05344720269984
 30
0
 11
311.8082649409
 21
217.9152809837999
 31
0
  0
LINE
  8
0
 62
7
 10
308.8082519531
 20
71.01822809599985
 30
0
 11
308.8082519531
 21
207.8182244338998
 31
0
  0
LINE
  8
0
 62
7
 10
307.808260498
 20
208.8182158889998
 30
0
 11
307.808260498
 21
214.9182372512998
 31
0
  0
LINE
  8
0
 62
7
 10
307.808260498
 20
86.67210199739985
 30
0
 11
307.808260498
 21
208.8182158889998
 31
0
  0
LINE
  8
0
 62
7
 10
307.808260498
 20
63.93027490999985
 30
0
 11
307.808260498
 21
86.44937281039985
 31
0
  0
LINE
  8
0
 62
7
 10
307.0272845459
 20
128.7930611648999
 30
0
 11
304.7551922607
 21
129.4466170730998
 31
0
  0
LINE
  8
0
 62
7
 10
304.7551922607
 20
129.4466170730998
 30
0
 11
281.8082727051
 21
129.4466170730998
 31
0
  0
LINE
  8
0
 62
7
 10
341.808258667
 20
129.4466170730998
 30
0
 11
318.8613391113
 21
129.4466170730998
 31
0
  0
LINE
  8
0
 62
7
 10
307.0272845459
 20
128.7930611648999
 30
0
 11
281.8082727051
 21
128.7930611648999
 31
0
  0
LINE
  8
0
 62
7
 10
341.808258667
 20
128.7930611648999
 30
0
 11
316.5892468262
 21
128.7930611648999
 31
0
  0
LINE
  8
0
 62
7
 10
318.8613391113
 20
115.1439861526999
 30
0
 11
316.5892468262
 21
116.7518407668999
 31
0
  0
LINE
  8
0
 62
7
 10
307.808260498
 20
124.3208013381998
 30
0
 11
281.8082727051
 21
124.3208013381998
 31
0
  0
LINE
  8
0
 62
7
 10
341.808258667
 20
124.3208013381998
 30
0
 11
315.808270874
 21
124.3208013381998
 31
0
  0
LINE
  8
0
 62
7
 10
307.808260498
 20
122.6179131545999
 30
0
 11
281.8082727051
 21
122.6179131545999
 31
0
  0
LINE
  8
0
 62
7
 10
341.808258667
 20
122.6179131545999
 30
0
 11
315.808270874
 21
122.6179131545999
 31
0
  0
LINE
  8
0
 62
7
 10
316.5892468262
 20
175.2220250930999
 30
0
 11
318.8613391113
 21
177.1498339309999
 31
0
  0
LINE
  8
0
 62
7
 10
307.0272845459
 20
116.7518407668999
 30
0
 11
281.8082727051
 21
116.7518407668999
 31
0
  0
LINE
  8
0
 62
7
 10
341.808258667
 20
116.7518407668999
 30
0
 11
316.5892468262
 21
116.7518407668999
 31
0
  0
LINE
  8
0
 62
7
 10
304.7551922607
 20
115.1439861526999
 30
0
 11
281.8082727051
 21
115.1439861526999
 31
0
  0
LINE
  8
0
 62
7
 10
341.808258667
 20
115.1439861526999
 30
0
 11
318.8613391113
 21
115.1439861526999
 31
0
  0
LINE
  8
0
 62
7
 10
281.8082649409
 20
60.86514293789985
 30
0
 11
281.8082727051
 21
217.9713054885999
 31
0
  0
LINE
  8
0
 62
7
 10
318.8613391113
 20
75.86744654089985
 30
0
 11
316.5892468262
 21
78.26905847929984
 31
0
  0
LINE
  8
0
 62
7
 10
316.5892468262
 20
86.42253717809984
 30
0
 11
318.8613391113
 21
85.55219660189985
 31
0
  0
LINE
  8
0
 62
7
 10
315.808270874
 20
214.9182372512998
 30
0
 11
318.8613391113
 21
217.9713054885999
 31
0
  0
LINE
  8
0
 62
7
 10
315.808270874
 20
63.93027490999985
 30
0
 11
318.8613391113
 21
60.86514704129985
 31
0
  0
LINE
  8
0
 62
7
 10
316.318449707
 20
64.53963404089986
 30
0
 11
318.8613391113
 21
62.23278009799985
 31
0
  0
LINE
  8
0
 62
7
 10
304.7551922607
 20
85.55219660189985
 30
0
 11
281.8082727051
 21
85.55219660189985
 31
0
  0
LINE
  8
0
 62
7
 10
341.808258667
 20
85.55219660189985
 30
0
 11
318.8613391113
 21
85.55219660189985
 31
0
  0
LINE
  8
0
 62
7
 10
307.8082649409
 20
85.31177910369985
 30
0
 11
281.8082649409
 21
85.31177910369985
 31
0
  0
LINE
  8
0
 62
7
 10
341.8082649409
 20
85.31177910369985
 30
0
 11
315.8082649409
 21
85.31177910369985
 31
0
  0
LINE
  8
0
 62
7
 10
307.808260498
 20
84.15868585969984
 30
0
 11
281.8082727051
 21
84.15868585969984
 31
0
  0
LINE
  8
0
 62
7
 10
341.808258667
 20
84.15868585969984
 30
0
 11
315.808270874
 21
84.15868585969984
 31
0
  0
LINE
  8
0
 62
7
 10
307.0272845459
 20
78.26905847929984
 30
0
 11
281.8082727051
 21
78.26905847929984
 31
0
  0
LINE
  8
0
 62
7
 10
341.808258667
 20
78.26905847929984
 30
0
 11
316.5892468262
 21
78.26905847929984
 31
0
  0
LINE
  8
0
 62
7
 10
304.7551922607
 20
75.86744654089985
 30
0
 11
281.8082727051
 21
75.86744654089985
 31
0
  0
LINE
  8
0
 62
7
 10
341.808258667
 20
75.86744654089985
 30
0
 11
318.8613391113
 21
75.86744654089985
 31
0
  0
LINE
  8
0
 62
7
 10
314.8082531738
 20
71.01822809599985
 30
0
 11
308.8082519531
 21
71.01822809599985
 31
0
  0
LINE
  8
0
 62
7
 10
307.0272915065
 20
63.14317362959984
 30
0
 11
305.7597620189
 21
63.14317362959984
 31
0
  0
LINE
  8
0
 62
7
 10
317.856767863
 20
63.14317362959984
 30
0
 11
316.5892383754
 21
63.14317362959984
 31
0
  0
LINE
  8
0
 62
7
 10
304.7551922607
 20
62.23278009799985
 30
0
 11
281.8082727051
 21
62.23278009799985
 31
0
  0
LINE
  8
0
 62
7
 10
341.808258667
 20
62.23278009799985
 30
0
 11
318.8613391113
 21
62.23278009799985
 31
0
  0
LINE
  8
0
 62
7
 10
304.7551922607
 20
60.86514704129985
 30
0
 11
281.8082727051
 21
60.86514704129985
 31
0
  0
LINE
  8
0
 62
7
 10
341.808258667
 20
60.86514704129985
 30
0
 11
318.8613391113
 21
60.86514704129985
 31
0
  0
LINE
  8
0
 62
7
 10
210.1881835905876
 20
170.5980729266776
 30
0
 11
189.9549365941607
 21
198.4134046877908
 31
0
  0
LINE
  8
0
 62
7
 10
190.0221341481382
 20
80.48219437943021
 30
0
 11
210.2236694991396
 21
108.320565999618
 31
0
  0
LINE
  8
0
 62
7
 10
214.745370811045
 20
122.2639603235688
 30
0
 11
214.7257719362337
 21
156.6598406129381
 31
0
  0
LINE
  8
0
 62
7
 10
178.0912631120078
 20
207.0225439905684
 30
0
 11
145.3727806436453
 21
217.6328158989368
 31
0
  0
LINE
  8
0
 62
7
 10
130.7145420637627
 20
217.6244635910034
 30
0
 11
98.00817236617374
 21
206.976912407597
 31
0
  0
LINE
  8
DEFAULT_1
 62
2
  6
CENTER
 10
138.0882258795
 20
134.0432265831
 30
0
 11
138.0882258795
 21
223.9601583979
 31
0
  0
LINE
  8
DEFAULT_1
 62
2
  6
CENTER
 10
138.0882258795
 20
134.0432265831
 30
0
 11
138.0882258795
 21
53.16810387660001
 31
0
  0
LINE
  8
DEFAULT_1
 62
2
  6
CENTER
 10
146.0883258795
 20
139.4182265831
 30
0
 11
53.51818431580001
 21
139.4182265831
 31
0
  0
LINE
  8
DEFAULT_1
 62
2
  6
CENTER
 10
217.3714397475
 20
139.4182265831
 30
0
 11
146.0883258795
 21
139.4182265831
 31
0
  0
LINE
  8
0
 62
7
 10
65.98826816834813
 20
108.2383802393964
 30
0
 11
86.22151516483928
 21
80.42304847840923
 31
0
  0
LINE
  8
0
 62
7
 10
98.0851886470231
 20
71.81390917553652
 30
0
 11
130.8036711152906
 21
61.20363726713721
 31
0
  0
LINE
  8
0
 62
7
 10
86.15431761079756
 20
198.3542587866438
 30
0
 11
65.95278225989134
 21
170.5158871664869
 31
0
  0
LINE
  8
0
 62
7
 10
61.43108094785987
 20
156.5724928426003
 30
0
 11
61.45067982270214
 21
122.1766125531359
 31
0
  0
LINE
  8
0
 62
7
 10
145.4619096952682
 20
61.21198957510157
 30
0
 11
178.1682793928263
 21
71.85954075860305
 31
0
  0
ARC
  8
1
 62
7
 10
299.7112665181076
 20
211.7499293444207
 30
0
 40
6.999999999999991
 50
349.0907679132308
 51
43.89921535629475
  0
ARC
  8
1
 62
7
 10
267.8730072003091
 20
189.8267631764746
 30
0
 40
39.00000000000033
 50
341.031427991479
 51
15.98590111731854
  0
ARC
  8
1
 62
7
 10
323.9052633636923
 20
211.7499293444207
 30
0
 40
7
 50
136.1007846437053
 51
190.9092320867693
  0
ARC
  8
1
 62
7
 10
355.7435226814908
 20
189.8267631764746
 30
0
 40
39.00000000000028
 50
164.0140988826815
 51
198.9685720085211
  0
ARC
  8
DEFAULT_1
 62
2
  6
CENTER
 10
138.0882258795
 20
139.4182265831
 30
0
 40
78.55308217989997
 50
336.6825579432
 51
347.3824278103
  0
ARC
  8
DEFAULT_1
 62
2
  6
CENTER
 10
138.0882258795
 20
139.4182265831
 30
0
 40
78.55308217989999
 50
300.6825579432
 51
311.3824278103
  0
ARC
  8
DEFAULT_1
 62
2
  6
CENTER
 10
138.0882258795
 20
139.4182265831
 30
0
 40
78.55308217989996
 50
264.6825579432
 51
275.3824278103
  0
ARC
  8
DEFAULT_1
 62
2
  6
CENTER
 10
138.0882258795
 20
139.4182265831
 30
0
 40
78.55308217989995
 50
228.6825579432
 51
239.3824278103
  0
ARC
  8
DEFAULT_1
 62
2
  6
CENTER
 10
138.0882258795
 20
139.4182265831
 30
0
 40
78.55308217989993
 50
192.6825579432
 51
203.3824278103
  0
ARC
  8
DEFAULT_1
 62
2
  6
CENTER
 10
138.0882258795
 20
139.4182265831
 30
0
 40
78.55308217989993
 50
156.6825579432
 51
167.3824278103
  0
ARC
  8
DEFAULT_1
 62
2
  6
CENTER
 10
138.0882258795
 20
139.4182265831
 30
0
 40
78.55308217989996
 50
120.6825579432
 51
131.3824278103
  0
ARC
  8
DEFAULT_1
 62
2
  6
CENTER
 10
138.0882258795
 20
139.4182265831
 30
0
 40
78.55308217989993
 50
84.68255794319992
 51
95.38242781030003
  0
ARC
  8
DEFAULT_1
 62
2
  6
CENTER
 10
138.0882258795
 20
139.4182265831
 30
0
 40
78.55308217989992
 50
48.68255794319995
 51
59.38242781030002
  0
ARC
  8
0
 62
7
 10
308.8082649409
 20
70.01822585039984
 30
0
 40
1
 50
90
 51
180
  0
ARC
  8
0
 62
7
 10
314.8082649409
 20
70.01822585039984
 30
0
 40
1
 50
0
 51
90
  0
ARC
  8
0
 62
7
 10
314.8082649409
 20
208.8182258503998
 30
0
 40
1
 50
270
 51
0
  0
ARC
  8
0
 62
7
 10
308.8082649409
 20
208.8182258503998
 30
0
 40
1
 50
180
 51
270
  0
ARC
  8
DEFAULT_1
 62
2
  6
CENTER
 10
138.0882258795
 20
139.4182265831
 30
0
 40
78.55308217989996
 50
167.4297153286
 51
192.6388109721999
  0
ARC
  8
DEFAULT_1
 62
2
  6
CENTER
 10
138.0882258795
 20
139.4182265831
 30
0
 40
78.55308217989999
 50
131.4297153286
 51
156.6388109722
  0
ARC
  8
DEFAULT_1
 62
2
  6
CENTER
 10
138.0882258795
 20
139.4182265831
 30
0
 40
78.55308217989999
 50
95.42971532859995
 51
120.6388109722
  0
ARC
  8
DEFAULT_1
 62
2
  6
CENTER
 10
138.0882258795
 20
139.4182265831
 30
0
 40
78.55308217990009
 50
59.42971532859995
 51
84.63881097220001
  0
ARC
  8
DEFAULT_1
 62
2
  6
CENTER
 10
138.0882258795
 20
139.4182265831
 30
0
 40
78.55308217990003
 50
23.42971532859999
 51
48.63881097219998
  0
ARC
  8
DEFAULT_1
 62
2
  6
CENTER
 10
138.0882258795
 20
139.4182265831
 30
0
 40
78.55308217989997
 50
12.68255794320006
 51
23.38242781029998
  0
ARC
  8
DEFAULT_1
 62
2
  6
CENTER
 10
138.0882258795
 20
139.4182265831
 30
0
 40
78.55308217990007
 50
347.4297153286
 51
12.63881097219997
  0
ARC
  8
DEFAULT_1
 62
2
  6
CENTER
 10
138.0882258795
 20
139.4182265831
 30
0
 40
78.55308217990005
 50
311.4297153286001
 51
336.6388109722
  0
ARC
  8
DEFAULT_1
 62
2
  6
CENTER
 10
138.0882258795
 20
139.4182265831
 30
0
 40
78.55308217990002
 50
275.4297153286
 51
300.6388109722
  0
ARC
  8
DEFAULT_1
 62
2
  6
CENTER
 10
138.0882258795
 20
139.4182265831
 30
0
 40
78.55308217990003
 50
239.4297153286001
 51
264.6388109722
  0
ARC
  8
DEFAULT_1
 62
2
  6
CENTER
 10
138.0882258795
 20
139.4182265831
 30
0
 40
78.55308217989995
 50
203.4297153286
 51
228.6388109722
  0
CIRCLE
  8
1
 62
7
 10
138.0882258795
 20
139.4182265831
 30
0
 40
9.999999999999986
  0
ENDSEC
  0
EOF
