  0
SECTION
  2
HEADER
  9
$ACADVER
  1
AC1006
  9
$INSBASE
 10
0.0
 20
0.0
 30
0.0
  9
$EXTMIN
 10
-107.50077
 20
-107.6
  9
$EXTMAX
 10
297.0
 20
210.0
  9
$LIMMIN
 10
0.0
 20
0.0
  9
$LIMMAX
 10
297.0
 20
210.0
  9
$ORTHOMODE
 70
     0
  9
$REGENMODE
 70
     1
  9
$FILLMODE
 70
     1
  9
$QTEXTMODE
 70
     0
  9
$MIRRTEXT
 70
     1
  9
$DRAGMODE
 70
     2
  9
$LTSCALE
 40
10.0
  9
$OSMODE
 70
     0
  9
$ATTMODE
 70
     1
  9
$TEXTSIZE
 40
0.2
  9
$TRACEWID
 40
0.05
  9
$TEXTSTYLE
  7
STANDARD
  9
$CLAYER
  8
0
  9
$CELTYPE
  6
BYLAYER
  9
$CECOLOR
 62
   256
  9
$DIMSCALE
 40
1.0
  9
$DIMASZ
 40
0.18
  9
$DIMEXO
 40
0.0625
  9
$DIMDLI
 40
0.38
  9
$DIMRND
 40
0.0
  9
$DIMDLE
 40
0.0
  9
$DIMEXE
 40
0.18
  9
$DIMTP
 40
0.0
  9
$DIMTM
 40
0.0
  9
$DIMTXT
 40
0.18
  9
$DIMCEN
 40
0.09
  9
$DIMTSZ
 40
0.0
  9
$DIMTOL
 70
     0
  9
$DIMLIM
 70
     0
  9
$DIMTIH
 70
     1
  9
$DIMTOH
 70
     1
  9
$DIMSE1
 70
     0
  9
$DIMSE2
 70
     0
  9
$DIMTAD
 70
     0
  9
$DIMZIN
 70
     0
  9
$DIMBLK
  1

  9
$DIMASO
 70
     1
  9
$DIMSHO
 70
     0
  9
$DIMPOST
  1

  9
$DIMAPOST
  1

  9
$DIMALT
 70
     0
  9
$DIMALTD
 70
     2
  9
$DIMALTF
 40
25.4
  9
$DIMLFAC
 40
1.0
  9
$DIMTOFL
 70
     0
  9
$DIMTVP
 40
0.0
  9
$DIMTIX
 70
     0
  9
$DIMSOXD
 70
     0
  9
$DIMSAH
 70
     0
  9
$DIMBLK1
  1

  9
$DIMBLK2
  1

  9
$LUNITS
 70
     2
  9
$LUPREC
 70
     4
  9
$AXISMODE
 70
     0
  9
$AXISUNIT
 10
0.0
 20
0.0
  9
$SKETCHINC
 40
0.1
  9
$FILLETRAD
 40
0.0
  9
$AUNITS
 70
     0
  9
$AUPREC
 70
     0
  9
$MENU
  1
sitopluk
  9
$ELEVATION
 40
0.0
  9
$THICKNESS
 40
0.0
  9
$LIMCHECK
 70
     0
  9
$BLIPMODE
 70
     1
  9
$CHAMFERA
 40
0.0
  9
$CHAMFERB
 40
0.0
  9
$SKPOLY
 70
     0
  9
$TDCREATE
 40
2450480.4749064813
  9
$TDUPDATE
 40
2450480.4749064813
  9
$TDINDWG
 40
0.0000000000
  9
$TDUSRTIMER
 40
0.0000000000
  9
$USRTIMER
 70
     1
  9
$ANGBASE
 50
0.0
  9
$ANGDIR
 70
     0
  9
$PDMODE
 70
     0
  9
$PDSIZE
 40
0.0
  9
$PLINEWID
 40
0.0
  9
$COORDS
 70
     2
  9
$SPLFRAME
 70
     0
  9
$SPLINETYPE
 70
     6
  9
$SPLINESEGS
 70
     8
  9
$ATTDIA
 70
     0
  9
$ATTREQ
 70
     1
  9
$HANDLING
 70
     0
  9
$HANDSEED
  5
0
  9
$SURFTAB1
 70
     6
  9
$SURFTAB2
 70
     6
  9
$SURFTYPE
 70
     6
  9
$SURFU
 70
     6
  9
$SURFV
 70
     6
  9
$FLATLAND
 70
     0
  9
$UCSNAME
  2

  9
$UCSORG
 10
0.0
 20
0.0
 30
0.0
  9
$UCSXDIR
 10
1.0
 20
0.0
 30
0.0
  9
$UCSYDIR
 10
0.0
 20
1.0
 30
0.0
  9
$USERI1
 70
     0
  9
$USERI2
 70
     0
  9
$USERI3
 70
     0
  9
$USERI4
 70
     0
  9
$USERI5
 70
     0
  9
$USERR1
 40
0.0
  9
$USERR2
 40
0.0
  9
$USERR3
 40
0.0
  9
$USERR4
 40
0.0
  9
$USERR5
 40
0.0
  9
$WORLDVIEW
 70
     1
  0
ENDSEC
  0
SECTION
  2
TABLES
  0
TABLE
  2
VPORT
 70
     2
  0
VPORT
  2
*ACTIVE
 70
     0
 10
0.0
 20
0.0
 11
1.0
 21
1.0
 12
64.5
 22
17.072426
 13
0.0
 23
0.0
 14
0.5
 24
0.5
 15
0.0
 25
0.0
 16
0.0
 26
0.0
 36
1.0
 17
0.0
 27
0.0
 37
0.0
 40
249.144852
 41
1.380723
 42
50.0
 43
0.0
 44
0.0
 50
0.0
 51
0.0
 71
     0
 72
   100
 73
     1
 74
     1
 75
     1
 76
     0
 77
     0
 78
     0
  0
ENDTAB
  0
TABLE
  2
LTYPE
 70
     2
  0
LTYPE
  2
CONTINUOUS
 70
    64
  3
Solid line
 72
    65
 73
     0
 40
0.0
  0
LTYPE
  2
HIDDEN
 70
     0
  3
_ _ _ _ _ _ _ _ _ _ _ _ _ _ _ _ _ _ _ _ _ _ _
 72
    65
 73
     2
 40
0.375
 49
0.25
 49
-0.125
  0
ENDTAB
  0
TABLE
  2
LAYER
 70
     4
  0
LAYER
  2
0
 70
    64
 62
     7
  6
CONTINUOUS
  0
LAYER
  2
PROFILI
 70
     0
 62
     7
  6
CONTINUOUS
  0
LAYER
  2
FISSAGGI
 70
     0
 62
     2
  6
CONTINUOUS
  0
LAYER
  2
PANNELLI
 70
     0
 62
     6
  6
CONTINUOUS
  0
ENDTAB
  0
TABLE
  2
STYLE
 70
     1
  0
STYLE
  2
STANDARD
 70
     0
 40
0.0
 41
1.0
 50
0.0
 71
     0
 42
0.2
  3
txt
  4

  0
ENDTAB
  0
TABLE
  2
VIEW
 70
     0
  0
ENDTAB
  0
TABLE
  2
UCS
 70
     0
  0
ENDTAB
  0
TABLE
  2
DWGMGR
 70
     0
  0
ENDTAB
  0
ENDSEC
  0
SECTION
  2
BLOCKS
  0
BLOCK
  8
0
  2
BORDER
 70
    64
 10
0.0
 20
0.0
 30
0.0
  0
LINE
  8
0
 10
0.0
 20
0.0
 30
0.0
 11
1.0
 21
0.0
 31
0.0
  0
LINE
  8
0
 10
1.0
 20
0.0
 30
0.0
 11
1.0
 21
1.0
 31
0.0
  0
LINE
  8
0
 10
1.0
 20
1.0
 30
0.0
 11
0.0
 21
1.0
 31
0.0
  0
LINE
  8
0
 10
0.0
 20
1.0
 30
0.0
 11
0.0
 21
0.0
 31
0.0
  0
ENDBLK
  8
0
  0
BLOCK
  8
0
  2
474E
 70
    64
 10
0.0
 20
0.0
 30
0.0
  0
CIRCLE
  8
0
 62
     1
 10
0.0
 20
0.0
 30
0.0
 40
9.5
  0
CIRCLE
  8
0
 62
     1
 10
0.0
 20
0.0
 30
0.0
 40
79.0
  0
ARC
  8
0
 62
     1
 10
0.0
 20
0.0
 30
0.0
 40
92.43
 50
97.906157
 51
109.786151
  0
ARC
  8
0
 62
     1
 10
0.0
 20
0.0
 30
0.0
 40
107.6
 50
85.537783
 51
94.462217
  0
LINE
  8
0
 62
     1
 10
-10.993162
 20
93.402513
 30
0.0
 11
-10.211633
 21
105.409812
 31
0.0
  0
LINE
  8
0
 62
     1
 10
10.211633
 20
105.409812
 30
0.0
 11
10.993162
 21
93.402513
 31
0.0
  0
ARC
  8
0
 62
     1
 10
-8.215856
 20
105.279911
 30
0.0
 40
2.0
 50
94.462217
 51
176.275994
  0
ARC
  8
0
 62
     1
 10
-12.988939
 20
93.532413
 30
0.0
 40
2.0
 50
277.906157
 51
356.275994
  0
ARC
  8
0
 62
     1
 10
8.215856
 20
105.279911
 30
0.0
 40
2.0
 50
3.724006
 51
85.537783
  0
ARC
  8
0
 62
     1
 10
12.988939
 20
93.532413
 30
0.0
 40
2.0
 50
183.724006
 51
262.093843
  0
ARC
  8
0
 62
     1
 10
-54.967814
 20
76.782578
 30
0.0
 40
2.0
 50
305.598465
 51
23.968302
  0
LINE
  8
0
 62
     1
 10
-53.140274
 20
77.59504
 30
0.0
 11
-58.028334
 21
88.590171
 31
0.0
  0
ARC
  8
0
 62
     1
 10
-56.200794
 20
89.402633
 30
0.0
 40
2.0
 50
122.154524
 51
203.968302
  0
ARC
  8
0
 62
     1
 10
0.0
 20
0.0
 30
0.0
 40
107.6
 50
113.230091
 51
122.154524
  0
ARC
  8
0
 62
     1
 10
-41.651235
 20
97.038831
 30
0.0
 40
2.0
 50
31.416314
 51
113.230091
  0
LINE
  8
0
 62
     1
 10
-39.94443
 20
98.081336
 30
0.0
 11
-33.67235
 21
87.812595
 31
0.0
  0
ARC
  8
0
 62
     1
 10
-31.965545
 20
88.8551
 30
0.0
 40
2.0
 50
211.416314
 51
289.786151
  0
ARC
  8
0
 62
     1
 10
-84.354226
 20
42.442779
 30
0.0
 40
2.0
 50
333.290772
 51
51.66061
  0
LINE
  8
0
 62
     1
 10
-83.113589
 20
44.011479
 30
0.0
 11
-92.551443
 21
51.475589
 31
0.0
  0
ARC
  8
0
 62
     1
 10
-91.310807
 20
53.044289
 30
0.0
 40
2.0
 50
149.846832
 51
231.66061
  0
ARC
  8
0
 62
     1
 10
0.0
 20
0.0
 30
0.0
 40
107.6
 50
140.922399
 51
149.846832
  0
ARC
  8
0
 62
     1
 10
-81.97653
 20
66.567323
 30
0.0
 40
2.0
 50
59.108621
 51
140.922399
  0
LINE
  8
0
 62
     1
 10
-80.949706
 20
68.283608
 30
0.0
 11
-70.623933
 21
62.10587
 31
0.0
  0
ARC
  8
0
 62
     1
 10
-69.597109
 20
63.822154
 30
0.0
 40
2.0
 50
239.108621
 51
317.478458
  0
ARC
  8
0
 62
     1
 10
-94.4161
 20
-1.620149
 30
0.0
 40
2.0
 50
0.98308
 51
79.352917
  0
LINE
  8
0
 62
     1
 10
-94.046582
 20
0.345419
 30
0.0
 11
-105.872132
 21
2.56857
 31
0.0
  0
ARC
  8
0
 62
     1
 10
-105.502614
 20
4.534138
 30
0.0
 40
2.0
 50
177.53914
 51
259.352917
  0
ARC
  8
0
 62
     1
 10
0.0
 20
0.0
 30
0.0
 40
107.6
 50
168.614706
 51
177.53914
  0
ARC
  8
0
 62
     1
 10
-103.52199
 20
20.846044
 30
0.0
 40
2.0
 50
86.800929
 51
168.614706
  0
LINE
  8
0
 62
     1
 10
-103.410379
 20
22.842928
 30
0.0
 11
-91.396424
 21
22.171439
 31
0.0
  0
ARC
  8
0
 62
     1
 10
-91.284813
 20
24.168322
 30
0.0
 40
2.0
 50
266.800929
 51
345.170766
  0
ARC
  8
0
 62
     1
 10
-82.848384
 20
-45.31192
 30
0.0
 40
2.0
 50
28.675388
 51
107.045225
  0
LINE
  8
0
 62
     1
 10
-83.434637
 20
-43.399773
 30
0.0
 11
-94.938791
 21
-46.926877
 31
0.0
  0
ARC
  8
0
 62
     1
 10
-95.525044
 20
-45.01473
 30
0.0
 40
2.0
 50
205.231447
 51
287.045225
  0
ARC
  8
0
 62
     1
 10
0.0
 20
0.0
 30
0.0
 40
107.6
 50
196.307014
 51
205.231447
  0
ARC
  8
0
 62
     1
 10
-101.35181
 20
-29.650812
 30
0.0
 40
2.0
 50
114.493237
 51
196.307014
  0
LINE
  8
0
 62
     1
 10
-102.180981
 20
-27.830792
 30
0.0
 11
-91.231095
 21
-22.842202
 31
0.0
  0
ARC
  8
0
 62
     1
 10
-92.060267
 20
-21.022182
 30
0.0
 40
2.0
 50
294.493237
 51
12.863074
  0
ARC
  8
0
 62
     1
 10
-52.301102
 20
-78.623277
 30
0.0
 40
2.0
 50
56.367695
 51
134.737533
  0
LINE
  8
0
 62
     1
 10
-53.708822
 20
-77.2026
 30
0.0
 11
-62.256118
 21
-85.671943
 31
0.0
  0
ARC
  8
0
 62
     1
 10
-63.663838
 20
-84.251265
 30
0.0
 40
2.0
 50
232.923755
 51
314.737533
  0
ARC
  8
0
 62
     1
 10
0.0
 20
0.0
 30
0.0
 40
107.6
 50
223.999322
 51
232.923755
  0
ARC
  8
0
 62
     1
 10
-75.963151
 20
-73.355025
 30
0.0
 40
2.0
 50
142.185544
 51
223.999322
  0
LINE
  8
0
 62
     1
 10
-77.543152
 20
-72.128812
 30
0.0
 11
-70.165823
 21
-62.62297
 31
0.0
  0
ARC
  8
0
 62
     1
 10
-71.745823
 20
-61.396757
 30
0.0
 40
2.0
 50
322.185544
 51
40.555382
  0
ARC
  8
0
 62
     1
 10
-9.772267
 20
-93.922988
 30
0.0
 40
2.0
 50
84.060003
 51
162.42984
  0
LINE
  8
0
 62
     1
 10
-11.678963
 20
-93.319241
 30
0.0
 11
-15.311318
 21
-104.790598
 31
0.0
  0
ARC
  8
0
 62
     1
 10
-17.218014
 20
-104.186851
 30
0.0
 40
2.0
 50
260.616063
 51
342.42984
  0
ARC
  8
0
 62
     1
 10
0.0
 20
0.0
 30
0.0
 40
107.6
 50
251.691629
 51
260.616063
  0
ARC
  8
0
 62
     1
 10
-33.17225
 20
-100.254485
 30
0.0
 40
2.0
 50
169.877852
 51
251.691629
  0
LINE
  8
0
 62
     1
 10
-35.141121
 20
-99.902991
 30
0.0
 11
-33.026405
 21
-88.057569
 31
0.0
  0
ARC
  8
0
 62
     1
 10
-34.995276
 20
-87.706075
 30
0.0
 40
2.0
 50
349.877852
 51
68.247689
  0
ARC
  8
0
 62
     1
 10
34.995276
 20
-87.706075
 30
0.0
 40
2.0
 50
111.752311
 51
190.122148
  0
LINE
  8
0
 62
     1
 10
33.026405
 20
-88.057569
 30
0.0
 11
35.141121
 21
-99.902991
 31
0.0
  0
ARC
  8
0
 62
     1
 10
33.17225
 20
-100.254485
 30
0.0
 40
2.0
 50
288.308371
 51
10.122148
  0
ARC
  8
0
 62
     1
 10
0.0
 20
0.0
 30
0.0
 40
107.6
 50
279.383937
 51
288.308371
  0
ARC
  8
0
 62
     1
 10
17.218014
 20
-104.186851
 30
0.0
 40
2.0
 50
197.57016
 51
279.383937
  0
LINE
  8
0
 62
     1
 10
15.311318
 20
-104.790598
 30
0.0
 11
11.678963
 21
-93.319241
 31
0.0
  0
ARC
  8
0
 62
     1
 10
9.772267
 20
-93.922988
 30
0.0
 40
2.0
 50
17.57016
 51
95.939997
  0
ARC
  8
0
 62
     1
 10
71.745823
 20
-61.396757
 30
0.0
 40
2.0
 50
139.444618
 51
217.814456
  0
LINE
  8
0
 62
     1
 10
70.165823
 20
-62.62297
 30
0.0
 11
77.543152
 21
-72.128812
 31
0.0
  0
ARC
  8
0
 62
     1
 10
75.963151
 20
-73.355025
 30
0.0
 40
2.0
 50
316.000678
 51
37.814456
  0
ARC
  8
0
 62
     1
 10
0.0
 20
0.0
 30
0.0
 40
107.6
 50
307.076245
 51
316.000678
  0
ARC
  8
0
 62
     1
 10
63.663838
 20
-84.251265
 30
0.0
 40
2.0
 50
225.262467
 51
307.076245
  0
LINE
  8
0
 62
     1
 10
62.256118
 20
-85.671943
 30
0.0
 11
53.708822
 21
-77.2026
 31
0.0
  0
ARC
  8
0
 62
     1
 10
52.301102
 20
-78.623277
 30
0.0
 40
2.0
 50
45.262467
 51
123.632305
  0
ARC
  8
0
 62
     1
 10
92.060267
 20
-21.022182
 30
0.0
 40
2.0
 50
167.136926
 51
245.506763
  0
LINE
  8
0
 62
     1
 10
91.231095
 20
-22.842202
 30
0.0
 11
102.180981
 21
-27.830792
 31
0.0
  0
ARC
  8
0
 62
     1
 10
101.35181
 20
-29.650812
 30
0.0
 40
2.0
 50
343.692986
 51
65.506763
  0
ARC
  8
0
 62
     1
 10
0.0
 20
0.0
 30
0.0
 40
107.6
 50
334.768553
 51
343.692986
  0
ARC
  8
0
 62
     1
 10
95.525044
 20
-45.01473
 30
0.0
 40
2.0
 50
252.954775
 51
334.768553
  0
LINE
  8
0
 62
     1
 10
94.938791
 20
-46.926877
 30
0.0
 11
83.434637
 21
-43.399773
 31
0.0
  0
ARC
  8
0
 62
     1
 10
82.848384
 20
-45.31192
 30
0.0
 40
2.0
 50
72.954775
 51
151.324612
  0
ARC
  8
0
 62
     1
 10
91.284813
 20
24.168322
 30
0.0
 40
2.0
 50
194.829234
 51
273.199071
  0
LINE
  8
0
 62
     1
 10
91.396424
 20
22.171439
 30
0.0
 11
103.410379
 21
22.842928
 31
0.0
  0
ARC
  8
0
 62
     1
 10
103.52199
 20
20.846044
 30
0.0
 40
2.0
 50
11.385294
 51
93.199071
  0
ARC
  8
0
 62
     1
 10
0.0
 20
0.0
 30
0.0
 40
107.6
 50
2.46086
 51
11.385294
  0
ARC
  8
0
 62
     1
 10
105.502614
 20
4.534138
 30
0.0
 40
2.0
 50
280.647083
 51
2.46086
  0
LINE
  8
0
 62
     1
 10
105.872132
 20
2.56857
 30
0.0
 11
94.046582
 21
0.345419
 31
0.0
  0
ARC
  8
0
 62
     1
 10
94.4161
 20
-1.620149
 30
0.0
 40
2.0
 50
100.647083
 51
179.01692
  0
ARC
  8
0
 62
     1
 10
69.597109
 20
63.822154
 30
0.0
 40
2.0
 50
222.521542
 51
300.891379
  0
LINE
  8
0
 62
     1
 10
70.623933
 20
62.10587
 30
0.0
 11
80.949706
 21
68.283608
 31
0.0
  0
ARC
  8
0
 62
     1
 10
81.97653
 20
66.567323
 30
0.0
 40
2.0
 50
39.077601
 51
120.891379
  0
ARC
  8
0
 62
     1
 10
0.0
 20
0.0
 30
0.0
 40
107.6
 50
30.153168
 51
39.077601
  0
ARC
  8
0
 62
     1
 10
91.310807
 20
53.044289
 30
0.0
 40
2.0
 50
308.33939
 51
30.153168
  0
LINE
  8
0
 62
     1
 10
92.551443
 20
51.475589
 30
0.0
 11
83.113589
 21
44.011479
 31
0.0
  0
ARC
  8
0
 62
     1
 10
84.354226
 20
42.442779
 30
0.0
 40
2.0
 50
128.33939
 51
206.709228
  0
ARC
  8
0
 62
     1
 10
31.965545
 20
88.8551
 30
0.0
 40
2.0
 50
250.213849
 51
328.583686
  0
LINE
  8
0
 62
     1
 10
33.67235
 20
87.812595
 30
0.0
 11
39.94443
 21
98.081336
 31
0.0
  0
ARC
  8
0
 62
     1
 10
41.651235
 20
97.038831
 30
0.0
 40
2.0
 50
66.769909
 51
148.583686
  0
ARC
  8
0
 62
     1
 10
0.0
 20
0.0
 30
0.0
 40
107.6
 50
57.845476
 51
66.769909
  0
ARC
  8
0
 62
     1
 10
56.200794
 20
89.402633
 30
0.0
 40
2.0
 50
336.031698
 51
57.845476
  0
LINE
  8
0
 62
     1
 10
58.028334
 20
88.590171
 30
0.0
 11
53.140274
 21
77.59504
 31
0.0
  0
ARC
  8
0
 62
     1
 10
54.967814
 20
76.782578
 30
0.0
 40
2.0
 50
156.031698
 51
234.401535
  0
ARC
  8
0
 62
     1
 10
0.0
 20
0.0
 30
0.0
 40
92.43
 50
70.213849
 51
82.093843
  0
ARC
  8
0
 62
     1
 10
0.0
 20
0.0
 30
0.0
 40
92.43
 50
42.521542
 51
54.401535
  0
ARC
  8
0
 62
     1
 10
0.0
 20
0.0
 30
0.0
 40
92.43
 50
14.829234
 51
26.709228
  0
ARC
  8
0
 62
     1
 10
0.0
 20
0.0
 30
0.0
 40
92.43
 50
347.136926
 51
359.01692
  0
ARC
  8
0
 62
     1
 10
0.0
 20
0.0
 30
0.0
 40
92.43
 50
319.444618
 51
331.324612
  0
ARC
  8
0
 62
     1
 10
0.0
 20
0.0
 30
0.0
 40
92.43
 50
291.752311
 51
303.632305
  0
ARC
  8
0
 62
     1
 10
0.0
 20
0.0
 30
0.0
 40
92.43
 50
264.060003
 51
275.939997
  0
ARC
  8
0
 62
     1
 10
0.0
 20
0.0
 30
0.0
 40
92.43
 50
236.367695
 51
248.247689
  0
ARC
  8
0
 62
     1
 10
0.0
 20
0.0
 30
0.0
 40
92.43
 50
208.675388
 51
220.555382
  0
ARC
  8
0
 62
     1
 10
0.0
 20
0.0
 30
0.0
 40
92.43
 50
180.98308
 51
192.863074
  0
ARC
  8
0
 62
     1
 10
0.0
 20
0.0
 30
0.0
 40
92.43
 50
153.290772
 51
165.170766
  0
ARC
  8
0
 62
     1
 10
0.0
 20
0.0
 30
0.0
 40
92.43
 50
125.598465
 51
137.478458
  0
ENDBLK
  8
0
  0
BLOCK
  8
0
  2
474F
 70
    64
 10
0.0
 20
0.0
 30
0.0
  0
LINE
  8
0
 62
     1
 10
42.0
 20
-79.0
 30
0.0
 11
42.0
 21
79.0
 31
0.0
  0
LINE
  8
0
 62
     1
 10
15.5
 20
-107.6
 30
0.0
 11
26.5
 21
-107.6
 31
0.0
  0
LINE
  8
0
 62
     1
 10
0.0
 20
-79.0
 30
0.0
 11
15.5
 21
-79.0
 31
0.0
  0
LINE
  8
0
 62
     1
 10
0.0
 20
79.0
 30
0.0
 11
15.5
 21
79.0
 31
0.0
  0
LINE
  8
0
 62
     1
 10
15.5
 20
107.6
 30
0.0
 11
26.5
 21
107.6
 31
0.0
  0
LINE
  8
0
 62
     1
 10
15.5
 20
-107.6
 30
0.0
 11
15.5
 21
107.6
 31
0.0
  0
LINE
  8
0
 62
     1
 10
26.5
 20
-107.6
 30
0.0
 11
26.5
 21
107.6
 31
0.0
  0
LINE
  8
0
 62
     1
 10
26.5
 20
79.0
 30
0.0
 11
42.0
 21
79.0
 31
0.0
  0
LINE
  8
0
 62
     1
 10
26.5
 20
-79.0
 30
0.0
 11
42.0
 21
-79.0
 31
0.0
  0
LINE
  8
0
 62
     1
 10
0.0
 20
-79.0
 30
0.0
 11
0.0
 21
79.0
 31
0.0
  0
LINE
  8
0
 62
     1
 10
15.5
 20
98.876687
 30
0.0
 11
26.5
 21
98.876687
 31
0.0
  0
LINE
  8
0
 62
     1
 10
15.5
 20
89.402633
 30
0.0
 11
26.5
 21
89.402633
 31
0.0
  0
LINE
  8
0
 62
     1
 10
15.5
 20
76.782578
 30
0.0
 11
26.5
 21
76.782578
 31
0.0
  0
LINE
  8
0
 62
     1
 10
15.5
 20
68.567323
 30
0.0
 11
26.5
 21
68.567323
 31
0.0
  0
LINE
  8
0
 62
     1
 10
15.5
 20
53.044289
 30
0.0
 11
26.5
 21
53.044289
 31
0.0
  0
LINE
  8
0
 62
     1
 10
15.5
 20
42.442779
 30
0.0
 11
26.5
 21
42.442779
 31
0.0
  0
LINE
  8
0
 62
     1
 10
15.5
 20
22.846044
 30
0.0
 11
26.5
 21
22.846044
 31
0.0
  0
LINE
  8
0
 62
     1
 10
15.5
 20
4.534138
 30
0.0
 11
26.5
 21
4.534138
 31
0.0
  0
LINE
  8
0
 62
     1
 10
15.5
 20
0.345419
 30
0.0
 11
26.5
 21
0.345419
 31
0.0
  0
LINE
  8
0
 62
     1
 10
15.5
 20
-21.022182
 30
0.0
 11
26.5
 21
-21.022182
 31
0.0
  0
LINE
  8
0
 62
     1
 10
15.5
 20
-29.650812
 30
0.0
 11
26.5
 21
-29.650812
 31
0.0
  0
LINE
  8
0
 62
     1
 10
15.5
 20
-47.01473
 30
0.0
 11
26.5
 21
-47.01473
 31
0.0
  0
LINE
  8
0
 62
     1
 10
15.5
 20
-61.396757
 30
0.0
 11
26.5
 21
-61.396757
 31
0.0
  0
LINE
  8
0
 62
     1
 10
15.5
 20
-73.355025
 30
0.0
 11
26.5
 21
-73.355025
 31
0.0
  0
LINE
  8
0
 62
     1
 10
15.5
 20
-86.251265
 30
0.0
 11
26.5
 21
-86.251265
 31
0.0
  0
LINE
  8
0
 62
     1
 10
15.5
 20
-100.254485
 30
0.0
 11
26.5
 21
-100.254485
 31
0.0
  0
LINE
  8
0
 62
     1
 10
17.5
 20
-107.6
 30
0.0
 11
17.5
 21
-100.254485
 31
0.0
  0
LINE
  8
0
 62
     1
 10
24.5
 20
-107.6
 30
0.0
 11
24.5
 21
-100.254485
 31
0.0
  0
LINE
  8
0
 62
     1
 10
17.5
 20
98.876687
 30
0.0
 11
17.5
 21
107.6
 31
0.0
  0
LINE
  8
0
 62
     1
 10
24.5
 20
98.876687
 30
0.0
 11
24.5
 21
107.6
 31
0.0
  0
LINE
  8
0
 62
     1
 10
17.5
 20
53.044289
 30
0.0
 11
17.5
 21
68.567323
 31
0.0
  0
LINE
  8
0
 62
     1
 10
24.5
 20
53.044289
 30
0.0
 11
24.5
 21
68.567323
 31
0.0
  0
LINE
  8
0
 62
     1
 10
17.5
 20
0.345419
 30
0.0
 11
17.5
 21
22.846044
 31
0.0
  0
LINE
  8
0
 62
     1
 10
24.5
 20
0.345419
 30
0.0
 11
24.5
 21
22.846044
 31
0.0
  0
LINE
  8
0
 62
     1
 10
17.5
 20
-47.01473
 30
0.0
 11
17.5
 21
-29.650812
 31
0.0
  0
LINE
  8
0
 62
     1
 10
24.5
 20
-47.01473
 30
0.0
 11
24.5
 21
-29.650812
 31
0.0
  0
LINE
  8
0
 62
     1
 10
17.5
 20
-86.251265
 30
0.0
 11
17.5
 21
-73.355025
 31
0.0
  0
LINE
  8
0
 62
     1
 10
24.5
 20
-86.251265
 30
0.0
 11
24.5
 21
-73.355025
 31
0.0
  0
ENDBLK
  8
0
  0
ENDSEC
  0
SECTION
  2
ENTITIES
  0
INSERT
  8
0
  2
474E
 10
0.0
 20
0.0
 30
0.0
  0
INSERT
  8
0
  2
474F
 10
150.0
 20
0.0
 30
0.0
  0
ENDSEC
  0
EOF
