  0
SECTION
  2
HEADER
  9
$ACADVER
  1
AC1006
  9
$INSBASE
 10
0.0
 20
0.0
 30
0.0
  9
$EXTMIN
 10
-67.697208
 20
-68.15
  9
$EXTMAX
 10
297.0
 20
210.0
  9
$LIMMIN
 10
0.0
 20
0.0
  9
$LIMMAX
 10
297.0
 20
210.0
  9
$ORTHOMODE
 70
     0
  9
$REGENMODE
 70
     1
  9
$FILLMODE
 70
     1
  9
$QTEXTMODE
 70
     0
  9
$MIRRTEXT
 70
     1
  9
$DRAGMODE
 70
     2
  9
$LTSCALE
 40
10.0
  9
$OSMODE
 70
     0
  9
$ATTMODE
 70
     1
  9
$TEXTSIZE
 40
0.2
  9
$TRACEWID
 40
0.05
  9
$TEXTSTYLE
  7
STANDARD
  9
$CLAYER
  8
0
  9
$CELTYPE
  6
BYLAYER
  9
$CECOLOR
 62
   256
  9
$DIMSCALE
 40
1.0
  9
$DIMASZ
 40
0.18
  9
$DIMEXO
 40
0.0625
  9
$DIMDLI
 40
0.38
  9
$DIMRND
 40
0.0
  9
$DIMDLE
 40
0.0
  9
$DIMEXE
 40
0.18
  9
$DIMTP
 40
0.0
  9
$DIMTM
 40
0.0
  9
$DIMTXT
 40
0.18
  9
$DIMCEN
 40
0.09
  9
$DIMTSZ
 40
0.0
  9
$DIMTOL
 70
     0
  9
$DIMLIM
 70
     0
  9
$DIMTIH
 70
     1
  9
$DIMTOH
 70
     1
  9
$DIMSE1
 70
     0
  9
$DIMSE2
 70
     0
  9
$DIMTAD
 70
     0
  9
$DIMZIN
 70
     0
  9
$DIMBLK
  1

  9
$DIMASO
 70
     1
  9
$DIMSHO
 70
     0
  9
$DIMPOST
  1

  9
$DIMAPOST
  1

  9
$DIMALT
 70
     0
  9
$DIMALTD
 70
     2
  9
$DIMALTF
 40
25.4
  9
$DIMLFAC
 40
1.0
  9
$DIMTOFL
 70
     0
  9
$DIMTVP
 40
0.0
  9
$DIMTIX
 70
     0
  9
$DIMSOXD
 70
     0
  9
$DIMSAH
 70
     0
  9
$DIMBLK1
  1

  9
$DIMBLK2
  1

  9
$LUNITS
 70
     2
  9
$LUPREC
 70
     4
  9
$AXISMODE
 70
     0
  9
$AXISUNIT
 10
0.0
 20
0.0
  9
$SKETCHINC
 40
0.1
  9
$FILLETRAD
 40
0.0
  9
$AUNITS
 70
     0
  9
$AUPREC
 70
     0
  9
$MENU
  1
sitopluk
  9
$ELEVATION
 40
0.0
  9
$THICKNESS
 40
0.0
  9
$LIMCHECK
 70
     0
  9
$BLIPMODE
 70
     1
  9
$CHAMFERA
 40
0.0
  9
$CHAMFERB
 40
0.0
  9
$SKPOLY
 70
     0
  9
$TDCREATE
 40
2450480.4698894676
  9
$TDUPDATE
 40
2450480.4698894676
  9
$TDINDWG
 40
0.0000000000
  9
$TDUSRTIMER
 40
0.0000000000
  9
$USRTIMER
 70
     1
  9
$ANGBASE
 50
0.0
  9
$ANGDIR
 70
     0
  9
$PDMODE
 70
     0
  9
$PDSIZE
 40
0.0
  9
$PLINEWID
 40
0.0
  9
$COORDS
 70
     2
  9
$SPLFRAME
 70
     0
  9
$SPLINETYPE
 70
     6
  9
$SPLINESEGS
 70
     8
  9
$ATTDIA
 70
     0
  9
$ATTREQ
 70
     1
  9
$HANDLING
 70
     0
  9
$HANDSEED
  5
0
  9
$SURFTAB1
 70
     6
  9
$SURFTAB2
 70
     6
  9
$SURFTYPE
 70
     6
  9
$SURFU
 70
     6
  9
$SURFV
 70
     6
  9
$FLATLAND
 70
     0
  9
$UCSNAME
  2

  9
$UCSORG
 10
0.0
 20
0.0
 30
0.0
  9
$UCSXDIR
 10
1.0
 20
0.0
 30
0.0
  9
$UCSYDIR
 10
0.0
 20
1.0
 30
0.0
  9
$USERI1
 70
     0
  9
$USERI2
 70
     0
  9
$USERI3
 70
     0
  9
$USERI4
 70
     0
  9
$USERI5
 70
     0
  9
$USERR1
 40
0.0
  9
$USERR2
 40
0.0
  9
$USERR3
 40
0.0
  9
$USERR4
 40
0.0
  9
$USERR5
 40
0.0
  9
$WORLDVIEW
 70
     1
  0
ENDSEC
  0
SECTION
  2
TABLES
  0
TABLE
  2
VPORT
 70
     2
  0
VPORT
  2
*ACTIVE
 70
     0
 10
0.0
 20
0.0
 11
1.0
 21
1.0
 12
56.0
 22
21.445899
 13
0.0
 23
0.0
 14
0.5
 24
0.5
 15
0.0
 25
0.0
 16
0.0
 26
0.0
 36
1.0
 17
0.0
 27
0.0
 37
0.0
 40
178.891798
 41
1.380723
 42
50.0
 43
0.0
 44
0.0
 50
0.0
 51
0.0
 71
     0
 72
   100
 73
     1
 74
     1
 75
     1
 76
     0
 77
     0
 78
     0
  0
ENDTAB
  0
TABLE
  2
LTYPE
 70
     3
  0
LTYPE
  2
CONTINUOUS
 70
    64
  3
Solid line
 72
    65
 73
     0
 40
0.0
  0
LTYPE
  2
HIDDEN
 70
     0
  3
_ _ _ _ _ _ _ _ _ _ _ _ _ _ _ _ _ _ _ _ _ _ _
 72
    65
 73
     2
 40
0.375
 49
0.25
 49
-0.125
  0
LTYPE
  2
DASHDOT
 70
    64
  3
__ . __ . __ . __ . __ . __ . __ . __ . __ . __
 72
    65
 73
     4
 40
1.0
 49
0.5
 49
-0.25
 49
0.0
 49
-0.25
  0
ENDTAB
  0
TABLE
  2
LAYER
 70
     4
  0
LAYER
  2
0
 70
    64
 62
     7
  6
CONTINUOUS
  0
LAYER
  2
PROFILI
 70
     0
 62
     7
  6
CONTINUOUS
  0
LAYER
  2
FISSAGGI
 70
     0
 62
     2
  6
CONTINUOUS
  0
LAYER
  2
PANNELLI
 70
     0
 62
     6
  6
CONTINUOUS
  0
ENDTAB
  0
TABLE
  2
STYLE
 70
     1
  0
STYLE
  2
STANDARD
 70
     0
 40
0.0
 41
1.0
 50
0.0
 71
     0
 42
0.2
  3
txt
  4

  0
ENDTAB
  0
TABLE
  2
VIEW
 70
     0
  0
ENDTAB
  0
TABLE
  2
UCS
 70
     0
  0
ENDTAB
  0
TABLE
  2
DWGMGR
 70
     0
  0
ENDTAB
  0
ENDSEC
  0
SECTION
  2
BLOCKS
  0
BLOCK
  8
0
  2
BORDER
 70
    64
 10
0.0
 20
0.0
 30
0.0
  0
LINE
  8
0
 10
0.0
 20
0.0
 30
0.0
 11
1.0
 21
0.0
 31
0.0
  0
LINE
  8
0
 10
1.0
 20
0.0
 30
0.0
 11
1.0
 21
1.0
 31
0.0
  0
LINE
  8
0
 10
1.0
 20
1.0
 30
0.0
 11
0.0
 21
1.0
 31
0.0
  0
LINE
  8
0
 10
0.0
 20
1.0
 30
0.0
 11
0.0
 21
0.0
 31
0.0
  0
ENDBLK
  8
0
  0
BLOCK
  8
0
  2
474C
 70
    64
 10
0.0
 20
0.0
 30
0.0
  0
CIRCLE
  8
0
 62
     1
 10
0.0
 20
0.0
 30
0.0
 40
9.5
  0
CIRCLE
  8
0
 62
     1
 10
0.0
 20
0.0
 30
0.0
 40
39.5
  0
ARC
  8
0
 62
     1
 10
0.0
 20
0.0
 30
0.0
 40
53.37
 50
102.937107
 51
122.062893
  0
ARC
  8
0
 62
     1
 10
0.0
 20
0.0
 30
0.0
 40
68.15
 50
83.391626
 51
96.608374
  0
LINE
  8
0
 62
     1
 10
-10.400649
 20
53.83285
 30
0.0
 11
-9.608358
 21
65.842157
 31
0.0
  0
LINE
  8
0
 62
     1
 10
9.608358
 20
65.842157
 30
0.0
 11
10.400649
 21
53.83285
 31
0.0
  0
ARC
  8
0
 62
     1
 10
-7.612696
 20
65.710497
 30
0.0
 40
2.0
 50
96.608374
 51
176.225488
  0
ARC
  8
0
 62
     1
 10
7.612696
 20
65.710497
 30
0.0
 40
2.0
 50
3.774512
 51
83.391626
  0
ARC
  8
0
 62
     1
 10
-12.396311
 20
53.96451
 30
0.0
 40
2.0
 50
282.937107
 51
356.225488
  0
ARC
  8
0
 62
     1
 10
12.396311
 20
53.96451
 30
0.0
 40
2.0
 50
183.774512
 51
257.062893
  0
ARC
  8
0
 62
     1
 10
-46.924187
 20
29.393156
 30
0.0
 40
2.0
 50
327.937107
 51
41.225488
  0
LINE
  8
0
 62
     1
 10
-45.419943
 20
30.711204
 30
0.0
 11
-53.35157
 21
39.763301
 31
0.0
  0
ARC
  8
0
 62
     1
 10
-51.847327
 20
41.081349
 30
0.0
 40
2.0
 50
141.608374
 51
221.225488
  0
ARC
  8
0
 62
     1
 10
0.0
 20
0.0
 30
0.0
 40
68.15
 50
128.391626
 51
141.608374
  0
ARC
  8
0
 62
     1
 10
-41.081349
 20
51.847327
 30
0.0
 40
2.0
 50
48.774512
 51
128.391626
  0
LINE
  8
0
 62
     1
 10
-39.763301
 20
53.35157
 30
0.0
 11
-30.711204
 21
45.419943
 31
0.0
  0
ARC
  8
0
 62
     1
 10
-29.393156
 20
46.924187
 30
0.0
 40
2.0
 50
228.774512
 51
302.062893
  0
ARC
  8
0
 62
     1
 10
-53.96451
 20
-12.396311
 30
0.0
 40
2.0
 50
12.937107
 51
86.225488
  0
LINE
  8
0
 62
     1
 10
-53.83285
 20
-10.400649
 30
0.0
 11
-65.842157
 21
-9.608358
 31
0.0
  0
ARC
  8
0
 62
     1
 10
-65.710497
 20
-7.612696
 30
0.0
 40
2.0
 50
186.608374
 51
266.225488
  0
ARC
  8
0
 62
     1
 10
0.0
 20
0.0
 30
0.0
 40
68.15
 50
173.391626
 51
186.608374
  0
ARC
  8
0
 62
     1
 10
-65.710497
 20
7.612696
 30
0.0
 40
2.0
 50
93.774512
 51
173.391626
  0
LINE
  8
0
 62
     1
 10
-65.842157
 20
9.608358
 30
0.0
 11
-53.83285
 21
10.400649
 31
0.0
  0
ARC
  8
0
 62
     1
 10
-53.96451
 20
12.396311
 30
0.0
 40
2.0
 50
273.774512
 51
347.062893
  0
ARC
  8
0
 62
     1
 10
-29.393156
 20
-46.924187
 30
0.0
 40
2.0
 50
57.937107
 51
131.225488
  0
LINE
  8
0
 62
     1
 10
-30.711204
 20
-45.419943
 30
0.0
 11
-39.763301
 21
-53.35157
 31
0.0
  0
ARC
  8
0
 62
     1
 10
-41.081349
 20
-51.847327
 30
0.0
 40
2.0
 50
231.608374
 51
311.225488
  0
ARC
  8
0
 62
     1
 10
0.0
 20
0.0
 30
0.0
 40
68.15
 50
218.391626
 51
231.608374
  0
ARC
  8
0
 62
     1
 10
-51.847327
 20
-41.081349
 30
0.0
 40
2.0
 50
138.774512
 51
218.391626
  0
LINE
  8
0
 62
     1
 10
-53.35157
 20
-39.763301
 30
0.0
 11
-45.419943
 21
-30.711204
 31
0.0
  0
ARC
  8
0
 62
     1
 10
-46.924187
 20
-29.393156
 30
0.0
 40
2.0
 50
318.774512
 51
32.062893
  0
ARC
  8
0
 62
     1
 10
12.396311
 20
-53.96451
 30
0.0
 40
2.0
 50
102.937107
 51
176.225488
  0
LINE
  8
0
 62
     1
 10
10.400649
 20
-53.83285
 30
0.0
 11
9.608358
 21
-65.842157
 31
0.0
  0
ARC
  8
0
 62
     1
 10
7.612696
 20
-65.710497
 30
0.0
 40
2.0
 50
276.608374
 51
356.225488
  0
ARC
  8
0
 62
     1
 10
0.0
 20
0.0
 30
0.0
 40
68.15
 50
263.391626
 51
276.608374
  0
ARC
  8
0
 62
     1
 10
-7.612696
 20
-65.710497
 30
0.0
 40
2.0
 50
183.774512
 51
263.391626
  0
LINE
  8
0
 62
     1
 10
-9.608358
 20
-65.842157
 30
0.0
 11
-10.400649
 21
-53.83285
 31
0.0
  0
ARC
  8
0
 62
     1
 10
-12.396311
 20
-53.96451
 30
0.0
 40
2.0
 50
3.774512
 51
77.062893
  0
ARC
  8
0
 62
     1
 10
46.924187
 20
-29.393156
 30
0.0
 40
2.0
 50
147.937107
 51
221.225488
  0
LINE
  8
0
 62
     1
 10
45.419943
 20
-30.711204
 30
0.0
 11
53.35157
 21
-39.763301
 31
0.0
  0
ARC
  8
0
 62
     1
 10
51.847327
 20
-41.081349
 30
0.0
 40
2.0
 50
321.608374
 51
41.225488
  0
ARC
  8
0
 62
     1
 10
0.0
 20
0.0
 30
0.0
 40
68.15
 50
308.391626
 51
321.608374
  0
ARC
  8
0
 62
     1
 10
41.081349
 20
-51.847327
 30
0.0
 40
2.0
 50
228.774512
 51
308.391626
  0
LINE
  8
0
 62
     1
 10
39.763301
 20
-53.35157
 30
0.0
 11
30.711204
 21
-45.419943
 31
0.0
  0
ARC
  8
0
 62
     1
 10
29.393156
 20
-46.924187
 30
0.0
 40
2.0
 50
48.774512
 51
122.062893
  0
ARC
  8
0
 62
     1
 10
53.96451
 20
12.396311
 30
0.0
 40
2.0
 50
192.937107
 51
266.225488
  0
LINE
  8
0
 62
     1
 10
53.83285
 20
10.400649
 30
0.0
 11
65.842157
 21
9.608358
 31
0.0
  0
ARC
  8
0
 62
     1
 10
65.710497
 20
7.612696
 30
0.0
 40
2.0
 50
6.608374
 51
86.225488
  0
ARC
  8
0
 62
     1
 10
0.0
 20
0.0
 30
0.0
 40
68.15
 50
353.391626
 51
6.608374
  0
ARC
  8
0
 62
     1
 10
65.710497
 20
-7.612696
 30
0.0
 40
2.0
 50
273.774512
 51
353.391626
  0
LINE
  8
0
 62
     1
 10
65.842157
 20
-9.608358
 30
0.0
 11
53.83285
 21
-10.400649
 31
0.0
  0
ARC
  8
0
 62
     1
 10
53.96451
 20
-12.396311
 30
0.0
 40
2.0
 50
93.774512
 51
167.062893
  0
ARC
  8
0
 62
     1
 10
29.393156
 20
46.924187
 30
0.0
 40
2.0
 50
237.937107
 51
311.225488
  0
LINE
  8
0
 62
     1
 10
30.711204
 20
45.419943
 30
0.0
 11
39.763301
 21
53.35157
 31
0.0
  0
ARC
  8
0
 62
     1
 10
41.081349
 20
51.847327
 30
0.0
 40
2.0
 50
51.608374
 51
131.225488
  0
ARC
  8
0
 62
     1
 10
0.0
 20
0.0
 30
0.0
 40
68.15
 50
38.391626
 51
51.608374
  0
ARC
  8
0
 62
     1
 10
51.847327
 20
41.081349
 30
0.0
 40
2.0
 50
318.774512
 51
38.391626
  0
LINE
  8
0
 62
     1
 10
53.35157
 20
39.763301
 30
0.0
 11
45.419943
 21
30.711204
 31
0.0
  0
ARC
  8
0
 62
     1
 10
46.924187
 20
29.393156
 30
0.0
 40
2.0
 50
138.774512
 51
212.062893
  0
ARC
  8
0
 62
     1
 10
0.0
 20
0.0
 30
0.0
 40
53.37
 50
57.937107
 51
77.062893
  0
ARC
  8
0
 62
     1
 10
0.0
 20
0.0
 30
0.0
 40
53.37
 50
12.937107
 51
32.062893
  0
ARC
  8
0
 62
     1
 10
0.0
 20
0.0
 30
0.0
 40
53.37
 50
327.937107
 51
347.062893
  0
ARC
  8
0
 62
     1
 10
0.0
 20
0.0
 30
0.0
 40
53.37
 50
282.937107
 51
302.062893
  0
ARC
  8
0
 62
     1
 10
0.0
 20
0.0
 30
0.0
 40
53.37
 50
237.937107
 51
257.062893
  0
ARC
  8
0
 62
     1
 10
0.0
 20
0.0
 30
0.0
 40
53.37
 50
192.937107
 51
212.062893
  0
ARC
  8
0
 62
     1
 10
0.0
 20
0.0
 30
0.0
 40
53.37
 50
147.937107
 51
167.062893
  0
ENDBLK
  8
0
  0
BLOCK
  8
0
  2
474D
 70
    64
 10
0.0
 20
0.0
 30
0.0
  0
LINE
  8
0
 62
     1
 10
15.5
 20
-65.842157
 30
0.0
 11
15.5
 21
65.842157
 31
0.0
  0
LINE
  8
0
 62
     1
 10
26.5
 20
-65.842157
 30
0.0
 11
26.5
 21
65.842157
 31
0.0
  0
LINE
  8
0
 62
     1
 10
42.0
 20
-39.5
 30
0.0
 11
42.0
 21
39.5
 31
0.0
  0
LINE
  8
0
 62
     1
 10
0.0
 20
-39.5
 30
0.0
 11
0.0
 21
39.5
 31
0.0
  0
LINE
  8
0
 62
     1
 10
17.5
 20
68.15
 30
0.0
 11
24.5
 21
68.15
 31
0.0
  0
LINE
  8
0
 62
     1
 10
15.5
 20
65.842157
 30
0.0
 11
26.5
 21
65.842157
 31
0.0
  0
LINE
  8
0
 62
     1
 10
15.5
 20
53.847327
 30
0.0
 11
26.5
 21
53.847327
 31
0.0
  0
LINE
  8
0
 62
     1
 10
15.5
 20
41.081349
 30
0.0
 11
26.5
 21
41.081349
 31
0.0
  0
LINE
  8
0
 62
     1
 10
15.5
 20
29.393156
 30
0.0
 11
26.5
 21
29.393156
 31
0.0
  0
LINE
  8
0
 62
     1
 10
15.5
 20
11.948548
 30
0.0
 11
26.5
 21
11.948548
 31
0.0
  0
LINE
  8
0
 62
     1
 10
15.5
 20
9.608358
 30
0.0
 11
26.5
 21
9.608358
 31
0.0
  0
LINE
  8
0
 62
     1
 10
15.5
 20
-9.608358
 30
0.0
 11
26.5
 21
-9.608358
 31
0.0
  0
LINE
  8
0
 62
     1
 10
15.5
 20
-11.948548
 30
0.0
 11
26.5
 21
-11.948548
 31
0.0
  0
LINE
  8
0
 62
     1
 10
15.5
 20
-29.393156
 30
0.0
 11
26.5
 21
-29.393156
 31
0.0
  0
LINE
  8
0
 62
     1
 10
15.5
 20
-41.081349
 30
0.0
 11
26.5
 21
-41.081349
 31
0.0
  0
LINE
  8
0
 62
     1
 10
15.5
 20
-53.847327
 30
0.0
 11
26.5
 21
-53.847327
 31
0.0
  0
LINE
  8
0
 62
     1
 10
15.5
 20
-65.842157
 30
0.0
 11
26.5
 21
-65.842157
 31
0.0
  0
LINE
  8
0
 62
     1
 10
17.5
 20
-68.15
 30
0.0
 11
24.5
 21
-68.15
 31
0.0
  0
LINE
  8
0
 62
     1
 10
-0.0
 20
39.5
 30
0.0
 11
15.5
 21
39.5
 31
0.0
  0
LINE
  8
0
 62
     1
 10
0.0
 20
-39.5
 30
0.0
 11
15.5
 21
-39.5
 31
0.0
  0
LINE
  8
0
 62
     1
 10
17.5
 20
-68.15
 30
0.0
 11
17.5
 21
-65.842157
 31
0.0
  0
LINE
  8
0
 62
     1
 10
24.5
 20
-68.15
 30
0.0
 11
24.5
 21
-65.842157
 31
0.0
  0
LINE
  8
0
 62
     1
 10
15.5
 20
65.842157
 30
0.0
 11
17.5
 21
68.15
 31
0.0
  0
LINE
  8
0
 62
     1
 10
24.5
 20
68.15
 30
0.0
 11
26.5
 21
65.842157
 31
0.0
  0
LINE
  8
0
 62
     1
 10
24.5
 20
65.842157
 30
0.0
 11
24.5
 21
68.15
 31
0.0
  0
LINE
  8
0
 62
     1
 10
17.5
 20
65.842157
 30
0.0
 11
17.5
 21
68.15
 31
0.0
  0
LINE
  8
0
 62
     1
 10
26.5
 20
-39.5
 30
0.0
 11
42.0
 21
-39.5
 31
0.0
  0
LINE
  8
0
 62
     1
 10
26.5
 20
39.5
 30
0.0
 11
42.0
 21
39.5
 31
0.0
  0
LINE
  8
0
 62
     1
 10
24.5
 20
41.081349
 30
0.0
 11
24.5
 21
53.847327
 31
0.0
  0
LINE
  8
0
 62
     1
 10
17.5
 20
41.081349
 30
0.0
 11
17.5
 21
53.847327
 31
0.0
  0
LINE
  8
0
 62
     1
 10
24.5
 20
-53.847327
 30
0.0
 11
24.5
 21
-41.081349
 31
0.0
  0
LINE
  8
0
 62
     1
 10
17.5
 20
-53.847327
 30
0.0
 11
17.5
 21
-41.081349
 31
0.0
  0
LINE
  8
0
 62
     1
 10
17.5
 20
-9.608358
 30
0.0
 11
17.5
 21
9.608358
 31
0.0
  0
LINE
  8
0
 62
     1
 10
24.5
 20
-9.608358
 30
0.0
 11
24.5
 21
9.608358
 31
0.0
  0
LINE
  8
0
 62
     1
 10
24.5
 20
-68.15
 30
0.0
 11
26.5
 21
-65.842157
 31
0.0
  0
LINE
  8
0
 62
     1
 10
15.5
 20
-65.842157
 30
0.0
 11
17.5
 21
-68.15
 31
0.0
  0
ENDBLK
  8
0
  0
BLOCK
  8
0
 62
     1
  2
474B
 70
    64
 10
0.0
 20
0.0
 30
0.0
  0
LINE
  8
0
 62
     1
 10
24.45
 20
-60.4417
 30
0.0
 11
24.45
 21
-72.351663
 31
0.0
  0
LINE
  8
0
 62
     1
 10
17.45
 20
-60.4417
 30
0.0
 11
17.45
 21
-72.351663
 31
0.0
  0
LINE
  8
0
 62
     1
 10
24.45
 20
-15.725914
 30
0.0
 11
24.45
 21
-34.996638
 31
0.0
  0
LINE
  8
0
 62
     1
 10
17.45
 20
-15.725914
 30
0.0
 11
17.45
 21
-34.996638
 31
0.0
  0
LINE
  8
0
 62
     1
 10
24.45
 20
34.996638
 30
0.0
 11
24.45
 21
15.725914
 31
0.0
  0
LINE
  8
0
 62
     1
 10
17.45
 20
34.996638
 30
0.0
 11
17.45
 21
15.725914
 31
0.0
  0
LINE
  8
0
 62
     1
 10
24.45
 20
72.351663
 30
0.0
 11
24.45
 21
60.4417
 31
0.0
  0
LINE
  8
0
 62
     1
 10
17.45
 20
72.351663
 30
0.0
 11
17.45
 21
60.4417
 31
0.0
  0
LINE
  8
0
 62
     1
 10
15.45
 20
-74.774485
 30
0.0
 11
26.45
 21
-74.774485
 31
0.0
  0
LINE
  8
0
 62
     1
 10
15.45
 20
-72.351663
 30
0.0
 11
26.45
 21
-72.351663
 31
0.0
  0
LINE
  8
0
 62
     1
 10
15.45
 20
-60.4417
 30
0.0
 11
26.45
 21
-60.4417
 31
0.0
  0
LINE
  8
0
 62
     1
 10
15.45
 20
-53.399027
 30
0.0
 11
26.45
 21
-53.399027
 31
0.0
  0
LINE
  8
0
 62
     1
 10
15.45
 20
-35.258406
 30
0.0
 11
26.45
 21
-35.258406
 31
0.0
  0
LINE
  8
0
 62
     1
 10
15.45
 20
-34.996638
 30
0.0
 11
26.45
 21
-34.996638
 31
0.0
  0
LINE
  8
0
 62
     1
 10
15.45
 20
-15.725914
 30
0.0
 11
26.45
 21
-15.725914
 31
0.0
  0
LINE
  8
0
 62
     1
 10
15.45
 20
-11.626956
 30
0.0
 11
26.45
 21
-11.626956
 31
0.0
  0
LINE
  8
0
 62
     1
 10
15.45
 20
11.626956
 30
0.0
 11
26.45
 21
11.626956
 31
0.0
  0
LINE
  8
0
 62
     1
 10
15.45
 20
15.725914
 30
0.0
 11
26.45
 21
15.725914
 31
0.0
  0
LINE
  8
0
 62
     1
 10
15.45
 20
34.996638
 30
0.0
 11
26.45
 21
34.996638
 31
0.0
  0
LINE
  8
0
 62
     1
 10
15.45
 20
53.399027
 30
0.0
 11
26.45
 21
53.399027
 31
0.0
  0
LINE
  8
0
 62
     1
 10
15.45
 20
60.4417
 30
0.0
 11
26.45
 21
60.4417
 31
0.0
  0
LINE
  8
0
 62
     1
 10
15.45
 20
72.351663
 30
0.0
 11
26.45
 21
72.351663
 31
0.0
  0
LINE
  8
0
 62
     1
 10
15.45
 20
74.774485
 30
0.0
 11
26.45
 21
74.774485
 31
0.0
  0
LINE
  8
0
 62
     1
 10
26.45
 20
82.55
 30
0.0
 11
26.45
 21
-82.55
 31
0.0
  0
LINE
  8
0
 62
     1
 10
15.45
 20
82.55
 30
0.0
 11
15.45
 21
-82.55
 31
0.0
  0
LINE
  8
0
 62
     1
 10
15.45
 20
-82.55
 30
0.0
 11
26.45
 21
-82.55
 31
0.0
  0
LINE
  8
0
 62
     1
 10
15.45
 20
82.55
 30
0.0
 11
26.45
 21
82.55
 31
0.0
  0
LINE
  8
0
 62
     1
 10
41.9
 20
45.0
 30
0.0
 11
41.9
 21
-45.0
 31
0.0
  0
LINE
  8
0
 62
     1
 10
0.0
 20
45.0
 30
0.0
 11
0.0
 21
-45.0
 31
0.0
  0
LINE
  8
0
 62
     1
 10
41.9
 20
45.0
 30
0.0
 11
26.45
 21
45.0
 31
0.0
  0
LINE
  8
0
 62
     1
 10
41.9
 20
-45.0
 30
0.0
 11
26.45
 21
-45.0
 31
0.0
  0
LINE
  8
0
 62
     1
 10
15.45
 20
-45.0
 30
0.0
 11
0.0
 21
-45.0
 31
0.0
  0
LINE
  8
0
 62
     1
 10
15.45
 20
45.0
 30
0.0
 11
0.0
 21
45.0
 31
0.0
  0
ENDBLK
  8
0
 62
     1
  0
ENDSEC
  0
SECTION
  2
ENTITIES
  0
INSERT
  8
0
  2
474C
 10
0.0
 20
0.0
 30
0.0
  0
INSERT
  8
0
  2
474D
 10
100.0
 20
0.0
 30
0.0
  0
ENDSEC
  0
EOF
