999
DXF file: 642112.dxf
999
Pro/ENGINEER 2005310 by Parametric Technology Corporation
0
SECTION
2
HEADER
9
$EXTMAX
10
210.0000000000
20
297.0000000000
30
0.0000000000
9
$EXTMIN
10
0.0000000000
20
0.0000000000
30
0.0000000000
9
$LIMMIN
10
0.0000000000
20
0.0000000000
9
$LIMMAX
10
210.0000000000
20
297.0000000000
9
$VIEWCTR
10
105.0000000000
20
148.5000000000
9
$VIEWSIZE
40
297.0000000000
9
$CLAYER
8
0
9
$LTSCALE
40
19.3600000000
9
$CELTYPE
6
BYLAYER
9
$DIMSCALE
40
1
9
$DIMASZ
40
3.5000000000
9
$DIMEXO
40
2.2000000000
9
$DIMDLI
40
13.3760000000
9
$DIMEXE
40
6.3360000000
9
$DIMCEN
40
3.1680000000
9
$DIMLFAC
40
1.0000000000
9
$DIMBLK
1
_FILLED
9
$DIMTXT
40
3.5000000000
9
$PDMODE
70
3
9
$PDSIZE
40
0.3125000000
0
ENDSEC
0
SECTION
2
TABLES
0
TABLE
2
LTYPE
70
6
0
LTYPE
2
BYBLOCK
70
0
3

72
65
73
0
40
0.0
0
LTYPE
2
BYLAYER
70
0
3

72
65
73
0
40
0.0
0
LTYPE
2
CONTINUOUS
70
64
3
Solid line
72
65
73
0
40
0
0
LTYPE
2
CENTER
70
64
3
____ _ ____ _ ____ _ ____ _ ____ _ ____ _ ____
72
65
73
4
40
0.6
49
0.375
49
-0.075
49
0.075
49
-0.075
0
LTYPE
2
HIDDEN
70
64
3
- - - - - - - - - - - - - - - - - - - -
72
65
73
2
40
0.2
49
0.1
49
-0.1
0
LTYPE
2
PHANTOM
70
64
3
_____ _ _ _____ _ _ _____ _ _ _____
72
65
73
6
40
0.8
49
0.45
49
-0.05
49
0.1
49
-0.05
49
0.1
49
-0.05
0
LTYPE
2
DOT
70
64
3
. . . . . . . . . . . . . . . . . . . .
72
65
73
2
40
0.2
49
0.1
49
-0.1
0
LTYPE
2
DASHED
70
64
3
- - - - - - - - - - - - - - - - - - - -
72
65
73
2
40
0.2
49
0.1
49
-0.1
0
ENDTAB
0
TABLE
2
LAYER
70
36
0
LAYER
2
0
70
0
62
7
6
CONTINUOUS
0
LAYER
2
DEFAULT_1
70
0
62
7
6
CENTER
0
LAYER
2
DEFAULT_2
70
0
62
8
6
HIDDEN
0
LAYER
2
DEFAULT_3
70
0
62
7
6
PHANTOM
0
LAYER
2
_2D_DELETED_OBJS
70
0
62
7
6
CONTINUOUS
0
LAYER
2
ASSI
70
0
62
7
6
CONTINUOUS
0
LAYER
2
CURVE
70
0
62
7
6
CONTINUOUS
0
LAYER
2
CURVE_COSTRUZIONE
70
0
62
7
6
CONTINUOUS
0
LAYER
2
PIANI
70
0
62
7
6
CONTINUOUS
0
LAYER
2
PUNTI
70
0
62
7
6
CONTINUOUS
0
LAYER
2
SURF_FILETTI
70
0
62
7
6
CONTINUOUS
0
LAYER
2
XSEC_DATUMS
70
0
62
7
6
CONTINUOUS
0
ENDTAB
0
TABLE
2
STYLE
70
1
0
STYLE
2
STANDARD
70
0
40
0.0
41
0.7143000000
50
0.0
71
0
42
0.2
3
txt
4

0
ENDTAB
0
ENDSEC
0
SECTION
2
BLOCKS
0
ENDSEC
0
SECTION
2
ENTITIES
0
LINE
8
0
62
7
6
CONTINUOUS
10
180.1696973978
20
87.2490165872
11
35.4958628198
21
87.2490165872
0
LINE
8
0
62
7
6
CONTINUOUS
10
33.4986037502
20
89.1443446747
11
182.1669564673
21
89.1443446747
0
LINE
8
0
62
7
6
CONTINUOUS
10
186.9327801088
20
93.2490165872
11
28.7327801088
21
93.2490165872
0
LINE
8
0
62
7
6
CONTINUOUS
10
188.3327801088
20
94.6490165872
11
27.3327801088
21
94.6490165872
0
LINE
8
0
62
7
6
CONTINUOUS
10
188.3327801088
20
99.0223074470
11
27.3327801088
21
99.0223074470
0
LINE
8
0
62
7
6
CONTINUOUS
10
33.2834870106
20
93.2490165872
11
33.4986037502
21
89.1443446747
0
LINE
8
0
62
7
6
CONTINUOUS
10
27.3327801088
20
99.0223074470
11
27.3327801088
21
94.6490165872
0
LINE
8
0
62
7
6
CONTINUOUS
10
177.8845042467
20
115.3615688301
11
37.7810559709
21
115.3615688301
0
LINE
8
0
62
7
6
CONTINUOUS
10
91.8327801088
20
283.2490165872
11
94.1421811856
21
287.2490165872
0
LINE
8
0
62
7
6
CONTINUOUS
10
134.0366636039
20
125.0490128168
11
81.6288966136
21
125.0490128168
0
LINE
8
0
62
7
6
CONTINUOUS
10
132.0327801088
20
126.4490165872
11
83.6327801088
21
126.4490165872
0
LINE
8
0
62
7
6
CONTINUOUS
10
128.8327801088
20
127.4490165872
11
86.8327801088
21
127.4490165872
0
LINE
8
0
62
7
6
CONTINUOUS
10
120.5426566521
20
127.7813967285
11
95.1229035655
21
127.7813967285
0
LINE
8
0
62
7
6
CONTINUOUS
10
120.3327801088
20
128.6732812556
11
95.3327801088
21
128.6732812556
0
LINE
8
DEFAULT_1
62
2
6
CENTER
10
61.8327801088
20
98.8643372329
11
61.8327801088
21
87.6336959414
0
POLYLINE
8
0
62
7
6
CONTINUOUS
66
1
70
0
0
VERTEX
8
0
62
7
6
CONTINUOUS
10
112.0102011784
20
141.2490165872
0
VERTEX
8
0
62
7
6
CONTINUOUS
10
110.9695540292
20
141.1247504393
0
VERTEX
8
0
62
7
6
CONTINUOUS
10
109.9264058241
20
141.0360794486
0
VERTEX
8
0
62
7
6
CONTINUOUS
10
108.8801256416
20
140.9830817537
0
VERTEX
8
0
62
7
6
CONTINUOUS
10
107.8326062467
20
140.9655229386
0
VERTEX
8
0
62
7
6
CONTINUOUS
10
106.7851103813
20
140.9830926220
0
VERTEX
8
0
62
7
6
CONTINUOUS
10
105.7388971938
20
141.0360968379
0
VERTEX
8
0
62
7
6
CONTINUOUS
10
104.6958567542
20
141.1247634813
0
VERTEX
8
0
62
7
6
CONTINUOUS
10
103.6553590392
20
141.2490165872
0
SEQEND
0
LINE
8
0
62
7
6
CONTINUOUS
10
120.3327801088
20
138.7131182023
11
95.3327801088
21
138.7131182023
0
LINE
8
0
62
7
6
CONTINUOUS
10
120.6007293012
20
139.7131182023
11
95.0648309164
21
139.7131182023
0
LINE
8
0
62
7
6
CONTINUOUS
10
112.0102011784
20
141.2490165872
11
103.6553590392
21
141.2490165872
0
LINE
8
0
62
7
6
CONTINUOUS
10
94.0327801088
20
141.5006826370
11
103.2024456795
21
141.5006826370
0
LINE
8
0
62
7
6
CONTINUOUS
10
112.4631148699
20
141.5006826370
11
121.6327801088
21
141.5006826370
0
LINE
8
0
62
7
6
CONTINUOUS
10
123.8327801088
20
145.3111944137
11
117.1601591619
21
145.3111944137
0
LINE
8
0
62
7
6
CONTINUOUS
10
98.5054010557
20
145.3111944137
11
91.8327801088
21
145.3111944137
0
POLYLINE
8
0
62
7
6
CONTINUOUS
66
1
70
0
0
VERTEX
8
0
62
7
6
CONTINUOUS
10
103.6553590392
20
141.2490165872
0
VERTEX
8
0
62
7
6
CONTINUOUS
10
102.8368707605
20
141.7210003530
0
VERTEX
8
0
62
7
6
CONTINUOUS
10
102.0025317686
20
142.2758081640
0
VERTEX
8
0
62
7
6
CONTINUOUS
10
101.1524212895
20
142.9141953607
0
VERTEX
8
0
62
7
6
CONTINUOUS
10
100.2863016455
20
143.6338959218
0
VERTEX
8
0
62
7
6
CONTINUOUS
10
99.4039351589
20
144.4326438259
0
VERTEX
8
0
62
7
6
CONTINUOUS
10
98.5054010557
20
145.3111944137
0
SEQEND
0
LINE
8
0
62
7
6
CONTINUOUS
10
117.1601591619
20
153.2490165872
11
98.5054010557
21
153.2490165872
0
LINE
8
0
62
7
6
CONTINUOUS
10
91.8327801088
20
145.3111944137
11
95.0648309164
21
139.7131182023
0
POLYLINE
8
0
62
2
6
CONTINUOUS
66
1
70
0
0
VERTEX
8
0
62
2
6
CONTINUOUS
10
103.2024453477
20
153.2490165872
0
VERTEX
8
0
62
2
6
CONTINUOUS
10
105.0194780741
20
153.5435770113
0
VERTEX
8
0
62
2
6
CONTINUOUS
10
106.8891295565
20
153.6922475574
0
VERTEX
8
0
62
2
6
CONTINUOUS
10
108.7764306611
20
153.6922475574
0
VERTEX
8
0
62
2
6
CONTINUOUS
10
110.6460821435
20
153.5435770113
0
VERTEX
8
0
62
2
6
CONTINUOUS
10
112.4631148699
20
153.2490165872
0
SEQEND
0
POLYLINE
8
0
62
7
6
CONTINUOUS
66
1
70
0
0
VERTEX
8
0
62
7
6
CONTINUOUS
10
117.1601591619
20
153.2490165872
0
VERTEX
8
0
62
7
6
CONTINUOUS
10
115.9211472943
20
153.7118198893
0
VERTEX
8
0
62
7
6
CONTINUOUS
10
114.6437510176
20
154.1023042211
0
VERTEX
8
0
62
7
6
CONTINUOUS
10
113.3235097074
20
154.4201480219
0
VERTEX
8
0
62
7
6
CONTINUOUS
10
111.9738052371
20
154.6663159739
0
VERTEX
8
0
62
7
6
CONTINUOUS
10
110.6044908835
20
154.8415071304
0
VERTEX
8
0
62
7
6
CONTINUOUS
10
109.2216918113
20
154.9461968171
0
VERTEX
8
0
62
7
6
CONTINUOUS
10
107.8327800728
20
154.9811819242
0
VERTEX
8
0
62
7
6
CONTINUOUS
10
106.4438682823
20
154.9461968109
0
VERTEX
8
0
62
7
6
CONTINUOUS
10
105.0610689811
20
154.8415070830
0
VERTEX
8
0
62
7
6
CONTINUOUS
10
103.6917544411
20
154.6663158905
0
VERTEX
8
0
62
7
6
CONTINUOUS
10
102.3420501029
20
154.4201479451
0
VERTEX
8
0
62
7
6
CONTINUOUS
10
101.0218090016
20
154.1023041672
0
VERTEX
8
0
62
7
6
CONTINUOUS
10
99.7444128420
20
153.7118198593
0
VERTEX
8
0
62
7
6
CONTINUOUS
10
98.5054010557
20
153.2490165872
0
SEQEND
0
LINE
8
0
62
7
6
CONTINUOUS
10
83.6327801088
20
126.4490165872
11
83.6327801088
21
125.0490165872
0
LINE
8
0
62
7
6
CONTINUOUS
10
91.8327801088
20
283.2490165872
11
91.8327801088
21
145.3111944137
0
LINE
8
0
62
2
6
CONTINUOUS
10
94.0327801088
20
141.5006826370
11
94.0327801088
21
287.0595283638
0
LINE
8
0
62
7
6
CONTINUOUS
10
95.3327801088
20
138.7131182023
11
95.3327801088
21
128.6732812556
0
LINE
8
0
62
7
6
CONTINUOUS
10
98.5054010557
20
153.2490165872
11
98.5054010557
21
145.3111944137
0
LINE
8
0
62
2
6
CONTINUOUS
10
103.2024453477
20
141.5006826370
11
103.2024453477
21
153.2490165872
0
LINE
8
0
62
2
6
CONTINUOUS
10
112.4631148699
20
141.5006826370
11
112.4631148699
21
153.2490165872
0
LINE
8
0
62
7
6
CONTINUOUS
10
117.1601591619
20
145.3111944137
11
117.1601591619
21
153.2490165872
0
LINE
8
0
62
7
6
CONTINUOUS
10
120.3327801088
20
138.7131182023
11
120.3327801088
21
128.6732812556
0
LINE
8
0
62
2
6
CONTINUOUS
10
121.6327801088
20
141.5006826370
11
121.6327801088
21
287.0595283638
0
LINE
8
0
62
7
6
CONTINUOUS
10
123.8327801088
20
283.2490165872
11
123.8327801088
21
145.3111944137
0
LINE
8
0
62
7
6
CONTINUOUS
10
132.0327801088
20
126.4490165872
11
132.0327801088
21
125.0490165872
0
LINE
8
0
62
7
6
CONTINUOUS
10
123.8327801088
20
145.3111944137
11
120.6007293012
21
139.7131182023
0
POLYLINE
8
0
62
7
6
CONTINUOUS
66
1
70
0
0
VERTEX
8
0
62
7
6
CONTINUOUS
10
117.1601591619
20
145.3111944137
0
VERTEX
8
0
62
7
6
CONTINUOUS
10
116.2621833684
20
144.4331593034
0
VERTEX
8
0
62
7
6
CONTINUOUS
10
115.3802515662
20
143.6347594319
0
VERTEX
8
0
62
7
6
CONTINUOUS
10
114.5145364484
20
142.9152757832
0
VERTEX
8
0
62
7
6
CONTINUOUS
10
113.6645199354
20
142.2768654050
0
VERTEX
8
0
62
7
6
CONTINUOUS
10
112.8296839477
20
141.7216853449
0
SEQEND
0
LINE
8
0
62
7
6
CONTINUOUS
10
112.8296839477
20
141.7216853449
11
112.0102011784
21
141.2490165872
0
LINE
8
DEFAULT_1
62
2
6
CENTER
10
153.8327801088
20
98.8643372329
11
153.8327801088
21
87.6336959414
0
LINE
8
0
62
7
6
CONTINUOUS
10
123.8327801088
20
283.2490165872
11
121.5233790320
21
287.2490165872
0
LINE
8
0
62
7
6
CONTINUOUS
10
188.3327801088
20
99.0223074470
11
188.3327801088
21
94.6490165872
0
LINE
8
0
62
7
6
CONTINUOUS
10
182.3820732070
20
93.2490165872
11
182.1669564673
21
89.1443446747
0
LINE
8
0
62
7
6
CONTINUOUS
10
123.8327801088
20
283.2490165872
11
91.8327801088
21
283.2490165872
0
LINE
8
0
62
7
6
CONTINUOUS
10
121.6327801088
20
287.0595283638
11
94.0327801088
21
287.0595283638
0
LINE
8
0
62
7
6
CONTINUOUS
10
94.1421811856
20
287.2490165872
11
121.5233790320
21
287.2490165872
0
ARC
8
0
62
7
6
CONTINUOUS
10
122.3327801088
20
128.6732812556
40
2.0000000000
50
180.0000000000
51
206.4836402881
0
ARC
8
0
62
7
6
CONTINUOUS
10
93.3327801088
20
128.6732812556
40
2.0000000000
50
333.5163597108
51
360.0000000000
0
ARC
8
0
62
7
6
CONTINUOUS
10
122.3327801088
20
138.7131182023
40
2.0000000000
50
149.9999999961
51
180.0000000000
0
ARC
8
0
62
7
6
CONTINUOUS
10
93.3327801088
20
138.7131182023
40
2.0000000000
50
0.0000000000
51
30.0000000049
0
ARC
8
0
62
7
6
CONTINUOUS
10
107.8327801088
20
121.4490165872
40
14.2000000000
50
153.5163597171
51
154.9830668572
0
ARC
8
0
62
7
6
CONTINUOUS
10
107.8327801088
20
121.4490165872
40
14.2000000000
50
25.0169331428
51
26.4836402829
0
ARC
8
0
62
7
6
CONTINUOUS
10
28.7327801088
20
94.6490165872
40
1.4000000000
50
180.0000000000
51
270.0000000000
0
ARC
8
0
62
7
6
CONTINUOUS
10
186.9327801088
20
94.6490165872
40
1.4000000000
50
270.0000000000
51
360.0000000000
0
ARC
8
0
62
7
6
CONTINUOUS
10
45.3327801088
20
99.0223074470
40
18.0000000000
50
114.8055636868
51
180.0000000000
0
ARC
8
0
62
7
6
CONTINUOUS
10
170.3327801088
20
99.0223074470
40
18.0000000000
50
0.0000000000
51
65.1944363132
0
ARC
8
0
62
7
6
CONTINUOUS
10
81.8327801088
20
20.0492107621
40
105.0000000000
50
90.1112540107
51
114.8055636868
0
ARC
8
0
62
7
6
CONTINUOUS
10
133.8327801088
20
20.0492107621
40
105.0000000000
50
65.1944363132
51
89.8887459893
0
ARC
8
0
62
7
6
CONTINUOUS
10
180.1696973978
20
89.2490165872
40
2.0000000000
50
270.0000000000
51
357.0000000000
0
ARC
8
0
62
7
6
CONTINUOUS
10
35.4958628198
20
89.2490165872
40
2.0000000000
50
183.0000000000
51
270.0000000000
0
ARC
8
0
62
7
6
CONTINUOUS
10
128.8327801088
20
121.8290165872
40
5.6200000000
50
55.2919507275
51
90.0000000000
0
ARC
8
0
62
7
6
CONTINUOUS
10
86.8327801088
20
121.8290165872
40
5.6200000000
50
90.0000000000
51
124.7080492725
0
ENDSEC
0
EOF
