  0
SECTION
  2
HEADER
  9
$ACADVER
  1
AC1012
  9
$DWGCODEPAGE
  3
ansi_1252
  9
$INSBASE
 10
0.0
 20
0.0
 30
0.0
  9
$EXTMIN
 10
-24.999998
 20
-174.999998
 30
0.0
  9
$EXTMAX
 10
24.999998
 20
-45.0
 30
0.0
  9
$LIMMIN
 10
0.0
 20
0.0
  9
$LIMMAX
 10
12.0
 20
9.0
  9
$ORTHOMODE
 70
     0
  9
$REGENMODE
 70
     1
  9
$FILLMODE
 70
     1
  9
$QTEXTMODE
 70
     0
  9
$MIRRTEXT
 70
     1
  9
$DRAGMODE
 70
     2
  9
$LTSCALE
 40
1.0
  9
$OSMODE
 70
    37
  9
$ATTMODE
 70
     1
  9
$TEXTSIZE
 40
0.2
  9
$TRACEWID
 40
0.05
  9
$TEXTSTYLE
  7
STANDARD
  9
$CLAYER
  8
0
  9
$CELTYPE
  6
BYLAYER
  9
$CECOLOR
 62
   256
  9
$CELTSCALE
 40
1.0
  9
$DELOBJ
 70
     1
  9
$DISPSILH
 70
     0
  9
$DIMSCALE
 40
1.0
  9
$DIMASZ
 40
0.18
  9
$DIMEXO
 40
0.0625
  9
$DIMDLI
 40
0.38
  9
$DIMRND
 40
0.0
  9
$DIMDLE
 40
0.0
  9
$DIMEXE
 40
0.18
  9
$DIMTP
 40
0.0
  9
$DIMTM
 40
0.0
  9
$DIMTXT
 40
0.18
  9
$DIMCEN
 40
0.09
  9
$DIMTSZ
 40
0.0
  9
$DIMTOL
 70
     0
  9
$DIMLIM
 70
     0
  9
$DIMTIH
 70
     1
  9
$DIMTOH
 70
     1
  9
$DIMSE1
 70
     0
  9
$DIMSE2
 70
     0
  9
$DIMTAD
 70
     0
  9
$DIMZIN
 70
     0
  9
$DIMBLK
  1

  9
$DIMASO
 70
     1
  9
$DIMSHO
 70
     1
  9
$DIMPOST
  1

  9
$DIMAPOST
  1

  9
$DIMALT
 70
     0
  9
$DIMALTD
 70
     2
  9
$DIMALTF
 40
25.4
  9
$DIMLFAC
 40
1.0
  9
$DIMTOFL
 70
     0
  9
$DIMTVP
 40
0.0
  9
$DIMTIX
 70
     0
  9
$DIMSOXD
 70
     0
  9
$DIMSAH
 70
     0
  9
$DIMBLK1
  1

  9
$DIMBLK2
  1

  9
$DIMSTYLE
  2
STANDARD
  9
$DIMCLRD
 70
     0
  9
$DIMCLRE
 70
     0
  9
$DIMCLRT
 70
     0
  9
$DIMTFAC
 40
1.0
  9
$DIMGAP
 40
0.09
  9
$DIMJUST
 70
     0
  9
$DIMSD1
 70
     0
  9
$DIMSD2
 70
     0
  9
$DIMTOLJ
 70
     1
  9
$DIMTZIN
 70
     0
  9
$DIMALTZ
 70
     0
  9
$DIMALTTZ
 70
     0
  9
$DIMFIT
 70
     3
  9
$DIMUPT
 70
     0
  9
$DIMUNIT
 70
     2
  9
$DIMDEC
 70
     4
  9
$DIMTDEC
 70
     4
  9
$DIMALTU
 70
     2
  9
$DIMALTTD
 70
     2
  9
$DIMTXSTY
  7
STANDARD
  9
$DIMAUNIT
 70
     0
  9
$LUNITS
 70
     2
  9
$LUPREC
 70
     4
  9
$SKETCHINC
 40
0.1
  9
$FILLETRAD
 40
0.5
  9
$AUNITS
 70
     0
  9
$AUPREC
 70
     0
  9
$MENU
  1
.
  9
$ELEVATION
 40
0.0
  9
$PELEVATION
 40
0.0
  9
$THICKNESS
 40
0.0
  9
$LIMCHECK
 70
     0
  9
$CHAMFERA
 40
0.5
  9
$CHAMFERB
 40
0.5
  9
$CHAMFERC
 40
1.0
  9
$CHAMFERD
 40
0.0
  9
$SKPOLY
 70
     1
  9
$TDCREATE
 40
2447893.083333334
  9
$TDUPDATE
 40
2447893.083333334
  9
$TDINDWG
 40
0.0
  9
$TDUSRTIMER
 40
0.0
  9
$USRTIMER
 70
     1
  9
$ANGBASE
 50
0.0
  9
$ANGDIR
 70
     0
  9
$PDMODE
 70
     0
  9
$PDSIZE
 40
0.0
  9
$PLINEWID
 40
0.0
  9
$COORDS
 70
     1
  9
$SPLFRAME
 70
     0
  9
$SPLINETYPE
 70
     6
  9
$SPLINESEGS
 70
     8
  9
$ATTDIA
 70
     0
  9
$ATTREQ
 70
     1
  9
$HANDLING
 70
     1
  9
$HANDSEED
  5
D0
  9
$SURFTAB1
 70
     6
  9
$SURFTAB2
 70
     6
  9
$SURFTYPE
 70
     6
  9
$SURFU
 70
     6
  9
$SURFV
 70
     6
  9
$UCSNAME
  2

  9
$UCSORG
 10
0.0
 20
0.0
 30
0.0
  9
$UCSXDIR
 10
1.0
 20
0.0
 30
0.0
  9
$UCSYDIR
 10
0.0
 20
1.0
 30
0.0
  9
$PUCSNAME
  2

  9
$PUCSORG
 10
0.0
 20
0.0
 30
0.0
  9
$PUCSXDIR
 10
1.0
 20
0.0
 30
0.0
  9
$PUCSYDIR
 10
0.0
 20
1.0
 30
0.0
  9
$USERI1
 70
     0
  9
$USERI2
 70
     0
  9
$USERI3
 70
     0
  9
$USERI4
 70
     0
  9
$USERI5
 70
     0
  9
$USERR1
 40
0.0
  9
$USERR2
 40
0.0
  9
$USERR3
 40
0.0
  9
$USERR4
 40
0.0
  9
$USERR5
 40
0.0
  9
$WORLDVIEW
 70
     1
  9
$SHADEDGE
 70
     3
  9
$SHADEDIF
 70
    70
  9
$TILEMODE
 70
     1
  9
$MAXACTVP
 70
    48
  9
$PINSBASE
 10
0.0
 20
0.0
 30
0.0
  9
$PLIMCHECK
 70
     0
  9
$PEXTMIN
 10
1.000000000000000E+20
 20
1.000000000000000E+20
 30
1.000000000000000E+20
  9
$PEXTMAX
 10
-1.000000000000000E+20
 20
-1.000000000000000E+20
 30
-1.000000000000000E+20
  9
$PLIMMIN
 10
0.0
 20
0.0
  9
$PLIMMAX
 10
12.0
 20
9.0
  9
$UNITMODE
 70
     0
  9
$VISRETAIN
 70
     1
  9
$PLINEGEN
 70
     0
  9
$PSLTSCALE
 70
     1
  9
$TREEDEPTH
 70
  3020
  9
$PICKSTYLE
 70
     1
  9
$CMLSTYLE
  2
STANDARD
  9
$CMLJUST
 70
     0
  9
$CMLSCALE
 40
1.0
  9
$SAVEIMAGES
 70
     1
  0
ENDSEC
  0
SECTION
  2
CLASSES
  0
CLASS
  1
XRECORD
  2
AcDbXrecord
  3
AutoCAD 2000
 90
    32768
280
     0
281
     0
  0
CLASS
  1
LWPOLYLINE
  2
AcDbPolyline
  3
AutoCAD 2000
 90
    32768
280
     0
281
     1
  0
CLASS
  1
HATCH
  2
AcDbHatch
  3
AutoCAD 2000
 90
    32768
280
     0
281
     1
  0
CLASS
  1
ACDBPLACEHOLDER
  2
AcDbPlaceHolder
  3
ObjectDBX Classes
 90
        0
280
     0
281
     0
  0
CLASS
  1
LAYOUT
  2
AcDbLayout
  3
ObjectDBX Classes
 90
        0
280
     0
281
     0
  0
ENDSEC
  0
SECTION
  2
TABLES
  0
TABLE
  2
VPORT
  5
8
330
0
100
AcDbSymbolTable
 70
     1
  0
VPORT
  5
A3
102
{ACAD_XDICTIONARY
360
CE
102
}
330
8
100
AcDbSymbolTableRecord
100
AcDbViewportTableRecord
  2
*ACTIVE
 70
     0
 10
0.0
 20
0.0
 11
1.0
 21
1.0
 12
0.0
 22
-82.999999
 13
0.0
 23
0.0
 14
0.5
 24
0.5
 15
0.5
 25
0.5
 16
0.0
 26
0.0
 36
1.0
 17
0.0
 27
0.0
 37
0.0
 40
186.152044
 41
1.806641
 42
50.0
 43
0.0
 44
0.0
 50
0.0
 51
0.0
 71
     0
 72
   100
 73
     1
 74
     1
 75
     0
 76
     0
 77
     0
 78
     0
  0
ENDTAB
  0
TABLE
  2
LTYPE
  5
5
330
0
100
AcDbSymbolTable
 70
     1
  0
LTYPE
  5
13
330
5
100
AcDbSymbolTableRecord
100
AcDbLinetypeTableRecord
  2
BYBLOCK
 70
     0
  3

 72
    65
 73
     0
 40
0.0
  0
LTYPE
  5
14
330
5
100
AcDbSymbolTableRecord
100
AcDbLinetypeTableRecord
  2
BYLAYER
 70
     0
  3

 72
    65
 73
     0
 40
0.0
  0
LTYPE
  5
15
330
5
100
AcDbSymbolTableRecord
100
AcDbLinetypeTableRecord
  2
CONTINUOUS
 70
     0
  3
Solid line
 72
    65
 73
     0
 40
0.0
  0
ENDTAB
  0
TABLE
  2
LAYER
  5
2
330
0
100
AcDbSymbolTable
 70
     4
  0
LAYER
  5
F
330
2
100
AcDbSymbolTableRecord
100
AcDbLayerTableRecord
  2
0
 70
     0
 62
     7
  6
CONTINUOUS
  0
LAYER
  5
95
330
2
100
AcDbSymbolTableRecord
100
AcDbLayerTableRecord
  2
TEXT
 70
     0
 62
     5
  6
CONTINUOUS
  0
LAYER
  5
96
330
2
100
AcDbSymbolTableRecord
100
AcDbLayerTableRecord
  2
MARBETT-FEET
 70
     0
 62
     4
  6
CONTINUOUS
  0
LAYER
  5
97
330
2
100
AcDbSymbolTableRecord
100
AcDbLayerTableRecord
  2
LEVEL
 70
     0
 62
     3
  6
CONTINUOUS
  0
ENDTAB
  0
TABLE
  2
STYLE
  5
3
330
0
100
AcDbSymbolTable
 70
     2
  0
STYLE
  5
10
330
3
100
AcDbSymbolTableRecord
100
AcDbTextStyleTableRecord
  2
STANDARD
 70
     0
 40
0.0
 41
1.0
 50
0.0
 71
     0
 42
0.2
  3
txt
  4

  0
STYLE
  5
98
330
3
100
AcDbSymbolTableRecord
100
AcDbTextStyleTableRecord
  2
DISTINTA
 70
     0
 40
45.0
 41
1.0
 50
0.0
 71
     0
 42
45.0
  3
romand.shx
  4

  0
ENDTAB
  0
TABLE
  2
VIEW
  5
6
330
0
100
AcDbSymbolTable
 70
     0
  0
ENDTAB
  0
TABLE
  2
UCS
  5
7
330
0
100
AcDbSymbolTable
 70
     0
  0
ENDTAB
  0
TABLE
  2
APPID
  5
9
330
0
100
AcDbSymbolTable
 70
     1
  0
APPID
  5
11
330
9
100
AcDbSymbolTableRecord
100
AcDbRegAppTableRecord
  2
ACAD
 70
     0
  0
ENDTAB
  0
TABLE
  2
DIMSTYLE
  5
A
330
0
100
AcDbSymbolTable
 70
     1
  0
DIMSTYLE
105
1D
330
A
100
AcDbSymbolTableRecord
100
AcDbDimStyleTableRecord
  2
STANDARD
 70
     0
  3

  4

  5

  6

  7

 40
1.0
 41
0.18
 42
0.0625
 43
0.38
 44
0.18
 45
0.0
 46
0.0
 47
0.0
 48
0.0
140
0.18
141
0.09
142
0.0
143
25.4
144
1.0
145
0.0
146
1.0
147
0.09
 71
     0
 72
     0
 73
     1
 74
     1
 75
     0
 76
     0
 77
     0
 78
     0
170
     0
171
     2
172
     0
173
     0
174
     0
175
     0
176
     0
177
     0
178
     0
270
     2
271
     4
272
     4
273
     2
274
     2
340
10
275
     0
280
     0
281
     0
282
     0
283
     1
284
     0
285
     0
286
     0
287
     3
288
     0
  0
ENDTAB
  0
TABLE
  2
BLOCK_RECORD
  5
1
330
0
100
AcDbSymbolTable
 70
     4
  0
BLOCK_RECORD
  5
19
330
1
100
AcDbSymbolTableRecord
100
AcDbBlockTableRecord
  2
*MODEL_SPACE
  0
BLOCK_RECORD
  5
16
330
1
100
AcDbSymbolTableRecord
100
AcDbBlockTableRecord
  2
*PAPER_SPACE
  0
BLOCK_RECORD
  5
4C
330
1
100
AcDbSymbolTableRecord
100
AcDbBlockTableRecord
  2
DISBLO
  0
BLOCK_RECORD
  5
50
330
1
100
AcDbSymbolTableRecord
100
AcDbBlockTableRecord
  2
68883A
  0
BLOCK_RECORD
  5
63
330
1
100
AcDbSymbolTableRecord
100
AcDbBlockTableRecord
  2
68883B
  0
BLOCK_RECORD
  5
99
330
1
100
AcDbSymbolTableRecord
100
AcDbBlockTableRecord
  2
617642
  0
ENDTAB
  0
ENDSEC
  0
SECTION
  2
BLOCKS
  0
BLOCK
  5
1A
330
19
100
AcDbEntity
  8
0
100
AcDbBlockBegin
  2
*MODEL_SPACE
 70
     0
 71
     0
 10
0.0
 20
0.0
 30
0.0
  3
*MODEL_SPACE
  1

  0
ENDBLK
  5
1B
330
19
100
AcDbEntity
  8
0
100
AcDbBlockEnd
  0
BLOCK
  5
17
330
16
100
AcDbEntity
 67
     1
  8
0
100
AcDbBlockBegin
  2
*PAPER_SPACE
 70
     0
 71
     0
 10
0.0
 20
0.0
 30
0.0
  3
*PAPER_SPACE
  1

  0
ENDBLK
  5
18
330
16
100
AcDbEntity
 67
     1
  8
0
100
AcDbBlockEnd
  0
BLOCK
  5
4E
330
4C
100
AcDbEntity
  8
0
100
AcDbBlockBegin
  2
DISBLO
 70
     2
 71
     0
 10
0.0
 20
0.0
 30
0.0
  3
DISBLO
  1

  0
ATTDEF
  5
4D
330
4C
100
AcDbEntity
  8
TEXT
100
AcDbText
 10
-9.3499
 20
-2.578919
 30
0.0
 40
5.0
  1
AAAA
  7
DISTINTA
 72
     1
 11
0.173909
 21
-2.578919
 31
0.0
100
AcDbAttributeDefinition
  3

  2
TESTO
 70
     0
  0
ENDBLK
  5
4F
330
4C
100
AcDbEntity
  8
0
100
AcDbBlockEnd
  0
BLOCK
  5
61
330
50
100
AcDbEntity
  8
0
100
AcDbBlockBegin
  2
68883A
 70
     0
 71
     0
 10
0.0
 20
0.0
 30
0.0
  3
68883A
  1

  0
LINE
  5
51
330
50
100
AcDbEntity
  8
LEVEL
100
AcDbLine
 10
10.0
 20
-15.730356
 30
0.0
 11
55.0
 21
-15.730356
 31
0.0
  0
LINE
  5
52
330
50
100
AcDbEntity
  8
LEVEL
100
AcDbLine
 10
10.0
 20
-13.390476
 30
0.0
 11
55.0
 21
-13.390476
 31
0.0
  0
LINE
  5
53
330
50
100
AcDbEntity
  8
LEVEL
100
AcDbLine
 10
10.0
 20
-11.503038
 30
0.0
 11
55.0
 21
-11.503038
 31
0.0
  0
LINE
  5
54
330
50
100
AcDbEntity
  8
LEVEL
100
AcDbLine
 10
10.0
 20
-3.309091
 30
0.0
 11
55.0
 21
-3.309091
 31
0.0
  0
LINE
  5
55
330
50
100
AcDbEntity
  8
LEVEL
100
AcDbLine
 10
10.0
 20
3.309091
 30
0.0
 11
55.0
 21
3.309091
 31
0.0
  0
LINE
  5
56
330
50
100
AcDbEntity
  8
LEVEL
100
AcDbLine
 10
10.0
 20
11.503038
 30
0.0
 11
55.0
 21
11.503038
 31
0.0
  0
LINE
  5
57
330
50
100
AcDbEntity
  8
LEVEL
100
AcDbLine
 10
10.0
 20
13.390476
 30
0.0
 11
55.0
 21
13.390476
 31
0.0
  0
LINE
  5
58
330
50
100
AcDbEntity
  8
LEVEL
100
AcDbLine
 10
10.0
 20
15.730356
 30
0.0
 11
55.0
 21
15.730356
 31
0.0
  0
LINE
  5
59
330
50
100
AcDbEntity
  8
LEVEL
100
AcDbLine
 10
10.0
 20
24.999998
 30
0.0
 11
10.0
 21
-24.999998
 31
0.0
  0
LINE
  5
5A
330
50
100
AcDbEntity
  8
LEVEL
100
AcDbLine
 10
0.0
 20
24.999998
 30
0.0
 11
0.0
 21
-24.999998
 31
0.0
  0
LINE
  5
5B
330
50
100
AcDbEntity
  8
LEVEL
100
AcDbLine
 10
10.0
 20
24.999998
 30
0.0
 11
10.0
 21
-24.999998
 31
0.0
  0
LINE
  5
5C
330
50
100
AcDbEntity
  8
LEVEL
100
AcDbLine
 10
55.0
 20
23.749997
 30
0.0
 11
55.0
 21
-23.749997
 31
0.0
  0
LINE
  5
5D
330
50
100
AcDbEntity
  8
LEVEL
100
AcDbLine
 10
0.0
 20
24.999998
 30
0.0
 11
10.0
 21
24.999998
 31
0.0
  0
LINE
  5
5E
330
50
100
AcDbEntity
  8
LEVEL
100
AcDbLine
 10
0.0
 20
-24.999998
 30
0.0
 11
10.0
 21
-24.999998
 31
0.0
  0
LINE
  5
5F
330
50
100
AcDbEntity
  8
LEVEL
100
AcDbLine
 10
10.0
 20
23.749997
 30
0.0
 11
55.0
 21
23.749997
 31
0.0
  0
LINE
  5
60
330
50
100
AcDbEntity
  8
LEVEL
100
AcDbLine
 10
10.0
 20
-23.749997
 30
0.0
 11
55.0
 21
-23.749997
 31
0.0
  0
ENDBLK
  5
62
330
50
100
AcDbEntity
  8
0
100
AcDbBlockEnd
  0
BLOCK
  5
93
330
63
100
AcDbEntity
  8
0
100
AcDbBlockBegin
  2
68883B
 70
     0
 71
     0
 10
0.0
 20
0.0
 30
0.0
  3
68883B
  1

  0
LINE
  5
64
330
63
100
AcDbEntity
  8
LEVEL
100
AcDbLine
 10
-24.999998
 20
24.999998
 30
0.0
 11
24.999998
 21
24.999998
 31
0.0
  0
LINE
  5
65
330
63
100
AcDbEntity
  8
LEVEL
100
AcDbLine
 10
24.999998
 20
24.999998
 30
0.0
 11
24.999998
 21
-24.999998
 31
0.0
  0
LINE
  5
66
330
63
100
AcDbEntity
  8
LEVEL
100
AcDbLine
 10
-24.999998
 20
24.999998
 30
0.0
 11
-24.999998
 21
-24.999998
 31
0.0
  0
LINE
  5
67
330
63
100
AcDbEntity
  8
LEVEL
100
AcDbLine
 10
-24.999998
 20
-24.999998
 30
0.0
 11
24.999998
 21
-24.999998
 31
0.0
  0
CIRCLE
  5
68
330
63
100
AcDbEntity
  8
LEVEL
100
AcDbCircle
 10
0.0
 20
0.0
 30
0.0
 40
19.854543
  0
LINE
  5
69
330
63
100
AcDbEntity
  8
LEVEL
100
AcDbLine
 10
-23.749997
 20
-3.309091
 30
0.0
 11
-19.576843
 21
-3.309091
 31
0.0
  0
LINE
  5
6A
330
63
100
AcDbEntity
  8
LEVEL
100
AcDbLine
 10
-23.749997
 20
3.309091
 30
0.0
 11
-19.576843
 21
3.309091
 31
0.0
  0
LINE
  5
6B
330
63
100
AcDbEntity
  8
LEVEL
100
AcDbLine
 10
3.309091
 20
23.749997
 30
0.0
 11
3.309091
 21
19.576843
 31
0.0
  0
LINE
  5
6C
330
63
100
AcDbEntity
  8
LEVEL
100
AcDbLine
 10
-3.309091
 20
23.749997
 30
0.0
 11
-3.309091
 21
19.576843
 31
0.0
  0
LINE
  5
6D
330
63
100
AcDbEntity
  8
LEVEL
100
AcDbLine
 10
19.576843
 20
-3.309091
 30
0.0
 11
23.749997
 21
-3.309091
 31
0.0
  0
LINE
  5
6E
330
63
100
AcDbEntity
  8
LEVEL
100
AcDbLine
 10
19.576843
 20
3.309091
 30
0.0
 11
23.749997
 21
3.309091
 31
0.0
  0
LINE
  5
6F
330
63
100
AcDbEntity
  8
LEVEL
100
AcDbLine
 10
-3.309091
 20
-19.576843
 30
0.0
 11
-3.309091
 21
-23.749997
 31
0.0
  0
LINE
  5
70
330
63
100
AcDbEntity
  8
LEVEL
100
AcDbLine
 10
3.309091
 20
-19.576843
 30
0.0
 11
3.309091
 21
-23.749997
 31
0.0
  0
LINE
  5
71
330
63
100
AcDbEntity
  8
LEVEL
100
AcDbLine
 10
-11.503038
 20
16.182799
 30
0.0
 11
-14.560416
 21
19.240177
 31
0.0
  0
LINE
  5
72
330
63
100
AcDbEntity
  8
LEVEL
100
AcDbLine
 10
-16.182799
 20
11.503038
 30
0.0
 11
-19.240177
 21
14.560416
 31
0.0
  0
LINE
  5
73
330
63
100
AcDbEntity
  8
LEVEL
100
AcDbLine
 10
-13.390476
 20
20.410117
 30
0.0
 11
-16.437463
 21
23.457104
 31
0.0
  0
LINE
  5
74
330
63
100
AcDbEntity
  8
LEVEL
100
AcDbLine
 10
-20.410117
 20
13.390476
 30
0.0
 11
-23.457104
 21
16.437463
 31
0.0
  0
LINE
  5
75
330
63
100
AcDbEntity
  8
LEVEL
100
AcDbLine
 10
-20.410117
 20
13.390476
 30
0.0
 11
-19.240177
 21
14.560416
 31
0.0
  0
LINE
  5
76
330
63
100
AcDbEntity
  8
LEVEL
100
AcDbLine
 10
-14.560416
 20
19.240177
 30
0.0
 11
-13.390476
 21
20.410117
 31
0.0
  0
LINE
  5
77
330
63
100
AcDbEntity
  8
LEVEL
100
AcDbLine
 10
14.560416
 20
19.240177
 30
0.0
 11
13.390476
 21
20.410117
 31
0.0
  0
LINE
  5
78
330
63
100
AcDbEntity
  8
LEVEL
100
AcDbLine
 10
20.410117
 20
13.390476
 30
0.0
 11
19.240177
 21
14.560416
 31
0.0
  0
LINE
  5
79
330
63
100
AcDbEntity
  8
LEVEL
100
AcDbLine
 10
20.410117
 20
13.390476
 30
0.0
 11
23.457104
 21
16.437463
 31
0.0
  0
LINE
  5
7A
330
63
100
AcDbEntity
  8
LEVEL
100
AcDbLine
 10
13.390476
 20
20.410117
 30
0.0
 11
16.437463
 21
23.457104
 31
0.0
  0
LINE
  5
7B
330
63
100
AcDbEntity
  8
LEVEL
100
AcDbLine
 10
16.182799
 20
11.503038
 30
0.0
 11
19.240177
 21
14.560416
 31
0.0
  0
LINE
  5
7C
330
63
100
AcDbEntity
  8
LEVEL
100
AcDbLine
 10
11.503038
 20
16.182799
 30
0.0
 11
14.560416
 21
19.240177
 31
0.0
  0
LINE
  5
7D
330
63
100
AcDbEntity
  8
LEVEL
100
AcDbLine
 10
11.503038
 20
-16.182799
 30
0.0
 11
14.560416
 21
-19.240177
 31
0.0
  0
LINE
  5
7E
330
63
100
AcDbEntity
  8
LEVEL
100
AcDbLine
 10
16.182799
 20
-11.503038
 30
0.0
 11
19.240177
 21
-14.560416
 31
0.0
  0
LINE
  5
7F
330
63
100
AcDbEntity
  8
LEVEL
100
AcDbLine
 10
13.390476
 20
-20.410117
 30
0.0
 11
16.437463
 21
-23.457104
 31
0.0
  0
LINE
  5
80
330
63
100
AcDbEntity
  8
LEVEL
100
AcDbLine
 10
20.410117
 20
-13.390476
 30
0.0
 11
23.457104
 21
-16.437463
 31
0.0
  0
LINE
  5
81
330
63
100
AcDbEntity
  8
LEVEL
100
AcDbLine
 10
20.410117
 20
-13.390476
 30
0.0
 11
19.240177
 21
-14.560416
 31
0.0
  0
LINE
  5
82
330
63
100
AcDbEntity
  8
LEVEL
100
AcDbLine
 10
14.560416
 20
-19.240177
 30
0.0
 11
13.390476
 21
-20.410117
 31
0.0
  0
LINE
  5
83
330
63
100
AcDbEntity
  8
LEVEL
100
AcDbLine
 10
-14.560416
 20
-19.240177
 30
0.0
 11
-13.390476
 21
-20.410117
 31
0.0
  0
LINE
  5
84
330
63
100
AcDbEntity
  8
LEVEL
100
AcDbLine
 10
-20.410117
 20
-13.390476
 30
0.0
 11
-19.240177
 21
-14.560416
 31
0.0
  0
LINE
  5
85
330
63
100
AcDbEntity
  8
LEVEL
100
AcDbLine
 10
-20.410117
 20
-13.390476
 30
0.0
 11
-23.457104
 21
-16.437463
 31
0.0
  0
LINE
  5
86
330
63
100
AcDbEntity
  8
LEVEL
100
AcDbLine
 10
-13.390476
 20
-20.410117
 30
0.0
 11
-16.437463
 21
-23.457104
 31
0.0
  0
LINE
  5
87
330
63
100
AcDbEntity
  8
LEVEL
100
AcDbLine
 10
-16.182799
 20
-11.503038
 30
0.0
 11
-19.240177
 21
-14.560416
 31
0.0
  0
LINE
  5
88
330
63
100
AcDbEntity
  8
LEVEL
100
AcDbLine
 10
-11.503038
 20
-16.182799
 30
0.0
 11
-14.560416
 21
-19.240177
 31
0.0
  0
CIRCLE
  5
89
330
63
100
AcDbEntity
  8
LEVEL
100
AcDbCircle
 10
0.0
 20
0.0
 30
0.0
 40
10.0
  0
ARC
  5
8A
330
63
100
AcDbEntity
  8
LEVEL
100
AcDbCircle
 10
0.0
 20
0.0
 30
0.0
 40
10.5
100
AcDbArc
 50
182.726311
 51
92.726311
  0
LINE
  5
8B
330
63
100
AcDbEntity
  8
LEVEL
100
AcDbLine
 10
-3.309091
 20
23.749997
 30
0.0
 11
3.309091
 21
23.749997
 31
0.0
  0
LINE
  5
8C
330
63
100
AcDbEntity
  8
LEVEL
100
AcDbLine
 10
23.749997
 20
3.309091
 30
0.0
 11
23.749997
 21
-3.309091
 31
0.0
  0
LINE
  5
8D
330
63
100
AcDbEntity
  8
LEVEL
100
AcDbLine
 10
23.457104
 20
16.437463
 30
0.0
 11
16.437463
 21
23.457104
 31
0.0
  0
LINE
  5
8E
330
63
100
AcDbEntity
  8
LEVEL
100
AcDbLine
 10
-23.457104
 20
16.437463
 30
0.0
 11
-16.437463
 21
23.457104
 31
0.0
  0
LINE
  5
8F
330
63
100
AcDbEntity
  8
LEVEL
100
AcDbLine
 10
-23.749997
 20
3.309091
 30
0.0
 11
-23.749997
 21
-3.309091
 31
0.0
  0
LINE
  5
90
330
63
100
AcDbEntity
  8
LEVEL
100
AcDbLine
 10
-23.457104
 20
-16.437463
 30
0.0
 11
-16.437463
 21
-23.457104
 31
0.0
  0
LINE
  5
91
330
63
100
AcDbEntity
  8
LEVEL
100
AcDbLine
 10
-3.309091
 20
-23.749997
 30
0.0
 11
3.309091
 21
-23.749997
 31
0.0
  0
LINE
  5
92
330
63
100
AcDbEntity
  8
LEVEL
100
AcDbLine
 10
23.457104
 20
-16.437463
 30
0.0
 11
16.437463
 21
-23.457104
 31
0.0
  0
ENDBLK
  5
94
330
63
100
AcDbEntity
  8
0
100
AcDbBlockEnd
  0
BLOCK
  5
9F
330
99
100
AcDbEntity
  8
0
100
AcDbBlockBegin
  2
617642
 70
     0
 71
     0
 10
0.0
 20
0.0
 30
0.0
  3
617642
  1

  0
INSERT
  5
9A
330
99
100
AcDbEntity
  8
0
100
AcDbBlockReference
 66
     1
  2
DISBLO
 10
0.0
 20
-100.0
 30
0.0
  0
ATTRIB
  5
9B
330
9A
100
AcDbEntity
  8
TEXT
100
AcDbText
 10
-21.611805
 20
-102.578919
 30
0.0
 40
5.0
  1
224/68883
  7
DISTINTA
 72
     1
 11
0.173909
 21
-102.578919
 31
0.0
100
AcDbAttribute
  2
TESTO
 70
     0
  0
SEQEND
  5
9C
330
9A
100
AcDbEntity
  8
0
  0
INSERT
  5
9D
330
99
100
AcDbEntity
  8
MARBETT-FEET
100
AcDbBlockReference
  2
68883A
 10
0.0
 20
-100.0
 30
0.0
 50
90.0
  0
INSERT
  5
9E
330
99
100
AcDbEntity
  8
MARBETT-FEET
100
AcDbBlockReference
  2
68883B
 10
0.0
 20
-150.0
 30
0.0
  0
ENDBLK
  5
A0
330
99
100
AcDbEntity
  8
0
100
AcDbBlockEnd
  0
ENDSEC
  0
SECTION
  2
ENTITIES
  0
INSERT
  5
A2
330
19
100
AcDbEntity
  8
0
100
AcDbBlockReference
  2
617642
 10
0.0
 20
0.0
 30
0.0
  0
ENDSEC
  0
SECTION
  2
OBJECTS
  0
DICTIONARY
  5
C
330
0
100
AcDbDictionary
  3
ACAD_GROUP
350
D
  3
ACAD_LAYOUT
350
A4
  3
ACAD_MLINESTYLE
350
E
1001
ACAD
1000
TREAT_AS_HARD
1070
     0
  0
DICTIONARY
  5
CE
330
A3
100
AcDbDictionary
  3
ACAD_XREC_ROUNDTRIP
360
CF
  0
DICTIONARY
  5
D
102
{ACAD_REACTORS
330
C
102
}
330
C
100
AcDbDictionary
1001
ACAD
1000
TREAT_AS_HARD
1070
     0
  0
DICTIONARY
  5
A4
102
{ACAD_REACTORS
330
C
102
}
330
C
100
AcDbDictionary
1001
ACAD
1000
TREAT_AS_HARD
1070
     0
  0
DICTIONARY
  5
E
102
{ACAD_REACTORS
330
C
102
}
330
C
100
AcDbDictionary
  3
STANDARD
350
1C
1001
ACAD
1000
TREAT_AS_HARD
1070
     0
  0
XRECORD
  5
CF
102
{ACAD_REACTORS
330
CE
102
}
330
CE
100
AcDbXrecord
102
UCS
 74
     0
 71
     1
 10
0.0
 20
0.0
 30
0.0
 10
1.0
 20
0.0
 30
0.0
 10
0.0
 20
1.0
 30
0.0
146
0.0
 79
     0
102
VIEW
281
     0
  0
MLINESTYLE
  5
1C
102
{ACAD_REACTORS
330
E
102
}
330
E
100
AcDbMlineStyle
  2
STANDARD
 70
     0
  3

 62
     0
 51
90.0
 52
90.0
 71
     2
 49
0.5
 62
   256
  6
BYLAYER
 49
-0.5
 62
   256
  6
BYLAYER
  0
ENDSEC
  0
EOF
