  0
SECTION
  2
HEADER
  9
$ACADVER
  1
AC1012
  9
$DWGCODEPAGE
  3
ansi_1252
  9
$INSBASE
 10
0.0
 20
0.0
 30
0.0
  9
$EXTMIN
 10
-30.0
 20
-129.979727
 30
0.0
  9
$EXTMAX
 10
65.0
 20
165.599982
 30
0.0
  9
$LIMMIN
 10
0.0
 20
0.0
  9
$LIMMAX
 10
12.0
 20
9.0
  9
$ORTHOMODE
 70
     0
  9
$REGENMODE
 70
     1
  9
$FILLMODE
 70
     1
  9
$QTEXTMODE
 70
     0
  9
$MIRRTEXT
 70
     1
  9
$DRAGMODE
 70
     2
  9
$LTSCALE
 40
1.0
  9
$OSMODE
 70
    37
  9
$ATTMODE
 70
     1
  9
$TEXTSIZE
 40
0.2
  9
$TRACEWID
 40
0.05
  9
$TEXTSTYLE
  7
STANDARD
  9
$CLAYER
  8
0
  9
$CELTYPE
  6
BYLAYER
  9
$CECOLOR
 62
   256
  9
$CELTSCALE
 40
1.0
  9
$DELOBJ
 70
     1
  9
$DISPSILH
 70
     0
  9
$DIMSCALE
 40
1.0
  9
$DIMASZ
 40
0.18
  9
$DIMEXO
 40
0.0625
  9
$DIMDLI
 40
0.38
  9
$DIMRND
 40
0.0
  9
$DIMDLE
 40
0.0
  9
$DIMEXE
 40
0.18
  9
$DIMTP
 40
0.0
  9
$DIMTM
 40
0.0
  9
$DIMTXT
 40
0.18
  9
$DIMCEN
 40
0.09
  9
$DIMTSZ
 40
0.0
  9
$DIMTOL
 70
     0
  9
$DIMLIM
 70
     0
  9
$DIMTIH
 70
     1
  9
$DIMTOH
 70
     1
  9
$DIMSE1
 70
     0
  9
$DIMSE2
 70
     0
  9
$DIMTAD
 70
     0
  9
$DIMZIN
 70
     0
  9
$DIMBLK
  1

  9
$DIMASO
 70
     1
  9
$DIMSHO
 70
     1
  9
$DIMPOST
  1

  9
$DIMAPOST
  1

  9
$DIMALT
 70
     0
  9
$DIMALTD
 70
     2
  9
$DIMALTF
 40
25.4
  9
$DIMLFAC
 40
1.0
  9
$DIMTOFL
 70
     0
  9
$DIMTVP
 40
0.0
  9
$DIMTIX
 70
     0
  9
$DIMSOXD
 70
     0
  9
$DIMSAH
 70
     0
  9
$DIMBLK1
  1

  9
$DIMBLK2
  1

  9
$DIMSTYLE
  2
STANDARD
  9
$DIMCLRD
 70
     0
  9
$DIMCLRE
 70
     0
  9
$DIMCLRT
 70
     0
  9
$DIMTFAC
 40
1.0
  9
$DIMGAP
 40
0.09
  9
$DIMJUST
 70
     0
  9
$DIMSD1
 70
     0
  9
$DIMSD2
 70
     0
  9
$DIMTOLJ
 70
     1
  9
$DIMTZIN
 70
     0
  9
$DIMALTZ
 70
     0
  9
$DIMALTTZ
 70
     0
  9
$DIMFIT
 70
     3
  9
$DIMUPT
 70
     0
  9
$DIMUNIT
 70
     2
  9
$DIMDEC
 70
     4
  9
$DIMTDEC
 70
     4
  9
$DIMALTU
 70
     2
  9
$DIMALTTD
 70
     2
  9
$DIMTXSTY
  7
STANDARD
  9
$DIMAUNIT
 70
     0
  9
$LUNITS
 70
     2
  9
$LUPREC
 70
     4
  9
$SKETCHINC
 40
0.1
  9
$FILLETRAD
 40
0.5
  9
$AUNITS
 70
     0
  9
$AUPREC
 70
     0
  9
$MENU
  1
.
  9
$ELEVATION
 40
0.0
  9
$PELEVATION
 40
0.0
  9
$THICKNESS
 40
0.0
  9
$LIMCHECK
 70
     0
  9
$CHAMFERA
 40
0.5
  9
$CHAMFERB
 40
0.5
  9
$CHAMFERC
 40
1.0
  9
$CHAMFERD
 40
0.0
  9
$SKPOLY
 70
     1
  9
$TDCREATE
 40
2447893.083333334
  9
$TDUPDATE
 40
2447893.083333334
  9
$TDINDWG
 40
0.0
  9
$TDUSRTIMER
 40
0.0
  9
$USRTIMER
 70
     1
  9
$ANGBASE
 50
0.0
  9
$ANGDIR
 70
     0
  9
$PDMODE
 70
     0
  9
$PDSIZE
 40
0.0
  9
$PLINEWID
 40
0.0
  9
$COORDS
 70
     1
  9
$SPLFRAME
 70
     0
  9
$SPLINETYPE
 70
     6
  9
$SPLINESEGS
 70
     8
  9
$ATTDIA
 70
     0
  9
$ATTREQ
 70
     1
  9
$HANDLING
 70
     1
  9
$HANDSEED
  5
12C
  9
$SURFTAB1
 70
     6
  9
$SURFTAB2
 70
     6
  9
$SURFTYPE
 70
     6
  9
$SURFU
 70
     6
  9
$SURFV
 70
     6
  9
$UCSNAME
  2

  9
$UCSORG
 10
0.0
 20
0.0
 30
0.0
  9
$UCSXDIR
 10
1.0
 20
0.0
 30
0.0
  9
$UCSYDIR
 10
0.0
 20
1.0
 30
0.0
  9
$PUCSNAME
  2

  9
$PUCSORG
 10
0.0
 20
0.0
 30
0.0
  9
$PUCSXDIR
 10
1.0
 20
0.0
 30
0.0
  9
$PUCSYDIR
 10
0.0
 20
1.0
 30
0.0
  9
$USERI1
 70
     0
  9
$USERI2
 70
     0
  9
$USERI3
 70
     0
  9
$USERI4
 70
     0
  9
$USERI5
 70
     0
  9
$USERR1
 40
0.0
  9
$USERR2
 40
0.0
  9
$USERR3
 40
0.0
  9
$USERR4
 40
0.0
  9
$USERR5
 40
0.0
  9
$WORLDVIEW
 70
     1
  9
$SHADEDGE
 70
     3
  9
$SHADEDIF
 70
    70
  9
$TILEMODE
 70
     1
  9
$MAXACTVP
 70
    48
  9
$PINSBASE
 10
0.0
 20
0.0
 30
0.0
  9
$PLIMCHECK
 70
     0
  9
$PEXTMIN
 10
1.000000000000000E+20
 20
1.000000000000000E+20
 30
1.000000000000000E+20
  9
$PEXTMAX
 10
-1.000000000000000E+20
 20
-1.000000000000000E+20
 30
-1.000000000000000E+20
  9
$PLIMMIN
 10
0.0
 20
0.0
  9
$PLIMMAX
 10
12.0
 20
9.0
  9
$UNITMODE
 70
     0
  9
$VISRETAIN
 70
     1
  9
$PLINEGEN
 70
     0
  9
$PSLTSCALE
 70
     1
  9
$TREEDEPTH
 70
  3020
  9
$PICKSTYLE
 70
     1
  9
$CMLSTYLE
  2
STANDARD
  9
$CMLJUST
 70
     0
  9
$CMLSCALE
 40
1.0
  9
$SAVEIMAGES
 70
     1
  0
ENDSEC
  0
SECTION
  2
CLASSES
  0
CLASS
  1
LWPOLYLINE
  2
AcDbPolyline
  3
AutoCAD 2000
 90
    32768
280
     0
281
     1
  0
CLASS
  1
XRECORD
  2
AcDbXrecord
  3
AutoCAD 2000
 90
    32768
280
     0
281
     0
  0
CLASS
  1
HATCH
  2
AcDbHatch
  3
AutoCAD 2000
 90
    32768
280
     0
281
     1
  0
CLASS
  1
ACDBPLACEHOLDER
  2
AcDbPlaceHolder
  3
ObjectDBX Classes
 90
        0
280
     0
281
     0
  0
CLASS
  1
LAYOUT
  2
AcDbLayout
  3
ObjectDBX Classes
 90
        0
280
     0
281
     0
  0
ENDSEC
  0
SECTION
  2
TABLES
  0
TABLE
  2
VPORT
  5
8
330
0
100
AcDbSymbolTable
 70
     1
  0
VPORT
  5
B3
102
{ACAD_XDICTIONARY
360
12A
102
}
330
8
100
AcDbSymbolTableRecord
100
AcDbViewportTableRecord
  2
*ACTIVE
 70
     0
 10
0.0
 20
0.0
 11
1.0
 21
1.0
 12
17.5
 22
17.810127
 13
0.0
 23
0.0
 14
0.5
 24
0.5
 15
0.5
 25
0.5
 16
0.0
 26
0.0
 36
1.0
 17
0.0
 27
0.0
 37
0.0
 40
299.036781
 41
1.806641
 42
50.0
 43
0.0
 44
0.0
 50
0.0
 51
0.0
 71
     0
 72
   100
 73
     1
 74
     1
 75
     0
 76
     0
 77
     0
 78
     0
  0
ENDTAB
  0
TABLE
  2
LTYPE
  5
5
330
0
100
AcDbSymbolTable
 70
     2
  0
LTYPE
  5
13
330
5
100
AcDbSymbolTableRecord
100
AcDbLinetypeTableRecord
  2
BYBLOCK
 70
     0
  3

 72
    65
 73
     0
 40
0.0
  0
LTYPE
  5
14
330
5
100
AcDbSymbolTableRecord
100
AcDbLinetypeTableRecord
  2
BYLAYER
 70
     0
  3

 72
    65
 73
     0
 40
0.0
  0
LTYPE
  5
15
330
5
100
AcDbSymbolTableRecord
100
AcDbLinetypeTableRecord
  2
CONTINUOUS
 70
     0
  3
Solid line
 72
    65
 73
     0
 40
0.0
  0
LTYPE
  5
A4
330
5
100
AcDbSymbolTableRecord
100
AcDbLinetypeTableRecord
  2
DASHDOT
 70
     0
  3
__ . __ . __ . __ . __ . __ . __ . __ . __ . __
 72
    65
 73
     4
 40
1.0
 49
0.5
 74
     0
 49
-0.25
 74
     0
 49
0.0
 74
     0
 49
-0.25
 74
     0
  0
ENDTAB
  0
TABLE
  2
LAYER
  5
2
330
0
100
AcDbSymbolTable
 70
     4
  0
LAYER
  5
F
330
2
100
AcDbSymbolTableRecord
100
AcDbLayerTableRecord
  2
0
 70
     0
 62
     7
  6
CONTINUOUS
  0
LAYER
  5
A5
330
2
100
AcDbSymbolTableRecord
100
AcDbLayerTableRecord
  2
TEXT
 70
     0
 62
     5
  6
CONTINUOUS
  0
LAYER
  5
A6
330
2
100
AcDbSymbolTableRecord
100
AcDbLayerTableRecord
  2
MARBETT-FEET
 70
     0
 62
     4
  6
CONTINUOUS
  0
LAYER
  5
A7
330
2
100
AcDbSymbolTableRecord
100
AcDbLayerTableRecord
  2
AXIS
 70
     0
 62
     1
  6
DASHDOT
  0
ENDTAB
  0
TABLE
  2
STYLE
  5
3
330
0
100
AcDbSymbolTable
 70
     2
  0
STYLE
  5
10
330
3
100
AcDbSymbolTableRecord
100
AcDbTextStyleTableRecord
  2
STANDARD
 70
     0
 40
0.0
 41
1.0
 50
0.0
 71
     0
 42
0.2
  3
txt
  4

  0
STYLE
  5
A8
330
3
100
AcDbSymbolTableRecord
100
AcDbTextStyleTableRecord
  2
DISTINTA
 70
     0
 40
45.0
 41
1.0
 50
0.0
 71
     0
 42
45.0
  3
romand.shx
  4

  0
ENDTAB
  0
TABLE
  2
VIEW
  5
6
330
0
100
AcDbSymbolTable
 70
     0
  0
ENDTAB
  0
TABLE
  2
UCS
  5
7
330
0
100
AcDbSymbolTable
 70
     0
  0
ENDTAB
  0
TABLE
  2
APPID
  5
9
330
0
100
AcDbSymbolTable
 70
     1
  0
APPID
  5
11
330
9
100
AcDbSymbolTableRecord
100
AcDbRegAppTableRecord
  2
ACAD
 70
     0
  0
ENDTAB
  0
TABLE
  2
DIMSTYLE
  5
A
330
0
100
AcDbSymbolTable
 70
     1
  0
DIMSTYLE
105
1D
330
A
100
AcDbSymbolTableRecord
100
AcDbDimStyleTableRecord
  2
STANDARD
 70
     0
  3

  4

  5

  6

  7

 40
1.0
 41
0.18
 42
0.0625
 43
0.38
 44
0.18
 45
0.0
 46
0.0
 47
0.0
 48
0.0
140
0.18
141
0.09
142
0.0
143
25.4
144
1.0
145
0.0
146
1.0
147
0.09
 71
     0
 72
     0
 73
     1
 74
     1
 75
     0
 76
     0
 77
     0
 78
     0
170
     0
171
     2
172
     0
173
     0
174
     0
175
     0
176
     0
177
     0
178
     0
270
     2
271
     4
272
     4
273
     2
274
     2
340
10
275
     0
280
     0
281
     0
282
     0
283
     1
284
     0
285
     0
286
     0
287
     3
288
     0
  0
ENDTAB
  0
TABLE
  2
BLOCK_RECORD
  5
1
330
0
100
AcDbSymbolTable
 70
     8
  0
BLOCK_RECORD
  5
19
330
1
100
AcDbSymbolTableRecord
100
AcDbBlockTableRecord
  2
*MODEL_SPACE
  0
BLOCK_RECORD
  5
16
330
1
100
AcDbSymbolTableRecord
100
AcDbBlockTableRecord
  2
*PAPER_SPACE
  0
BLOCK_RECORD
  5
4C
330
1
100
AcDbSymbolTableRecord
100
AcDbBlockTableRecord
  2
DISBLO
  0
BLOCK_RECORD
  5
50
330
1
100
AcDbSymbolTableRecord
100
AcDbBlockTableRecord
  2
1AA-M20-149
  0
BLOCK_RECORD
  5
5F
330
1
100
AcDbSymbolTableRecord
100
AcDbBlockTableRecord
  2
94A-14
  0
BLOCK_RECORD
  5
71
330
1
100
AcDbSymbolTableRecord
100
AcDbBlockTableRecord
  2
626252A
  0
BLOCK_RECORD
  5
90
330
1
100
AcDbSymbolTableRecord
100
AcDbBlockTableRecord
  2
1AB-M20
  0
BLOCK_RECORD
  5
97
330
1
100
AcDbSymbolTableRecord
100
AcDbBlockTableRecord
  2
94B
  0
BLOCK_RECORD
  5
9F
330
1
100
AcDbSymbolTableRecord
100
AcDbBlockTableRecord
  2
626252B
  0
BLOCK_RECORD
  5
A9
330
1
100
AcDbSymbolTableRecord
100
AcDbBlockTableRecord
  2
626252
  0
ENDTAB
  0
ENDSEC
  0
SECTION
  2
BLOCKS
  0
BLOCK
  5
1A
330
19
100
AcDbEntity
  8
0
100
AcDbBlockBegin
  2
*MODEL_SPACE
 70
     0
 71
     0
 10
0.0
 20
0.0
 30
0.0
  3
*MODEL_SPACE
  1

  0
ENDBLK
  5
1B
330
19
100
AcDbEntity
  8
0
100
AcDbBlockEnd
  0
BLOCK
  5
17
330
16
100
AcDbEntity
 67
     1
  8
0
100
AcDbBlockBegin
  2
*PAPER_SPACE
 70
     0
 71
     0
 10
0.0
 20
0.0
 30
0.0
  3
*PAPER_SPACE
  1

  0
ENDBLK
  5
18
330
16
100
AcDbEntity
 67
     1
  8
0
100
AcDbBlockEnd
  0
BLOCK
  5
4E
330
4C
100
AcDbEntity
  8
0
100
AcDbBlockBegin
  2
DISBLO
 70
     2
 71
     0
 10
0.0
 20
0.0
 30
0.0
  3
DISBLO
  1

  0
ATTDEF
  5
4D
330
4C
100
AcDbEntity
  8
TEXT
100
AcDbText
 10
-9.3499
 20
-2.578919
 30
0.0
 40
5.0
  1
AAAA
  7
DISTINTA
 72
     1
 11
0.173909
 21
-2.578919
 31
0.0
100
AcDbAttributeDefinition
  3

  2
TESTO
 70
     0
  0
ENDBLK
  5
4F
330
4C
100
AcDbEntity
  8
0
100
AcDbBlockEnd
  0
BLOCK
  5
5D
330
50
100
AcDbEntity
  8
0
100
AcDbBlockBegin
  2
1AA-M20-149
 70
     0
 71
     0
 10
0.0
 20
0.0
 30
0.0
  3
1AA-M20-149
  1

  0
LINE
  5
51
330
50
100
AcDbEntity
  8
0
100
AcDbLine
 10
-8.0
 20
165.599982
 30
0.0
 11
-8.0
 21
8.599982000000001
 31
0.0
  0
LINE
  5
52
330
50
100
AcDbEntity
  8
0
100
AcDbLine
 10
8.0
 20
165.599982
 30
0.0
 11
8.0
 21
8.599982000000001
 31
0.0
  0
LINE
  5
53
330
50
100
AcDbEntity
  8
0
100
AcDbLine
 10
10.0
 20
163.599982
 30
0.0
 11
-10.0
 21
163.599982
 31
0.0
  0
LINE
  5
54
330
50
100
AcDbEntity
  8
0
100
AcDbLine
 10
-10.0
 20
163.599982
 30
0.0
 11
-8.0
 21
165.599982
 31
0.0
  0
LINE
  5
55
330
50
100
AcDbEntity
  8
0
100
AcDbLine
 10
10.0
 20
163.599982
 30
0.0
 11
8.0
 21
165.599982
 31
0.0
  0
POLYLINE
  5
56
330
50
100
AcDbEntity
  8
0
100
AcDb2dPolyline
 66
     1
 10
0.0
 20
0.0
 30
0.0
  0
VERTEX
  5
105
330
56
100
AcDbEntity
  8
0
100
AcDbVertex
100
AcDb2dVertex
 10
-8.0
 20
165.599982
 30
0.0
  0
VERTEX
  5
106
330
56
100
AcDbEntity
  8
0
100
AcDbVertex
100
AcDb2dVertex
 10
8.0
 20
165.599982
 30
0.0
  0
SEQEND
  5
104
330
56
100
AcDbEntity
  8
0
  0
POLYLINE
  5
57
330
50
100
AcDbEntity
  8
0
100
AcDb2dPolyline
 66
     1
 10
0.0
 20
0.0
 30
0.0
  0
VERTEX
  5
108
330
57
100
AcDbEntity
  8
0
100
AcDbVertex
100
AcDb2dVertex
 10
-10.0
 20
8.599982000000001
 30
0.0
  0
VERTEX
  5
109
330
57
100
AcDbEntity
  8
0
100
AcDbVertex
100
AcDb2dVertex
 10
-10.0
 20
163.599982
 30
0.0
  0
SEQEND
  5
107
330
57
100
AcDbEntity
  8
0
  0
POLYLINE
  5
58
330
50
100
AcDbEntity
  8
0
100
AcDb2dPolyline
 66
     1
 10
0.0
 20
0.0
 30
0.0
  0
VERTEX
  5
10B
330
58
100
AcDbEntity
  8
0
100
AcDbVertex
100
AcDb2dVertex
 10
10.0
 20
163.599982
 30
0.0
  0
VERTEX
  5
10C
330
58
100
AcDbEntity
  8
0
100
AcDbVertex
100
AcDb2dVertex
 10
10.0
 20
8.599982000000001
 30
0.0
  0
SEQEND
  5
10A
330
58
100
AcDbEntity
  8
0
  0
LINE
  5
59
330
50
100
AcDbEntity
  8
0
100
AcDbLine
 10
-10.0
 20
8.599982000000001
 30
0.0
 11
10.0
 21
8.599982000000001
 31
0.0
  0
POLYLINE
  5
5A
330
50
100
AcDbEntity
  8
0
100
AcDb2dPolyline
 66
     1
 10
0.0
 20
0.0
 30
0.0
 70
     1
  0
VERTEX
  5
10E
330
5A
100
AcDbEntity
  8
0
100
AcDbVertex
100
AcDb2dVertex
 10
-6.0
 20
4.331282
 30
0.0
  0
VERTEX
  5
10F
330
5A
100
AcDbEntity
  8
0
100
AcDbVertex
100
AcDb2dVertex
 10
-6.0
 20
8.599982000000001
 30
0.0
  0
VERTEX
  5
110
330
5A
100
AcDbEntity
  8
0
100
AcDbVertex
100
AcDb2dVertex
 10
6.0
 20
8.599982000000001
 30
0.0
  0
VERTEX
  5
111
330
5A
100
AcDbEntity
  8
0
100
AcDbVertex
100
AcDb2dVertex
 10
6.0
 20
4.331282
 30
0.0
  0
SEQEND
  5
10D
330
5A
100
AcDbEntity
  8
0
  0
ARC
  5
5B
330
50
100
AcDbEntity
  8
0
100
AcDbCircle
 10
0.0
 20
0.0
 30
0.0
 40
7.4
100
AcDbArc
 50
144.175226
 51
35.824774
  0
POLYLINE
  5
5C
330
50
100
AcDbEntity
  8
0
100
AcDb2dPolyline
 66
     1
 10
0.0
 20
0.0
 30
0.0
 70
     1
  0
VERTEX
  5
113
330
5C
100
AcDbEntity
  8
0
100
AcDbVertex
100
AcDb2dVertex
 10
-7.0
 20
8.599982000000001
 30
0.0
  0
VERTEX
  5
114
330
5C
100
AcDbEntity
  8
0
100
AcDbVertex
100
AcDb2dVertex
 10
-7.0
 20
16.599982
 30
0.0
  0
VERTEX
  5
115
330
5C
100
AcDbEntity
  8
0
100
AcDbVertex
100
AcDb2dVertex
 10
7.0
 20
16.599982
 30
0.0
  0
VERTEX
  5
116
330
5C
100
AcDbEntity
  8
0
100
AcDbVertex
100
AcDb2dVertex
 10
7.0
 20
8.599982000000001
 30
0.0
  0
SEQEND
  5
112
330
5C
100
AcDbEntity
  8
0
  0
ENDBLK
  5
5E
330
50
100
AcDbEntity
  8
0
100
AcDbBlockEnd
  0
BLOCK
  5
6F
330
5F
100
AcDbEntity
  8
0
100
AcDbBlockBegin
  2
94A-14
 70
     0
 71
     0
 10
0.0
 20
0.0
 30
0.0
  3
94A-14
  1

  0
LINE
  5
60
330
5F
100
AcDbEntity
  8
0
100
AcDbLine
 10
-29.694138
 20
-9.0
 30
0.0
 11
64.938294
 21
-9.0
 31
0.0
  0
LINE
  5
61
330
5F
100
AcDbEntity
  8
0
100
AcDbLine
 10
-18.425616
 20
1.609852
 30
0.0
 11
-29.027174
 21
-8.108243
 31
0.0
  0
LINE
  5
62
330
5F
100
AcDbEntity
  8
0
100
AcDbLine
 10
18.471562
 20
1.336774
 30
0.0
 11
20.36972
 21
-1.332883
 31
0.0
  0
LINE
  5
63
330
5F
100
AcDbEntity
  8
0
100
AcDbLine
 10
17.199345
 20
2.145573
 30
0.0
 11
12.499987
 21
3.0
 31
0.0
  0
LINE
  5
64
330
5F
100
AcDbEntity
  8
0
100
AcDbLine
 10
65.0
 20
-18.0
 30
0.0
 11
-30.0
 21
-18.0
 31
0.0
  0
LINE
  5
65
330
5F
100
AcDbEntity
  8
0
100
AcDbLine
 10
-30.0
 20
-18.0
 30
0.0
 11
-30.0
 21
-10.319705
 31
0.0
  0
LINE
  5
66
330
5F
100
AcDbEntity
  8
0
100
AcDbLine
 10
-12.499987
 20
3.0
 30
0.0
 11
-17.431936
 21
2.103284
 31
0.0
  0
LINE
  5
67
330
5F
100
AcDbEntity
  8
0
100
AcDbLine
 10
12.499987
 20
3.0
 30
0.0
 11
-12.499987
 21
3.0
 31
0.0
  0
LINE
  5
68
330
5F
100
AcDbEntity
  8
0
100
AcDbLine
 10
65.0
 20
-10.0
 30
0.0
 11
65.0
 21
-18.0
 31
0.0
  0
LINE
  5
69
330
5F
100
AcDbEntity
  8
0
100
AcDbLine
 10
28.907869
 20
-4.0
 30
0.0
 11
60.0
 21
-4.0
 31
0.0
  0
ARC
  5
6A
330
5F
100
AcDbEntity
  8
0
100
AcDbCircle
 10
28.907869
 20
11.0
 30
0.0
 40
15.0
100
AcDbArc
 50
235.304846
 51
270.0
  0
ARC
  5
6B
330
5F
100
AcDbEntity
  8
0
100
AcDbCircle
 10
59.062638
 20
-9.864468000000001
 30
0.0
 40
5.938909
100
AcDbArc
 50
358.6923420000001
 51
80.91880100000002
  0
ARC
  5
6C
330
5F
100
AcDbEntity
  8
0
100
AcDbCircle
 10
16.841575
 20
0.177833
 30
0.0
 40
2.0
100
AcDbArc
 50
35.413283
 51
79.695178
  0
ARC
  5
6D
330
5F
100
AcDbEntity
  8
0
100
AcDbCircle
 10
-17.074166
 20
0.135544
 30
0.0
 40
2.0
100
AcDbArc
 50
100.304822
 51
132.510447
  0
ARC
  5
6E
330
5F
100
AcDbEntity
  8
0
100
AcDbCircle
 10
-27.0
 20
-10.319705
 30
0.0
 40
3.0
100
AcDbArc
 50
132.510447
 51
180.0
  0
ENDBLK
  5
70
330
5F
100
AcDbEntity
  8
0
100
AcDbBlockEnd
  0
BLOCK
  5
8E
330
71
100
AcDbEntity
  8
0
100
AcDbBlockBegin
  2
626252A
 70
     0
 71
     0
 10
0.0
 20
0.0
 30
0.0
  3
626252A
  1

  0
LINE
  5
72
330
71
100
AcDbEntity
  8
MARBETT-FEET
100
AcDbLine
 10
-8.0
 20
165.599982
 30
0.0
 11
-8.0
 21
8.599982000000001
 31
0.0
  0
LINE
  5
73
330
71
100
AcDbEntity
  8
MARBETT-FEET
100
AcDbLine
 10
8.0
 20
165.599982
 30
0.0
 11
8.0
 21
8.599982000000001
 31
0.0
  0
LINE
  5
74
330
71
100
AcDbEntity
  8
MARBETT-FEET
100
AcDbLine
 10
10.0
 20
163.599982
 30
0.0
 11
-10.0
 21
163.599982
 31
0.0
  0
LINE
  5
75
330
71
100
AcDbEntity
  8
MARBETT-FEET
100
AcDbLine
 10
-10.0
 20
163.599982
 30
0.0
 11
-8.0
 21
165.599982
 31
0.0
  0
LINE
  5
76
330
71
100
AcDbEntity
  8
MARBETT-FEET
100
AcDbLine
 10
10.0
 20
163.599982
 30
0.0
 11
8.0
 21
165.599982
 31
0.0
  0
POLYLINE
  5
77
330
71
100
AcDbEntity
  8
MARBETT-FEET
100
AcDb2dPolyline
 66
     1
 10
0.0
 20
0.0
 30
0.0
  0
VERTEX
  5
118
330
77
100
AcDbEntity
  8
MARBETT-FEET
100
AcDbVertex
100
AcDb2dVertex
 10
-8.0
 20
165.599982
 30
0.0
  0
VERTEX
  5
119
330
77
100
AcDbEntity
  8
MARBETT-FEET
100
AcDbVertex
100
AcDb2dVertex
 10
8.0
 20
165.599982
 30
0.0
  0
SEQEND
  5
117
330
77
100
AcDbEntity
  8
MARBETT-FEET
  0
POLYLINE
  5
78
330
71
100
AcDbEntity
  8
MARBETT-FEET
100
AcDb2dPolyline
 66
     1
 10
0.0
 20
0.0
 30
0.0
  0
VERTEX
  5
11B
330
78
100
AcDbEntity
  8
MARBETT-FEET
100
AcDbVertex
100
AcDb2dVertex
 10
-10.0
 20
8.599982000000001
 30
0.0
  0
VERTEX
  5
11C
330
78
100
AcDbEntity
  8
MARBETT-FEET
100
AcDbVertex
100
AcDb2dVertex
 10
-10.0
 20
163.599982
 30
0.0
  0
SEQEND
  5
11A
330
78
100
AcDbEntity
  8
MARBETT-FEET
  0
POLYLINE
  5
79
330
71
100
AcDbEntity
  8
MARBETT-FEET
100
AcDb2dPolyline
 66
     1
 10
0.0
 20
0.0
 30
0.0
  0
VERTEX
  5
11E
330
79
100
AcDbEntity
  8
MARBETT-FEET
100
AcDbVertex
100
AcDb2dVertex
 10
10.0
 20
163.599982
 30
0.0
  0
VERTEX
  5
11F
330
79
100
AcDbEntity
  8
MARBETT-FEET
100
AcDbVertex
100
AcDb2dVertex
 10
10.0
 20
8.599982000000001
 30
0.0
  0
SEQEND
  5
11D
330
79
100
AcDbEntity
  8
MARBETT-FEET
  0
LINE
  5
7A
330
71
100
AcDbEntity
  8
MARBETT-FEET
100
AcDbLine
 10
-10.0
 20
8.599982000000001
 30
0.0
 11
10.0
 21
8.599982000000001
 31
0.0
  0
POLYLINE
  5
7B
330
71
100
AcDbEntity
  8
MARBETT-FEET
100
AcDb2dPolyline
 66
     1
 10
0.0
 20
0.0
 30
0.0
 70
     1
  0
VERTEX
  5
121
330
7B
100
AcDbEntity
  8
MARBETT-FEET
100
AcDbVertex
100
AcDb2dVertex
 10
-6.0
 20
4.331282
 30
0.0
  0
VERTEX
  5
122
330
7B
100
AcDbEntity
  8
MARBETT-FEET
100
AcDbVertex
100
AcDb2dVertex
 10
-6.0
 20
8.599982000000001
 30
0.0
  0
VERTEX
  5
123
330
7B
100
AcDbEntity
  8
MARBETT-FEET
100
AcDbVertex
100
AcDb2dVertex
 10
6.0
 20
8.599982000000001
 30
0.0
  0
VERTEX
  5
124
330
7B
100
AcDbEntity
  8
MARBETT-FEET
100
AcDbVertex
100
AcDb2dVertex
 10
6.0
 20
4.331282
 30
0.0
  0
SEQEND
  5
120
330
7B
100
AcDbEntity
  8
MARBETT-FEET
  0
ARC
  5
7C
330
71
100
AcDbEntity
  8
MARBETT-FEET
100
AcDbCircle
 10
0.0
 20
0.0
 30
0.0
 40
7.4
100
AcDbArc
 50
144.175226
 51
156.083466
  0
POLYLINE
  5
7D
330
71
100
AcDbEntity
  8
MARBETT-FEET
100
AcDb2dPolyline
 66
     1
 10
0.0
 20
0.0
 30
0.0
 70
     1
  0
VERTEX
  5
126
330
7D
100
AcDbEntity
  8
MARBETT-FEET
100
AcDbVertex
100
AcDb2dVertex
 10
-7.0
 20
8.599982000000001
 30
0.0
  0
VERTEX
  5
127
330
7D
100
AcDbEntity
  8
MARBETT-FEET
100
AcDbVertex
100
AcDb2dVertex
 10
-7.0
 20
16.599982
 30
0.0
  0
VERTEX
  5
128
330
7D
100
AcDbEntity
  8
MARBETT-FEET
100
AcDbVertex
100
AcDb2dVertex
 10
7.0
 20
16.599982
 30
0.0
  0
VERTEX
  5
129
330
7D
100
AcDbEntity
  8
MARBETT-FEET
100
AcDbVertex
100
AcDb2dVertex
 10
7.0
 20
8.599982000000001
 30
0.0
  0
SEQEND
  5
125
330
7D
100
AcDbEntity
  8
MARBETT-FEET
  0
LINE
  5
7E
330
71
100
AcDbEntity
  8
MARBETT-FEET
100
AcDbLine
 10
-29.694138
 20
-9.0
 30
0.0
 11
64.938294
 21
-9.0
 31
0.0
  0
LINE
  5
7F
330
71
100
AcDbEntity
  8
MARBETT-FEET
100
AcDbLine
 10
-18.425616
 20
1.609852
 30
0.0
 11
-29.027174
 21
-8.108243
 31
0.0
  0
LINE
  5
80
330
71
100
AcDbEntity
  8
MARBETT-FEET
100
AcDbLine
 10
18.471562
 20
1.336774
 30
0.0
 11
20.36972
 21
-1.332883
 31
0.0
  0
LINE
  5
81
330
71
100
AcDbEntity
  8
MARBETT-FEET
100
AcDbLine
 10
17.199345
 20
2.145573
 30
0.0
 11
12.499987
 21
3.0
 31
0.0
  0
LINE
  5
82
330
71
100
AcDbEntity
  8
MARBETT-FEET
100
AcDbLine
 10
65.0
 20
-18.0
 30
0.0
 11
-30.0
 21
-18.0
 31
0.0
  0
LINE
  5
83
330
71
100
AcDbEntity
  8
MARBETT-FEET
100
AcDbLine
 10
-30.0
 20
-18.0
 30
0.0
 11
-30.0
 21
-10.319705
 31
0.0
  0
LINE
  5
84
330
71
100
AcDbEntity
  8
MARBETT-FEET
100
AcDbLine
 10
-12.499987
 20
3.0
 30
0.0
 11
-17.431936
 21
2.103284
 31
0.0
  0
LINE
  5
85
330
71
100
AcDbEntity
  8
MARBETT-FEET
100
AcDbLine
 10
12.499987
 20
3.0
 30
0.0
 11
-12.499987
 21
3.0
 31
0.0
  0
LINE
  5
86
330
71
100
AcDbEntity
  8
MARBETT-FEET
100
AcDbLine
 10
65.0
 20
-10.0
 30
0.0
 11
65.0
 21
-18.0
 31
0.0
  0
LINE
  5
87
330
71
100
AcDbEntity
  8
MARBETT-FEET
100
AcDbLine
 10
28.907869
 20
-4.0
 30
0.0
 11
60.0
 21
-4.0
 31
0.0
  0
ARC
  5
88
330
71
100
AcDbEntity
  8
MARBETT-FEET
100
AcDbCircle
 10
28.907869
 20
11.0
 30
0.0
 40
15.0
100
AcDbArc
 50
235.304846
 51
270.0
  0
ARC
  5
89
330
71
100
AcDbEntity
  8
MARBETT-FEET
100
AcDbCircle
 10
59.062638
 20
-9.864468000000001
 30
0.0
 40
5.938909
100
AcDbArc
 50
358.6923420000001
 51
80.91880100000002
  0
ARC
  5
8A
330
71
100
AcDbEntity
  8
MARBETT-FEET
100
AcDbCircle
 10
16.841575
 20
0.177833
 30
0.0
 40
2.0
100
AcDbArc
 50
35.413283
 51
79.695178
  0
ARC
  5
8B
330
71
100
AcDbEntity
  8
MARBETT-FEET
100
AcDbCircle
 10
-17.074166
 20
0.135544
 30
0.0
 40
2.0
100
AcDbArc
 50
100.304822
 51
132.510447
  0
ARC
  5
8C
330
71
100
AcDbEntity
  8
MARBETT-FEET
100
AcDbCircle
 10
-27.0
 20
-10.319705
 30
0.0
 40
3.0
100
AcDbArc
 50
132.510447
 51
180.0
  0
ARC
  5
8D
330
71
100
AcDbEntity
  8
MARBETT-FEET
100
AcDbCircle
 10
0.0
 20
0.0
 30
0.0
 40
7.4
100
AcDbArc
 50
23.916534
 51
35.824774
  0
ENDBLK
  5
8F
330
71
100
AcDbEntity
  8
0
100
AcDbBlockEnd
  0
BLOCK
  5
95
330
90
100
AcDbEntity
  8
0
100
AcDbBlockBegin
  2
1AB-M20
 70
     0
 71
     0
 10
0.0
 20
0.0
 30
0.0
  3
1AB-M20
  1

  0
CIRCLE
  5
91
330
90
100
AcDbEntity
  8
0
100
AcDbCircle
 10
0.0
 20
0.0
 30
0.0
 40
10.0
  0
LINE
  5
92
330
90
100
AcDbEntity
  8
AXIS
 48
0.5
100
AcDbLine
 10
12.093184
 20
0.0
 30
0.0
 11
-12.219915
 21
0.0
 31
0.0
  0
LINE
  5
93
330
90
100
AcDbEntity
  8
AXIS
 48
0.5
100
AcDbLine
 10
0.0
 20
12.090787
 30
0.0
 11
0.0
 21
-12.206977
 31
0.0
  0
ARC
  5
94
330
90
100
AcDbEntity
  8
0
100
AcDbCircle
 10
0.0
 20
0.0
 30
0.0
 40
8.0
100
AcDbArc
 50
180.0
 51
90.0
  0
ENDBLK
  5
96
330
90
100
AcDbEntity
  8
0
100
AcDbBlockEnd
  0
BLOCK
  5
9D
330
97
100
AcDbEntity
  8
0
100
AcDbBlockBegin
  2
94B
 70
     0
 71
     0
 10
0.0
 20
0.0
 30
0.0
  3
94B
  1

  0
CIRCLE
  5
98
330
97
100
AcDbEntity
  8
0
100
AcDbCircle
 10
0.0
 20
0.0
 30
0.0
 40
18.0
  0
ARC
  5
99
330
97
100
AcDbEntity
  8
0
100
AcDbCircle
 10
0.0
 20
0.0
 30
0.0
 40
30.0
100
AcDbArc
 50
72.54239699999999
 51
287.457603
  0
ARC
  5
9A
330
97
100
AcDbEntity
  8
0
100
AcDbCircle
 10
50.0
 20
0.0
 30
0.0
 40
15.0
100
AcDbArc
 50
287.457603
 51
72.54239699999999
  0
LINE
  5
9B
330
97
100
AcDbEntity
  8
0
100
AcDbLine
 10
54.5
 20
14.309088
 30
0.0
 11
9.0
 21
28.618176
 31
0.0
  0
LINE
  5
9C
330
97
100
AcDbEntity
  8
0
100
AcDbLine
 10
9.0
 20
-28.618176
 30
0.0
 11
54.5
 21
-14.309088
 31
0.0
  0
ENDBLK
  5
9E
330
97
100
AcDbEntity
  8
0
100
AcDbBlockEnd
  0
BLOCK
  5
A2
330
9F
100
AcDbEntity
  8
0
100
AcDbBlockBegin
  2
626252B
 70
     0
 71
     0
 10
0.0
 20
0.0
 30
0.0
  3
626252B
  1

  0
INSERT
  5
A0
330
9F
100
AcDbEntity
  8
MARBETT-FEET
100
AcDbBlockReference
  2
1AB-M20
 10
0.0
 20
0.0
 30
0.0
  0
INSERT
  5
A1
330
9F
100
AcDbEntity
  8
MARBETT-FEET
100
AcDbBlockReference
  2
94B
 10
0.0
 20
0.0
 30
0.0
  0
ENDBLK
  5
A3
330
9F
100
AcDbEntity
  8
0
100
AcDbBlockEnd
  0
BLOCK
  5
AF
330
A9
100
AcDbEntity
  8
0
100
AcDbBlockBegin
  2
626252
 70
     0
 71
     0
 10
0.0
 20
0.0
 30
0.0
  3
626252
  1

  0
INSERT
  5
AA
330
A9
100
AcDbEntity
  8
0
100
AcDbBlockReference
 66
     1
  2
DISBLO
 10
0.0
 20
0.0
 30
0.0
  0
ATTRIB
  5
AB
330
AA
100
AcDbEntity
  8
TEXT
100
AcDbText
 10
-21.611805
 20
-2.578919
 30
0.0
 40
5.0
  1
94/626252
  7
DISTINTA
 72
     1
 11
0.173909
 21
-2.578919
 31
0.0
100
AcDbAttribute
  2
TESTO
 70
     0
  0
SEQEND
  5
AC
330
AA
100
AcDbEntity
  8
0
  0
INSERT
  5
AD
330
A9
100
AcDbEntity
  8
MARBETT-FEET
100
AcDbBlockReference
  2
626252A
 10
0.0
 20
0.0
 30
0.0
  0
INSERT
  5
AE
330
A9
100
AcDbEntity
  8
MARBETT-FEET
100
AcDbBlockReference
  2
626252B
 10
0.0
 20
-100.0
 30
0.0
  0
ENDBLK
  5
B0
330
A9
100
AcDbEntity
  8
0
100
AcDbBlockEnd
  0
ENDSEC
  0
SECTION
  2
ENTITIES
  0
INSERT
  5
B2
330
19
100
AcDbEntity
  8
0
100
AcDbBlockReference
  2
626252
 10
0.0
 20
0.0
 30
0.0
  0
ENDSEC
  0
SECTION
  2
OBJECTS
  0
DICTIONARY
  5
C
330
0
100
AcDbDictionary
  3
ACAD_GROUP
350
D
  3
ACAD_LAYOUT
350
B4
  3
ACAD_MLINESTYLE
350
E
1001
ACAD
1000
TREAT_AS_HARD
1070
     0
  0
DICTIONARY
  5
12A
330
B3
100
AcDbDictionary
  3
ACAD_XREC_ROUNDTRIP
360
12B
  0
DICTIONARY
  5
D
102
{ACAD_REACTORS
330
C
102
}
330
C
100
AcDbDictionary
1001
ACAD
1000
TREAT_AS_HARD
1070
     0
  0
DICTIONARY
  5
B4
102
{ACAD_REACTORS
330
C
102
}
330
C
100
AcDbDictionary
1001
ACAD
1000
TREAT_AS_HARD
1070
     0
  0
DICTIONARY
  5
E
102
{ACAD_REACTORS
330
C
102
}
330
C
100
AcDbDictionary
  3
STANDARD
350
1C
1001
ACAD
1000
TREAT_AS_HARD
1070
     0
  0
XRECORD
  5
12B
102
{ACAD_REACTORS
330
12A
102
}
330
12A
100
AcDbXrecord
102
UCS
 74
     0
 71
     1
 10
0.0
 20
0.0
 30
0.0
 10
1.0
 20
0.0
 30
0.0
 10
0.0
 20
1.0
 30
0.0
146
0.0
 79
     0
102
VIEW
281
     0
  0
MLINESTYLE
  5
1C
102
{ACAD_REACTORS
330
E
102
}
330
E
100
AcDbMlineStyle
  2
STANDARD
 70
     0
  3

 62
     0
 51
90.0
 52
90.0
 71
     2
 49
0.5
 62
   256
  6
BYLAYER
 49
-0.5
 62
   256
  6
BYLAYER
  0
ENDSEC
  0
EOF
