999
DXF file: 623.dxf
999
Pro/ENGINEER 2005310 by Parametric Technology Corporation
0
SECTION
2
HEADER
9
$ACADVER
1
AC1015
9
$DWGCODEPAGE
3
ANSI_1252
9
$EXTMAX
10
210.0000000000
20
297.0000000000
30
0.0000000000
9
$EXTMIN
10
0.0000000000
20
0.0000000000
30
0.0000000000
9
$LIMMIN
10
0.0000000000
20
0.0000000000
9
$LIMMAX
10
210.0000000000
20
297.0000000000
9
$VIEWCTR
10
105.0000000000
20
148.5000000000
9
$VIEWSIZE
40
297.0000000000
9
$CLAYER
8
0
9
$LTSCALE
40
19.3600000000
9
$CELTYPE
6
BYLAYER
9
$DIMSCALE
40
1
9
$DIMASZ
40
3.5000000000
9
$DIMEXO
40
2.2000000000
9
$DIMDLI
40
13.3760000000
9
$DIMEXE
40
6.3360000000
9
$DIMCEN
40
3.1680000000
9
$DIMLFAC
40
1.0000000000
9
$DIMBLK
1
_FILLED
9
$DIMTXT
40
3.5000000000
9
$DIMTOL
70
1
9
$DIMLIM
70
0
9
$DIMTFAC
40
1.0000000000
9
$DIMTP
40
0.0010000000
9
$DIMTM
40
0.0010000000
9
$PDMODE
70
3
9
$PDSIZE
40
0.3125000000
9
$HANDSEED
5
329
9
$MEASUREMENT
70
1
9
$INSUNITS
70
4
0
ENDSEC
0
SECTION
2
CLASSES
0
CLASS
1
ACDBDICTIONARYWDFLT
2
AcDbDictionaryWithDefault
3
AutoCAD 2000
90
0
280
0
281
0
0
CLASS
1
ACDBPLACEHOLDER
2
AcDbPlaceHolder
3
AutoCAD 2000
90
0
280
0
281
0
0
CLASS
1
LAYOUT
2
AcDbLayout
3
AutoCAD 2000
90
0
280
0
281
0
0
ENDSEC
0
SECTION
2
TABLES
0
TABLE
2
VPORT
5
8
100
AcDbSymbolTable
70
2
0
VPORT
5
1F4
100
AcDbSymbolTableRecord
100
AcDbViewportTableRecord
2
*ACTIVE
70
0
10
0.0
20
0.0
11
1.0
21
1.0
12
105.0000000000
22
148.5000000000
13
0.0
23
0.0
14
1.0
24
1.0
15
0.0
25
0.0
16
0.0
26
0.0
36
1.0
17
0.0
27
0.0
37
0.0
40
297.0000000000
41
0.7070707071
42
50.0
43
0.0
44
0.0
50
0.0
51
0.0
71
0
72
100
73
1
74
1
75
0
76
0
77
0
78
0
0
ENDTAB
0
TABLE
2
LTYPE
5
5
100
AcDbSymbolTable
70
6
0
LTYPE
5
14
100
AcDbSymbolTableRecord
100
AcDbLinetypeTableRecord
2
BYBLOCK
70
0
3

72
65
73
0
40
0.0
0
LTYPE
5
15
100
AcDbSymbolTableRecord
100
AcDbLinetypeTableRecord
2
BYLAYER
70
0
3

72
65
73
0
40
0.0
0
LTYPE
5
16
100
AcDbSymbolTableRecord
100
AcDbLinetypeTableRecord
2
CONTINUOUS
70
64
3
Solid line
72
65
73
0
40
0
0
LTYPE
5
1F5
100
AcDbSymbolTableRecord
100
AcDbLinetypeTableRecord
2
CENTER
70
64
3
____ _ ____ _ ____ _ ____ _ ____ _ ____ _ ____
72
65
73
4
40
0.6
49
0.375
74
0
49
-0.075
74
0
49
0.075
74
0
49
-0.075
74
0
0
LTYPE
5
1F6
100
AcDbSymbolTableRecord
100
AcDbLinetypeTableRecord
2
HIDDEN
70
64
3
- - - - - - - - - - - - - - - - - - - -
72
65
73
2
40
0.2
49
0.1
74
0
49
-0.1
74
0
0
LTYPE
5
1F7
100
AcDbSymbolTableRecord
100
AcDbLinetypeTableRecord
2
PHANTOM
70
64
3
_____ _ _ _____ _ _ _____ _ _ _____
72
65
73
6
40
0.8
49
0.45
74
0
49
-0.05
74
0
49
0.1
74
0
49
-0.05
74
0
49
0.1
74
0
49
-0.05
74
0
0
LTYPE
5
1F8
100
AcDbSymbolTableRecord
100
AcDbLinetypeTableRecord
2
DOT
70
64
3
. . . . . . . . . . . . . . . . . . . .
72
65
73
2
40
0.2
49
0.1
74
0
49
-0.1
74
0
0
LTYPE
5
1F9
100
AcDbSymbolTableRecord
100
AcDbLinetypeTableRecord
2
DASHED
70
64
3
- - - - - - - - - - - - - - - - - - - -
72
65
73
2
40
0.2
49
0.1
74
0
49
-0.1
74
0
0
ENDTAB
0
TABLE
2
LAYER
5
2
100
AcDbSymbolTable
70
36
0
LAYER
5
10
100
AcDbSymbolTableRecord
100
AcDbLayerTableRecord
2
0
70
0
62
7
6
CONTINUOUS
370
-3
390
F
0
LAYER
5
1FA
100
AcDbSymbolTableRecord
100
AcDbLayerTableRecord
2
DEFAULT_1
70
0
62
7
6
CENTER
370
-3
390
F
0
LAYER
5
1FB
100
AcDbSymbolTableRecord
100
AcDbLayerTableRecord
2
DEFAULT_2
70
0
62
8
6
HIDDEN
370
-3
390
F
0
LAYER
5
1FC
100
AcDbSymbolTableRecord
100
AcDbLayerTableRecord
2
DEFAULT_3
70
0
62
7
6
PHANTOM
370
-3
390
F
0
LAYER
5
1FD
100
AcDbSymbolTableRecord
100
AcDbLayerTableRecord
2
_2D_DELETED_OBJS
70
0
62
7
6
CONTINUOUS
370
-3
390
F
0
LAYER
5
1FE
100
AcDbSymbolTableRecord
100
AcDbLayerTableRecord
2
ASSI
70
0
62
7
6
CONTINUOUS
370
-3
390
F
0
LAYER
5
1FF
100
AcDbSymbolTableRecord
100
AcDbLayerTableRecord
2
AXES
70
0
62
7
6
CONTINUOUS
370
-3
390
F
0
LAYER
5
200
100
AcDbSymbolTableRecord
100
AcDbLayerTableRecord
2
CURVE
70
0
62
7
6
CONTINUOUS
370
-3
390
F
0
LAYER
5
201
100
AcDbSymbolTableRecord
100
AcDbLayerTableRecord
2
CURVE_DI_RIFERIMENTO
70
0
62
7
6
CONTINUOUS
370
-3
390
F
0
LAYER
5
202
100
AcDbSymbolTableRecord
100
AcDbLayerTableRecord
2
DIMS
70
0
62
7
6
CONTINUOUS
370
-3
390
F
0
LAYER
5
203
100
AcDbSymbolTableRecord
100
AcDbLayerTableRecord
2
GEOM
70
0
62
7
6
CONTINUOUS
370
-3
390
F
0
LAYER
5
204
100
AcDbSymbolTableRecord
100
AcDbLayerTableRecord
2
NOGEOM
70
0
62
7
6
CONTINUOUS
370
-3
390
F
0
LAYER
5
205
100
AcDbSymbolTableRecord
100
AcDbLayerTableRecord
2
PER_MESSA_TAVOLA
70
0
62
7
6
CONTINUOUS
370
-3
390
F
0
LAYER
5
206
100
AcDbSymbolTableRecord
100
AcDbLayerTableRecord
2
PIANI
70
0
62
7
6
CONTINUOUS
370
-3
390
F
0
LAYER
5
207
100
AcDbSymbolTableRecord
100
AcDbLayerTableRecord
2
PLANES
70
0
62
7
6
CONTINUOUS
370
-3
390
F
0
LAYER
5
208
100
AcDbSymbolTableRecord
100
AcDbLayerTableRecord
2
PUNTI
70
0
62
7
6
CONTINUOUS
370
-3
390
F
0
LAYER
5
209
100
AcDbSymbolTableRecord
100
AcDbLayerTableRecord
2
SURF_FILETTI
70
0
62
7
6
CONTINUOUS
370
-3
390
F
0
LAYER
5
20A
100
AcDbSymbolTableRecord
100
AcDbLayerTableRecord
2
XSEC_DATUMS
70
0
62
7
6
CONTINUOUS
370
-3
390
F
0
ENDTAB
0
TABLE
2
STYLE
5
3
100
AcDbSymbolTable
70
1
0
STYLE
5
11
100
AcDbSymbolTableRecord
100
AcDbTextStyleTableRecord
2
STANDARD
70
0
40
0.0
41
0.7143000000
50
0.0
71
0
42
0.2
3
txt
4

0
ENDTAB
0
TABLE
2
VIEW
5
6
100
AcDbSymbolTable
70
0
0
ENDTAB
0
TABLE
2
UCS
5
7
100
AcDbSymbolTable
70
0
0
ENDTAB
0
TABLE
2
APPID
5
9
100
AcDbSymbolTable
70
1
0
APPID
5
20B
100
AcDbSymbolTableRecord
100
AcDbRegAppTableRecord
2
ACAD
70
0
0
ENDTAB
0
TABLE
2
BLOCK_RECORD
5
1
100
AcDbSymbolTable
70
0
0
BLOCK_RECORD
5
1F
100
AcDbSymbolTableRecord
100
AcDbBlockTableRecord
2
*MODEL_SPACE
0
BLOCK_RECORD
5
1B
100
AcDbSymbolTableRecord
100
AcDbBlockTableRecord
2
*PAPER_SPACE
0
ENDTAB
0
TABLE
2
DIMSTYLE
5
A
100
AcDbSymbolTable
70
1
100
AcDbDimStyleTable
71
0
0
DIMSTYLE
105
20C
100
AcDbSymbolTableRecord
100
AcDbDimStyleTableRecord
2
STANDARD
70
0
3

4

40
1.0
41
3.5000000000
42
0.0625
43
0.38
44
0.18
45
0.0
46
0.0
47
0.0010000000
48
0.0010000000
140
3.5000000000
141
0.09
142
0.0
143
25.4
144
1.0000000000
145
0.0
146
1.0000000000
147
0.09
71
1
72
0
73
0
74
0
75
0
76
0
77
1
78
8
170
0
171
2
172
0
173
0
174
0
175
0
176
0
177
0
178
0
270
2
271
3
272
3
273
2
274
2
275
0
280
0
281
0
282
0
283
1
284
8
285
0
286
0
287
3
288
0
340
11
0
ENDTAB
0
ENDSEC
0
SECTION
2
BLOCKS
0
BLOCK
5
20
100
AcDbEntity
8
0
100
AcDbBlockBegin
2
*MODEL_SPACE
70
0
10
0.0
20
0.0
30
0.0
3
*MODEL_SPACE
1

0
ENDBLK
5
21
100
AcDbEntity
8
0
100
AcDbBlockEnd
0
BLOCK
5
1C
100
AcDbEntity
8
0
100
AcDbBlockBegin
2
*PAPER_SPACE
70
0
10
0.0
20
0.0
30
0.0
3
*PAPER_SPACE
1

0
ENDBLK
5
1D
100
AcDbEntity
8
0
100
AcDbBlockEnd
0
ENDSEC
0
SECTION
2
ENTITIES
0
MTEXT
5
20D
100
AcDbEntity
8
0
100
AcDbMText
62
2
6
CONTINUOUS
7
STANDARD
71
1
72
1
10
94.1472747872
20
113.3660776914
30
0.0000000000
11
1.0000000000
21
0.0000000000
31
0.0000000000
1
SEZIONE A-A
40
3.5000000000
41
27.5005500000
0
LINE
5
20E
100
AcDbEntity
8
0
100
AcDbLine
62
2
6
CONTINUOUS
10
62.9897283384
20
126.7729187817
11
62.7130194305
21
127.0496276896
0
LINE
5
20F
100
AcDbEntity
8
0
100
AcDbLine
62
2
6
CONTINUOUS
10
65.8181554632
20
126.7729187817
11
62.5565897119
21
130.0344845330
0
LINE
5
210
100
AcDbEntity
8
0
100
AcDbLine
62
2
6
CONTINUOUS
10
60.8181554632
20
131.7729187817
11
59.6064917566
21
132.9845824883
0
LINE
5
211
100
AcDbEntity
8
0
100
AcDbLine
62
2
6
CONTINUOUS
10
70.6465825879
20
124.7729187817
11
65.6465825879
21
129.7729187817
0
LINE
5
212
100
AcDbEntity
8
0
100
AcDbLine
62
2
6
CONTINUOUS
10
65.4267133556
20
129.9927880141
11
60.3836963401
21
135.0358050295
0
LINE
5
213
100
AcDbEntity
8
0
100
AcDbLine
62
2
6
CONTINUOUS
10
71.2154822335
20
127.0324462609
11
68.4750097127
21
129.7729187817
0
LINE
5
214
100
AcDbEntity
8
0
100
AcDbLine
62
2
6
CONTINUOUS
10
64.8212206378
20
133.4267078566
11
62.4750097127
21
135.7729187817
0
LINE
5
215
100
AcDbEntity
8
0
100
AcDbLine
62
7
6
CONTINUOUS
10
152.8815330987
20
123.4729187817
11
61.0494313683
21
123.4729187817
0
LINE
5
216
100
AcDbEntity
8
CURVE
100
AcDbLine
62
2
6
CONTINUOUS
10
132.4973970786
20
123.4729187817
11
135.0825035558
21
123.4729187817
0
LINE
5
217
100
AcDbEntity
8
0
100
AcDbLine
62
7
6
CONTINUOUS
10
145.9480284979
20
124.7729187817
11
142.9654822335
21
124.7729187817
0
LINE
5
218
100
AcDbEntity
8
0
100
AcDbLine
62
7
6
CONTINUOUS
10
133.9654822335
20
124.7729187817
11
130.9829359691
21
124.7729187817
0
LINE
5
219
100
AcDbEntity
8
0
100
AcDbLine
62
7
6
CONTINUOUS
10
126.1154822335
20
124.7729187817
11
87.8154822335
21
124.7729187817
0
LINE
5
21A
100
AcDbEntity
8
0
100
AcDbLine
62
7
6
CONTINUOUS
10
82.9480284979
20
124.7729187817
11
79.9654822335
21
124.7729187817
0
LINE
5
21B
100
AcDbEntity
8
0
100
AcDbLine
62
7
6
CONTINUOUS
10
70.9654822335
20
124.7729187817
11
67.9829359691
21
124.7729187817
0
LINE
5
21C
100
AcDbEntity
8
0
100
AcDbLine
62
7
6
CONTINUOUS
10
70.9654822335
20
125.7729187817
11
79.9654822335
21
125.7729187817
0
LINE
5
21D
100
AcDbEntity
8
0
100
AcDbLine
62
7
6
CONTINUOUS
10
133.9654822335
20
125.7729187817
11
142.9654822335
21
125.7729187817
0
LINE
5
21E
100
AcDbEntity
8
0
100
AcDbLine
62
7
6
CONTINUOUS
10
151.2034433371
20
126.7729187817
11
145.9654822335
21
126.7729187817
0
LINE
5
21F
100
AcDbEntity
8
0
100
AcDbLine
62
7
6
CONTINUOUS
10
130.9654822335
20
126.7729187817
11
126.1154822335
21
126.7729187817
0
LINE
5
220
100
AcDbEntity
8
0
100
AcDbLine
62
7
6
CONTINUOUS
10
87.8154822335
20
126.7729187817
11
82.9654822335
21
126.7729187817
0
LINE
5
221
100
AcDbEntity
8
0
100
AcDbLine
62
7
6
CONTINUOUS
10
67.9654822335
20
126.7729187817
11
62.7275211299
21
126.7729187817
0
LINE
5
222
100
AcDbEntity
8
0
100
AcDbLine
62
2
6
CONTINUOUS
10
81.9602910869
20
124.7729187817
11
79.7154822335
21
127.0177276351
0
LINE
5
223
100
AcDbEntity
8
0
100
AcDbLine
62
2
6
CONTINUOUS
10
82.9639529828
20
126.5976840106
11
79.7887182117
21
129.7729187817
0
LINE
5
224
100
AcDbEntity
8
0
100
AcDbLine
62
7
6
CONTINUOUS
10
156.2654822335
20
128.7729187817
11
154.1082588957
21
128.7729187817
0
LINE
5
225
100
AcDbEntity
8
0
100
AcDbLine
62
7
6
CONTINUOUS
10
59.8227055714
20
128.7729187817
11
57.6654822335
21
128.7729187817
0
LINE
5
226
100
AcDbEntity
8
CURVE_DI_RIFERIMENTO
100
AcDbLine
62
40
6
CONTINUOUS
10
65.0129544309
20
129.7729187817
11
85.1662171446
21
129.7729187817
0
LINE
5
227
100
AcDbEntity
8
0
100
AcDbLine
62
7
6
CONTINUOUS
10
65.4654822335
20
129.7729187817
11
89.0654822335
21
129.7729187817
0
LINE
5
228
100
AcDbEntity
8
CURVE_DI_RIFERIMENTO
100
AcDbLine
62
40
6
CONTINUOUS
10
127.9654982259
20
129.7729187817
11
148.1662176762
21
129.7729187817
0
LINE
5
229
100
AcDbEntity
8
0
100
AcDbLine
62
7
6
CONTINUOUS
10
124.8654822335
20
129.7729187817
11
148.4654822335
21
129.7729187817
0
LINE
5
22A
100
AcDbEntity
8
0
100
AcDbLine
62
7
6
CONTINUOUS
10
59.7507113723
20
130.1466499336
11
59.1654822335
21
130.1466500840
0
LINE
5
22B
100
AcDbEntity
8
0
100
AcDbLine
62
7
6
CONTINUOUS
10
154.7654822335
20
130.1466500840
11
154.1802531025
21
130.1466500840
0
LINE
5
22C
100
AcDbEntity
8
0
100
AcDbLine
62
7
6
CONTINUOUS
10
105.2541573681
20
130.9729187817
11
108.6768070989
21
130.9729187817
0
LINE
5
22D
100
AcDbEntity
8
0
100
AcDbLine
62
9
6
CONTINUOUS
10
109.1098198008
20
131.2229187817
11
104.8211446662
21
131.2229187817
0
LINE
5
22E
100
AcDbEntity
8
0
100
AcDbLine
62
7
6
CONTINUOUS
10
154.7654822335
20
131.7729187817
11
151.4654822335
21
131.7729187817
0
LINE
5
22F
100
AcDbEntity
8
0
100
AcDbLine
62
7
6
CONTINUOUS
10
62.4654822335
20
131.7729187817
11
59.1654822335
21
131.7729187817
0
LINE
5
230
100
AcDbEntity
8
0
100
AcDbLine
62
2
6
CONTINUOUS
10
85.6171453364
20
126.7729187817
11
82.6171453364
21
129.7729187817
0
LINE
5
231
100
AcDbEntity
8
0
100
AcDbLine
62
2
6
CONTINUOUS
10
90.4455724612
20
124.7729187817
11
85.4455724612
21
129.7729187817
0
LINE
5
232
100
AcDbEntity
8
0
100
AcDbLine
62
7
6
CONTINUOUS
10
59.6654822335
20
131.7729187817
11
60.0508018335
21
124.4205828255
0
LINE
5
233
100
AcDbEntity
8
0
100
AcDbLine
62
7
6
CONTINUOUS
10
62.7275211299
20
126.7729187817
11
62.4654822335
21
131.7729187817
0
LINE
5
234
100
AcDbEntity
8
0
100
AcDbLine
62
7
6
CONTINUOUS
10
57.6654822335
20
128.7729187817
11
57.6654822335
21
132.2725965483
0
LINE
5
235
100
AcDbEntity
8
0
100
AcDbLine
62
7
6
CONTINUOUS
10
59.1654822335
20
130.1466500840
11
59.1654822335
21
132.2729187817
0
LINE
5
236
100
AcDbEntity
8
0
100
AcDbLine
62
9
6
CONTINUOUS
10
104.3535958950
20
132.0327370084
11
109.5773685720
21
132.0327370084
0
LINE
5
237
100
AcDbEntity
8
0
100
AcDbLine
62
9
6
CONTINUOUS
10
104.0402726208
20
132.2682001284
11
109.8906918462
21
132.2682001284
0
LINE
5
238
100
AcDbEntity
8
0
100
AcDbLine
62
9
6
CONTINUOUS
10
59.3474673506
20
132.2729187817
11
59.1654822335
21
132.2729187817
0
LINE
5
239
100
AcDbEntity
8
0
100
AcDbLine
62
9
6
CONTINUOUS
10
154.5834971164
20
132.2729187817
11
154.7654822335
21
132.2729187817
0
LINE
5
23A
100
AcDbEntity
8
0
100
AcDbLine
62
7
6
CONTINUOUS
10
111.8131620909
20
133.7829187817
11
102.1178023761
21
133.7829187817
0
LINE
5
23B
100
AcDbEntity
8
0
100
AcDbLine
62
7
6
CONTINUOUS
10
114.0839190505
20
134.2003331525
11
112.6754147663
21
134.2003331525
0
LINE
5
23C
100
AcDbEntity
8
0
100
AcDbLine
62
7
6
CONTINUOUS
10
99.8470454165
20
134.2003331525
11
101.2521284206
21
134.2003331525
0
LINE
5
23D
100
AcDbEntity
8
0
100
AcDbLine
62
7
6
CONTINUOUS
10
61.6716744779
20
135.7729187817
11
67.2043077021
21
135.7729187817
0
LINE
5
23E
100
AcDbEntity
8
0
100
AcDbLine
62
7
6
CONTINUOUS
10
146.7266567649
20
135.7729187817
11
152.2592899891
21
135.7729187817
0
LINE
5
23F
100
AcDbEntity
8
0
100
AcDbLine
62
2
6
CONTINUOUS
10
93.2739995859
20
124.7729187817
11
88.2739995859
21
129.7729187817
0
LINE
5
240
100
AcDbEntity
8
0
100
AcDbLine
62
2
6
CONTINUOUS
10
96.1024267107
20
124.7729187817
11
89.0654822335
21
131.8098632589
0
LINE
5
241
100
AcDbEntity
8
0
100
AcDbLine
62
2
6
CONTINUOUS
10
98.9308538354
20
124.7729187817
11
89.0654822335
21
134.6382903836
0
LINE
5
242
100
AcDbEntity
8
0
100
AcDbLine
62
7
6
CONTINUOUS
10
64.4075203493
20
135.7729187817
11
65.4654822335
21
129.7729187817
0
LINE
5
243
100
AcDbEntity
8
0
100
AcDbLine
62
2
6
CONTINUOUS
10
98.9654822335
20
238.3777337548
11
102.3706672604
21
241.7829187817
0
LINE
5
244
100
AcDbEntity
8
0
100
AcDbLine
62
2
6
CONTINUOUS
10
98.9654822335
20
235.5493066301
11
105.1990943852
21
241.7829187817
0
LINE
5
245
100
AcDbEntity
8
0
100
AcDbLine
62
2
6
CONTINUOUS
10
98.9654822335
20
232.7208795053
11
108.0275215099
21
241.7829187817
0
LINE
5
246
100
AcDbEntity
8
0
100
AcDbLine
62
7
6
CONTINUOUS
10
119.4154822335
20
139.5976267013
11
117.9433655290
21
139.5976267013
0
LINE
5
247
100
AcDbEntity
8
0
100
AcDbLine
62
7
6
CONTINUOUS
10
94.5154822335
20
139.5976267013
11
95.9986612600
21
139.5976267013
0
LINE
5
248
100
AcDbEntity
8
0
100
AcDbLine
62
7
6
CONTINUOUS
10
128.6283920922
20
141.1729187817
11
124.8654822335
21
141.1729187817
0
LINE
5
249
100
AcDbEntity
8
0
100
AcDbLine
62
7
6
CONTINUOUS
10
85.3025723748
20
141.1729187817
11
89.0654822335
21
141.1729187817
0
LINE
5
24A
100
AcDbEntity
8
0
100
AcDbLine
62
2
6
CONTINUOUS
10
101.7592809601
20
124.7729187817
11
89.0654822335
21
137.4667175084
0
LINE
5
24B
100
AcDbEntity
8
0
100
AcDbLine
62
2
6
CONTINUOUS
10
104.5877080849
20
124.7729187817
11
89.0654822335
21
140.2951446331
0
LINE
5
24C
100
AcDbEntity
8
0
100
AcDbLine
62
2
6
CONTINUOUS
10
107.4161352096
20
124.7729187817
11
90.5423107094
21
141.6467432819
0
LINE
5
24D
100
AcDbEntity
8
0
100
AcDbLine
62
7
6
CONTINUOUS
10
67.9654822335
20
126.7729187817
11
67.9829359691
21
124.7729187817
0
LINE
5
24E
100
AcDbEntity
8
0
100
AcDbLine
62
7
6
CONTINUOUS
10
70.9654822335
20
125.7729187817
11
70.9654822335
21
124.7729187817
0
LINE
5
24F
100
AcDbEntity
8
0
100
AcDbLine
62
7
6
CONTINUOUS
10
71.2154822335
20
129.7729187817
11
71.2154822335
21
125.7729187817
0
LINE
5
250
100
AcDbEntity
8
0
100
AcDbLine
62
7
6
CONTINUOUS
10
98.9654822335
20
239.2829187817
11
100.4088579065
21
241.7829187817
0
LINE
5
251
100
AcDbEntity
8
0
100
AcDbLine
62
2
6
CONTINUOUS
10
98.9654822335
20
229.8924523806
11
110.8559486347
21
241.7829187817
0
LINE
5
252
100
AcDbEntity
8
0
100
AcDbLine
62
2
6
CONTINUOUS
10
98.9654822335
20
227.0640252558
11
113.5815012096
21
241.6800442319
0
LINE
5
253
100
AcDbEntity
8
0
100
AcDbLine
62
7
6
CONTINUOUS
10
125.4428325027
20
146.1729187817
11
124.8654822335
21
146.1729187817
0
LINE
5
254
100
AcDbEntity
8
0
100
AcDbLine
62
7
6
CONTINUOUS
10
89.0654822335
20
146.1729187817
11
88.4881319643
21
146.1729187817
0
LINE
5
255
100
AcDbEntity
8
0
100
AcDbLine
62
2
6
CONTINUOUS
10
110.2445623344
20
124.7729187817
11
102.0793008498
21
132.9381802663
0
LINE
5
256
100
AcDbEntity
8
0
100
AcDbLine
62
2
6
CONTINUOUS
10
94.5154822335
20
140.5019988826
11
90.9654822335
21
144.0519988826
0
LINE
5
257
100
AcDbEntity
8
0
100
AcDbLine
62
2
6
CONTINUOUS
10
113.0729894591
20
124.7729187817
11
106.8729894591
21
130.9729187817
0
LINE
5
258
100
AcDbEntity
8
0
100
AcDbLine
62
2
6
CONTINUOUS
10
94.5154822335
20
143.3304260074
11
90.9654822335
21
146.8804260074
0
LINE
5
259
100
AcDbEntity
8
DEFAULT_1
100
AcDbLine
62
2
6
CENTER
10
75.4654822335
20
116.8763250792
11
75.4654822335
21
134.4204593544
0
LINE
5
25A
100
AcDbEntity
8
0
100
AcDbLine
62
2
6
CONTINUOUS
10
98.9654822335
20
224.2355981311
11
114.6167773900
21
239.8868932876
0
LINE
5
25B
100
AcDbEntity
8
0
100
AcDbLine
62
2
6
CONTINUOUS
10
98.9654822335
20
221.4071710063
11
114.9654822335
21
237.4071710063
0
LINE
5
25C
100
AcDbEntity
8
0
100
AcDbLine
62
2
6
CONTINUOUS
10
98.9654822335
20
218.5787438816
11
114.9654822335
21
234.5787438816
0
LINE
5
25D
100
AcDbEntity
8
0
100
AcDbLine
62
7
6
CONTINUOUS
10
122.9654822335
20
148.6729187817
11
118.6589986718
21
148.6729187817
0
LINE
5
25E
100
AcDbEntity
8
0
100
AcDbLine
62
7
6
CONTINUOUS
10
95.2719657952
20
148.6729187817
11
90.9654822335
21
148.6729187817
0
LINE
5
25F
100
AcDbEntity
8
0
100
AcDbLine
62
2
6
CONTINUOUS
10
115.9014165839
20
124.7729187817
11
109.2348529013
21
131.4394824643
0
LINE
5
260
100
AcDbEntity
8
0
100
AcDbLine
62
2
6
CONTINUOUS
10
94.5154822335
20
146.1588531321
11
92.0014165839
21
148.6729187817
0
LINE
5
261
100
AcDbEntity
8
0
100
AcDbLine
62
2
6
CONTINUOUS
10
118.7298437086
20
124.7729187817
11
110.9245309498
21
132.5782315405
0
LINE
5
262
100
AcDbEntity
8
0
100
AcDbLine
62
2
6
CONTINUOUS
10
121.5582708334
20
124.7729187817
11
112.8849167435
21
133.4462728716
0
LINE
5
263
100
AcDbEntity
8
0
100
AcDbLine
62
7
6
CONTINUOUS
10
79.7154822335
20
129.7729187817
11
79.7154822335
21
125.7729187817
0
LINE
5
264
100
AcDbEntity
8
0
100
AcDbLine
62
7
6
CONTINUOUS
10
79.9654822335
20
125.7729187817
11
79.9654822335
21
124.7729187817
0
LINE
5
265
100
AcDbEntity
8
0
100
AcDbLine
62
7
6
CONTINUOUS
10
60.2621355467
20
134.7859489967
11
59.1654822335
21
131.7729187817
0
LINE
5
266
100
AcDbEntity
8
0
100
AcDbLine
62
7
6
CONTINUOUS
10
59.1654822335
20
130.1466500840
11
58.6654849578
21
128.7729187817
0
LINE
5
267
100
AcDbEntity
8
0
100
AcDbLine
62
2
6
CONTINUOUS
10
98.9654822335
20
215.7503167568
11
114.9654822335
21
231.7503167568
0
LINE
5
268
100
AcDbEntity
8
0
100
AcDbLine
62
2
6
CONTINUOUS
10
98.9654822335
20
212.9218896321
11
114.9654822335
21
228.9218896321
0
LINE
5
269
100
AcDbEntity
8
0
100
AcDbLine
62
2
6
CONTINUOUS
10
98.9654822335
20
210.0934625073
11
114.9654822335
21
226.0934625073
0
LINE
5
26A
100
AcDbEntity
8
0
100
AcDbLine
62
7
6
CONTINUOUS
10
94.9654822335
20
157.7829187817
11
94.8619347065
21
157.8427019743
0
LINE
5
26B
100
AcDbEntity
8
0
100
AcDbLine
62
2
6
CONTINUOUS
10
124.3866979581
20
124.7729187817
11
114.6430545708
21
134.5165621690
0
LINE
5
26C
100
AcDbEntity
8
0
100
AcDbLine
62
2
6
CONTINUOUS
10
126.1154822335
20
125.8725616311
11
116.3076484964
21
135.6803953682
0
LINE
5
26D
100
AcDbEntity
8
0
100
AcDbLine
62
7
6
CONTINUOUS
10
104.8211446662
20
131.2229187817
11
104.3535958950
21
132.0327370084
0
LINE
5
26E
100
AcDbEntity
8
0
100
AcDbLine
62
7
6
CONTINUOUS
10
82.9654822335
20
126.7729187817
11
82.9480284979
21
124.7729187817
0
LINE
5
26F
100
AcDbEntity
8
0
100
AcDbLine
62
2
6
CONTINUOUS
10
98.9654822335
20
207.2650353826
11
114.9654822335
21
223.2650353826
0
LINE
5
270
100
AcDbEntity
8
0
100
AcDbLine
62
2
6
CONTINUOUS
10
98.9654822335
20
204.4366082579
11
114.9654822335
21
220.4366082579
0
LINE
5
271
100
AcDbEntity
8
0
100
AcDbLine
62
7
6
CONTINUOUS
10
94.9654822335
20
157.7829187817
11
97.4654822335
21
157.7829187817
0
LINE
5
272
100
AcDbEntity
8
0
100
AcDbLine
62
7
6
CONTINUOUS
10
116.4654822335
20
157.7829187817
11
118.9654822335
21
157.7829187817
0
LINE
5
273
100
AcDbEntity
8
0
100
AcDbLine
62
2
6
CONTINUOUS
10
128.0435522076
20
126.7729187817
11
125.0435522076
21
129.7729187817
0
LINE
5
274
100
AcDbEntity
8
0
100
AcDbLine
62
2
6
CONTINUOUS
10
124.8654822335
20
129.9509887558
11
117.7352170369
21
137.0812539524
0
LINE
5
275
100
AcDbEntity
8
0
100
AcDbLine
62
2
6
CONTINUOUS
10
132.8719793324
20
124.7729187817
11
130.9663054047
21
126.6785927094
0
LINE
5
276
100
AcDbEntity
8
0
100
AcDbLine
62
2
6
CONTINUOUS
10
130.8719793324
20
126.7729187817
11
127.8719793324
21
129.7729187817
0
LINE
5
277
100
AcDbEntity
8
0
100
AcDbLine
62
2
6
CONTINUOUS
10
124.8654822335
20
132.7794158806
11
118.9279720379
21
138.7169260762
0
LINE
5
278
100
AcDbEntity
8
0
100
AcDbLine
62
2
6
CONTINUOUS
10
134.2154822335
20
126.2578430053
11
130.7004064571
21
129.7729187817
0
LINE
5
279
100
AcDbEntity
8
0
100
AcDbLine
62
2
6
CONTINUOUS
10
124.8654822335
20
135.6078430053
11
119.4154822335
21
141.0578430053
0
LINE
5
27A
100
AcDbEntity
8
0
100
AcDbLine
62
7
6
CONTINUOUS
10
87.8154822335
20
126.7729187817
11
87.8154822335
21
124.7729187817
0
LINE
5
27B
100
AcDbEntity
8
0
100
AcDbLine
62
7
6
CONTINUOUS
10
89.0654822335
20
148.1729187817
11
89.0654822335
21
129.7729187817
0
LINE
5
27C
100
AcDbEntity
8
0
100
AcDbLine
62
7
6
CONTINUOUS
10
90.9654822335
20
148.6729187817
11
90.9654822335
21
141.6729187817
0
LINE
5
27D
100
AcDbEntity
8
0
100
AcDbLine
62
2
6
CONTINUOUS
10
98.9654822335
20
201.6081811331
11
114.9654822335
21
217.6081811331
0
LINE
5
27E
100
AcDbEntity
8
0
100
AcDbLine
62
2
6
CONTINUOUS
10
98.9654822335
20
198.7797540084
11
114.9654822335
21
214.7797540084
0
LINE
5
27F
100
AcDbEntity
8
0
100
AcDbLine
62
2
6
CONTINUOUS
10
98.9654822335
20
195.9513268836
11
114.9654822335
21
211.9513268836
0
LINE
5
280
100
AcDbEntity
8
0
100
AcDbLine
62
7
6
CONTINUOUS
10
94.9654822335
20
167.7829187817
11
98.9654822335
21
167.7829187817
0
LINE
5
281
100
AcDbEntity
8
0
100
AcDbLine
62
7
6
CONTINUOUS
10
114.9654822335
20
167.7829187817
11
118.9654822335
21
167.7829187817
0
LINE
5
282
100
AcDbEntity
8
0
100
AcDbLine
62
2
6
CONTINUOUS
10
134.2154822335
20
129.0862701301
11
133.5288335818
21
129.7729187817
0
LINE
5
283
100
AcDbEntity
8
0
100
AcDbLine
62
2
6
CONTINUOUS
10
124.8654822335
20
138.4362701301
11
119.4154822335
21
143.8862701301
0
LINE
5
284
100
AcDbEntity
8
0
100
AcDbLine
62
2
6
CONTINUOUS
10
122.9654822335
20
143.1646972548
11
119.4154822335
21
146.7146972548
0
LINE
5
285
100
AcDbEntity
8
0
100
AcDbLine
62
7
6
CONTINUOUS
10
94.1638319104
20
158.8547155515
11
94.1638319104
21
166.7111220120
0
LINE
5
286
100
AcDbEntity
8
0
100
AcDbLine
62
7
6
CONTINUOUS
10
94.5154822335
20
139.5976267013
11
94.5154822335
21
148.6729187817
0
LINE
5
287
100
AcDbEntity
8
0
100
AcDbLine
62
7
6
CONTINUOUS
10
94.8619347065
20
143.1443645033
11
94.8619347065
21
146.9214730602
0
LINE
5
288
100
AcDbEntity
8
0
100
AcDbLine
62
7
6
CONTINUOUS
10
94.8619347065
20
157.8427019743
11
94.8619347065
21
167.7231355892
0
LINE
5
289
100
AcDbEntity
8
0
100
AcDbLine
62
2
6
CONTINUOUS
10
98.9654822335
20
193.1228997589
11
114.9654822335
21
209.1228997589
0
LINE
5
28A
100
AcDbEntity
8
0
100
AcDbLine
62
2
6
CONTINUOUS
10
98.9654822335
20
190.2944726341
11
114.9654822335
21
206.2944726341
0
LINE
5
28B
100
AcDbEntity
8
0
100
AcDbLine
62
2
6
CONTINUOUS
10
144.1856878313
20
124.7729187817
11
142.7154822335
21
126.2431243796
0
LINE
5
28C
100
AcDbEntity
8
0
100
AcDbLine
62
2
6
CONTINUOUS
10
122.9654822335
20
145.9931243796
11
120.2856878313
21
148.6729187817
0
LINE
5
28D
100
AcDbEntity
8
0
100
AcDbLine
62
2
6
CONTINUOUS
10
145.9572516047
20
125.8297821332
11
142.7154822335
21
129.0715515043
0
LINE
5
28E
100
AcDbEntity
8
0
100
AcDbLine
62
2
6
CONTINUOUS
10
147.8425420808
20
126.7729187817
11
144.8425420808
21
129.7729187817
0
LINE
5
28F
100
AcDbEntity
8
0
100
AcDbLine
62
7
6
CONTINUOUS
10
98.4654822335
20
154.2693953827
11
98.4654822335
21
156.7829187817
0
LINE
5
290
100
AcDbEntity
8
0
100
AcDbLine
62
7
6
CONTINUOUS
10
98.9654822335
20
167.7829187817
11
98.9654822335
21
239.2829187817
0
LINE
5
291
100
AcDbEntity
8
0
100
AcDbLine
62
2
6
CONTINUOUS
10
100.0654822335
20
241.1881746701
11
100.0654822335
21
167.7829187817
0
LINE
5
292
100
AcDbEntity
8
0
100
AcDbLine
62
2
6
CONTINUOUS
10
98.9654822335
20
187.4660455094
11
114.9654822335
21
203.4660455094
0
LINE
5
293
100
AcDbEntity
8
0
100
AcDbLine
62
2
6
CONTINUOUS
10
98.9654822335
20
184.6376183846
11
114.9654822335
21
200.6376183846
0
LINE
5
294
100
AcDbEntity
8
0
100
AcDbLine
62
2
6
CONTINUOUS
10
98.9654822335
20
181.8091912599
11
114.9654822335
21
197.8091912599
0
LINE
5
295
100
AcDbEntity
8
0
100
AcDbLine
62
7
6
CONTINUOUS
10
119.0690297605
20
167.7231355892
11
118.9654822335
21
167.7829187817
0
LINE
5
296
100
AcDbEntity
8
0
100
AcDbLine
62
2
6
CONTINUOUS
10
150.6709692056
20
126.7729187817
11
147.6709692056
21
129.7729187817
0
LINE
5
297
100
AcDbEntity
8
0
100
AcDbLine
62
2
6
CONTINUOUS
10
151.3177771534
20
128.9545379587
11
148.7703582906
21
131.5019568215
0
LINE
5
298
100
AcDbEntity
8
0
100
AcDbLine
62
2
6
CONTINUOUS
10
151.4586271047
20
131.6421151321
11
149.1943288559
21
133.9064133809
0
LINE
5
299
100
AcDbEntity
8
0
100
AcDbLine
62
2
6
CONTINUOUS
10
98.9654822335
20
178.9807641351
11
114.9654822335
21
194.9807641351
0
LINE
5
29A
100
AcDbEntity
8
0
100
AcDbLine
62
2
6
CONTINUOUS
10
98.9654822335
20
176.1523370104
11
114.9654822335
21
192.1523370104
0
LINE
5
29B
100
AcDbEntity
8
0
100
AcDbLine
62
2
6
CONTINUOUS
10
154.1562505798
20
131.7729187817
11
150.1562505798
21
135.7729187817
0
LINE
5
29C
100
AcDbEntity
8
0
100
AcDbLine
62
7
6
CONTINUOUS
10
125.4428325027
20
146.1729187817
11
124.8654822335
21
147.1729187817
0
LINE
5
29D
100
AcDbEntity
8
0
100
AcDbLine
62
7
6
CONTINUOUS
10
88.4881319643
20
146.1729187817
11
89.0654822335
21
147.1729187817
0
LINE
5
29E
100
AcDbEntity
8
0
100
AcDbLine
62
2
6
CONTINUOUS
10
98.9654822335
20
173.3239098856
11
114.9654822335
21
189.3239098856
0
LINE
5
29F
100
AcDbEntity
8
0
100
AcDbLine
62
2
6
CONTINUOUS
10
59.6760306767
20
131.5716424952
11
59.8773069633
21
131.7729187817
0
LINE
5
2A0
100
AcDbEntity
8
0
100
AcDbLine
62
2
6
CONTINUOUS
10
94.8619347065
20
166.3919352339
11
96.2529182543
21
167.7829187817
0
LINE
5
2A1
100
AcDbEntity
8
0
100
AcDbLine
62
2
6
CONTINUOUS
10
98.9654822335
20
170.4954827609
11
114.9654822335
21
186.4954827609
0
LINE
5
2A2
100
AcDbEntity
8
0
100
AcDbLine
62
2
6
CONTINUOUS
10
59.8168806280
20
128.8840653217
11
62.4774462900
21
131.5446309837
0
LINE
5
2A3
100
AcDbEntity
8
0
100
AcDbLine
62
2
6
CONTINUOUS
10
94.8619347065
20
163.5635081092
11
114.9654822335
21
183.6670556362
0
LINE
5
2A4
100
AcDbEntity
8
0
100
AcDbLine
62
2
6
CONTINUOUS
10
76.6215034026
20
144.1728446063
11
78.7544186415
21
146.3057598453
0
LINE
5
2A5
100
AcDbEntity
8
0
100
AcDbLine
62
2
6
CONTINUOUS
10
113.8654822335
20
241.1881746701
11
113.8654822335
21
167.7829187817
0
LINE
5
2A6
100
AcDbEntity
8
0
100
AcDbLine
62
7
6
CONTINUOUS
10
114.9654822335
20
167.7829187817
11
114.9654822335
21
239.2829187817
0
LINE
5
2A7
100
AcDbEntity
8
0
100
AcDbLine
62
7
6
CONTINUOUS
10
115.4654822335
20
154.2693953827
11
115.4654822335
21
156.7829187817
0
LINE
5
2A8
100
AcDbEntity
8
0
100
AcDbLine
62
2
6
CONTINUOUS
10
59.9577305793
20
126.1964881483
11
62.6182962413
21
128.8570538103
0
LINE
5
2A9
100
AcDbEntity
8
0
100
AcDbLine
62
2
6
CONTINUOUS
10
94.8619347065
20
160.7350809844
11
114.9654822335
21
180.8386285114
0
LINE
5
2AA
100
AcDbEntity
8
0
100
AcDbLine
62
2
6
CONTINUOUS
10
60.3498634656
20
123.7601939098
11
63.3625883375
21
126.7729187817
0
LINE
5
2AB
100
AcDbEntity
8
0
100
AcDbLine
62
2
6
CONTINUOUS
10
94.8619347065
20
157.9066538597
11
114.9654822335
21
178.0102013867
0
LINE
5
2AC
100
AcDbEntity
8
0
100
AcDbLine
62
2
6
CONTINUOUS
10
62.8910154623
20
123.4729187817
11
66.1910154623
21
126.7729187817
0
LINE
5
2AD
100
AcDbEntity
8
0
100
AcDbLine
62
2
6
CONTINUOUS
10
97.5590406708
20
157.7753326992
11
114.9654822335
21
175.1817742619
0
LINE
5
2AE
100
AcDbEntity
8
0
100
AcDbLine
62
7
6
CONTINUOUS
10
94.8619347065
20
167.7231355892
11
94.9654822335
21
167.7829187817
0
LINE
5
2AF
100
AcDbEntity
8
0
100
AcDbLine
62
7
6
CONTINUOUS
10
119.0690297605
20
143.1443645033
11
119.0690297605
21
146.9214730602
0
LINE
5
2B0
100
AcDbEntity
8
0
100
AcDbLine
62
7
6
CONTINUOUS
10
119.0690297605
20
157.8427019743
11
119.0690297605
21
167.7231355892
0
LINE
5
2B1
100
AcDbEntity
8
0
100
AcDbLine
62
7
6
CONTINUOUS
10
119.4154822335
20
139.5976267013
11
119.4154822335
21
148.6729187817
0
LINE
5
2B2
100
AcDbEntity
8
0
100
AcDbLine
62
7
6
CONTINUOUS
10
122.9654822335
20
148.6729187817
11
122.9654822335
21
141.6729187817
0
LINE
5
2B3
100
AcDbEntity
8
0
100
AcDbLine
62
2
6
CONTINUOUS
10
65.7194425870
20
123.4729187817
11
67.9746004328
21
125.7280766276
0
LINE
5
2B4
100
AcDbEntity
8
0
100
AcDbLine
62
2
6
CONTINUOUS
10
89.0654822335
20
146.8189584282
11
90.9173585419
21
148.6708347367
0
LINE
5
2B5
100
AcDbEntity
8
0
100
AcDbLine
62
2
6
CONTINUOUS
10
98.4654822335
20
155.8533471372
11
114.9654822335
21
172.3533471372
0
LINE
5
2B6
100
AcDbEntity
8
0
100
AcDbLine
62
2
6
CONTINUOUS
10
68.5478697118
20
123.4729187817
11
69.8478697118
21
124.7729187817
0
LINE
5
2B7
100
AcDbEntity
8
0
100
AcDbLine
62
2
6
CONTINUOUS
10
89.0654822335
20
143.9905313035
11
90.9654822335
21
145.8905313035
0
LINE
5
2B8
100
AcDbEntity
8
0
100
AcDbLine
62
2
6
CONTINUOUS
10
96.0786564663
20
150.6380942452
11
114.9654822335
21
169.5249200124
0
LINE
5
2B9
100
AcDbEntity
8
0
100
AcDbLine
62
7
6
CONTINUOUS
10
124.8654822335
20
148.1729187817
11
124.8654822335
21
129.7729187817
0
LINE
5
2BA
100
AcDbEntity
8
0
100
AcDbLine
62
7
6
CONTINUOUS
10
126.1154822335
20
126.7729187817
11
126.1154822335
21
124.7729187817
0
LINE
5
2BB
100
AcDbEntity
8
0
100
AcDbLine
62
2
6
CONTINUOUS
10
71.3762968365
20
123.4729187817
11
73.6762968365
21
125.7729187817
0
LINE
5
2BC
100
AcDbEntity
8
0
100
AcDbLine
62
2
6
CONTINUOUS
10
89.0875388374
20
141.1841607826
11
90.9654822335
21
143.0621041787
0
LINE
5
2BD
100
AcDbEntity
8
0
100
AcDbLine
62
2
6
CONTINUOUS
10
94.8619347065
20
146.5929453607
11
116.0519081276
21
167.7829187817
0
LINE
5
2BE
100
AcDbEntity
8
0
100
AcDbLine
62
2
6
CONTINUOUS
10
74.2047239612
20
123.4729187817
11
76.5047239612
21
125.7729187817
0
LINE
5
2BF
100
AcDbEntity
8
0
100
AcDbLine
62
2
6
CONTINUOUS
10
94.8619347065
20
143.7645182360
11
118.8803352523
21
167.7829187817
0
LINE
5
2C0
100
AcDbEntity
8
0
100
AcDbLine
62
2
6
CONTINUOUS
10
77.0331510860
20
123.4729187817
11
79.3331510860
21
125.7729187817
0
LINE
5
2C1
100
AcDbEntity
8
0
100
AcDbLine
62
2
6
CONTINUOUS
10
95.2865908037
20
141.3607472084
11
119.0690297605
21
165.1431861651
0
LINE
5
2C2
100
AcDbEntity
8
0
100
AcDbLine
62
7
6
CONTINUOUS
10
130.9654822335
20
126.7729187817
11
130.9829359691
21
124.7729187817
0
LINE
5
2C3
100
AcDbEntity
8
0
100
AcDbLine
62
2
6
CONTINUOUS
10
79.8615782107
20
123.4729187817
11
81.1615782107
21
124.7729187817
0
LINE
5
2C4
100
AcDbEntity
8
0
100
AcDbLine
62
2
6
CONTINUOUS
10
82.9637558640
20
126.5750964350
11
83.1615782107
21
126.7729187817
0
LINE
5
2C5
100
AcDbEntity
8
0
100
AcDbLine
62
2
6
CONTINUOUS
10
96.1134922772
20
139.3592215571
11
119.0690297605
21
162.3147590404
0
LINE
5
2C6
100
AcDbEntity
8
0
100
AcDbLine
62
2
6
CONTINUOUS
10
82.6900053355
20
123.4729187817
11
85.9900053355
21
126.7729187817
0
LINE
5
2C7
100
AcDbEntity
8
0
100
AcDbLine
62
2
6
CONTINUOUS
10
97.2118162558
20
137.6291184110
11
115.4654822335
21
155.8827843887
0
LINE
5
2C8
100
AcDbEntity
8
0
100
AcDbLine
62
2
6
CONTINUOUS
10
117.3656166265
20
157.7829187817
11
119.0690297605
21
159.4863319157
0
LINE
5
2C9
100
AcDbEntity
8
0
100
AcDbLine
62
7
6
CONTINUOUS
10
133.9654822335
20
125.7729187817
11
133.9654822335
21
124.7729187817
0
LINE
5
2CA
100
AcDbEntity
8
0
100
AcDbLine
62
7
6
CONTINUOUS
10
134.2154822335
20
129.7729187817
11
134.2154822335
21
125.7729187817
0
LINE
5
2CB
100
AcDbEntity
8
0
100
AcDbLine
62
7
6
CONTINUOUS
10
109.1098198008
20
131.2229187817
11
109.5773685720
21
132.0327370084
0
LINE
5
2CC
100
AcDbEntity
8
0
100
AcDbLine
62
2
6
CONTINUOUS
10
85.5184324602
20
123.4729187817
11
87.8154822335
21
125.7699685550
0
LINE
5
2CD
100
AcDbEntity
8
0
100
AcDbLine
62
2
6
CONTINUOUS
10
98.5504067808
20
136.1392818113
11
115.8597366889
21
153.4486117194
0
LINE
5
2CE
100
AcDbEntity
8
0
100
AcDbLine
62
2
6
CONTINUOUS
10
88.3468595850
20
123.4729187817
11
89.6468595850
21
124.7729187817
0
LINE
5
2CF
100
AcDbEntity
8
0
100
AcDbLine
62
2
6
CONTINUOUS
10
100.1215137759
20
134.8819616816
11
117.1161182940
21
151.8765661997
0
LINE
5
2D0
100
AcDbEntity
8
0
100
AcDbLine
62
2
6
CONTINUOUS
10
91.1752867097
20
123.4729187817
11
92.4752867097
21
124.7729187817
0
LINE
5
2D1
100
AcDbEntity
8
0
100
AcDbLine
62
2
6
CONTINUOUS
10
101.9377273481
20
133.8697481290
11
118.1269034478
21
150.0589242288
0
LINE
5
2D2
100
AcDbEntity
8
0
100
AcDbLine
62
7
6
CONTINUOUS
10
118.9654822335
20
157.7829187817
11
119.0690297605
21
157.8427019743
0
LINE
5
2D3
100
AcDbEntity
8
0
100
AcDbLine
62
7
6
CONTINUOUS
10
154.7654822335
20
130.1466500840
11
155.2654795092
21
128.7729187817
0
LINE
5
2D4
100
AcDbEntity
8
0
100
AcDbLine
62
7
6
CONTINUOUS
10
153.6688289203
20
134.7859489967
11
154.7654822335
21
131.7729187817
0
LINE
5
2D5
100
AcDbEntity
8
DEFAULT_1
100
AcDbLine
62
2
6
CENTER
10
138.4654822335
20
118.1824138731
11
138.4654822335
21
134.4204593544
0
LINE
5
2D6
100
AcDbEntity
8
0
100
AcDbLine
62
7
6
CONTINUOUS
10
142.7154822335
20
129.7729187817
11
142.7154822335
21
125.7729187817
0
LINE
5
2D7
100
AcDbEntity
8
0
100
AcDbLine
62
7
6
CONTINUOUS
10
142.9654822335
20
125.7729187817
11
142.9654822335
21
124.7729187817
0
LINE
5
2D8
100
AcDbEntity
8
0
100
AcDbLine
62
2
6
CONTINUOUS
10
94.0037138345
20
123.4729187817
11
95.3037138345
21
124.7729187817
0
LINE
5
2D9
100
AcDbEntity
8
0
100
AcDbLine
62
2
6
CONTINUOUS
10
104.6793251255
20
133.7829187817
11
118.8565057388
21
147.9600993950
0
LINE
5
2DA
100
AcDbEntity
8
0
100
AcDbLine
62
2
6
CONTINUOUS
10
96.8321409592
20
123.4729187817
11
98.1321409592
21
124.7729187817
0
LINE
5
2DB
100
AcDbEntity
8
0
100
AcDbLine
62
2
6
CONTINUOUS
10
107.5077522503
20
133.7829187817
11
119.0690297605
21
145.3441962919
0
LINE
5
2DC
100
AcDbEntity
8
0
100
AcDbLine
62
7
6
CONTINUOUS
10
114.9654822335
20
239.2829187817
11
113.5221065605
21
241.7829187817
0
LINE
5
2DD
100
AcDbEntity
8
0
100
AcDbLine
62
7
6
CONTINUOUS
10
145.9654822335
20
126.7729187817
11
145.9480284979
21
124.7729187817
0
LINE
5
2DE
100
AcDbEntity
8
0
100
AcDbLine
62
2
6
CONTINUOUS
10
99.6605680840
20
123.4729187817
11
100.9605680840
21
124.7729187817
0
LINE
5
2DF
100
AcDbEntity
8
0
100
AcDbLine
62
2
6
CONTINUOUS
10
122.9654822335
20
146.7778329313
11
124.5282089172
21
148.3405596150
0
LINE
5
2E0
100
AcDbEntity
8
0
100
AcDbLine
62
2
6
CONTINUOUS
10
110.3361793750
20
133.7829187817
11
118.9120857106
21
142.3588251173
0
LINE
5
2E1
100
AcDbEntity
8
0
100
AcDbLine
62
2
6
CONTINUOUS
10
102.4889952087
20
123.4729187817
11
103.7889952087
21
124.7729187817
0
LINE
5
2E2
100
AcDbEntity
8
0
100
AcDbLine
62
2
6
CONTINUOUS
10
122.9654822335
20
143.9494058065
11
124.8654822335
21
145.8494058065
0
LINE
5
2E3
100
AcDbEntity
8
0
100
AcDbLine
62
2
6
CONTINUOUS
10
126.1285417227
20
146.1057386882
11
127.5542258310
21
147.5314227965
0
LINE
5
2E4
100
AcDbEntity
8
0
100
AcDbLine
62
2
6
CONTINUOUS
10
105.3174223335
20
123.4729187817
11
106.6174223335
21
124.7729187817
0
LINE
5
2E5
100
AcDbEntity
8
0
100
AcDbLine
62
2
6
CONTINUOUS
10
123.4795006735
20
141.6349971218
11
124.8654822335
21
143.0209786818
0
LINE
5
2E6
100
AcDbEntity
8
0
100
AcDbLine
62
2
6
CONTINUOUS
10
108.1458494582
20
123.4729187817
11
109.4458494582
21
124.7729187817
0
LINE
5
2E7
100
AcDbEntity
8
0
100
AcDbLine
62
2
6
CONTINUOUS
10
110.9742765829
20
123.4729187817
11
112.2742765829
21
124.7729187817
0
LINE
5
2E8
100
AcDbEntity
8
0
100
AcDbLine
62
2
6
CONTINUOUS
10
113.8027037077
20
123.4729187817
11
115.1027037077
21
124.7729187817
0
LINE
5
2E9
100
AcDbEntity
8
0
100
AcDbLine
62
7
6
CONTINUOUS
10
154.7654822335
20
130.1466500840
11
154.7654822335
21
132.2729187817
0
LINE
5
2EA
100
AcDbEntity
8
0
100
AcDbLine
62
7
6
CONTINUOUS
10
156.2654822335
20
128.7729187817
11
156.2654822335
21
132.2725965483
0
LINE
5
2EB
100
AcDbEntity
8
0
100
AcDbLine
62
7
6
CONTINUOUS
10
151.4654822335
20
131.7729187817
11
151.2034433371
21
126.7729187817
0
LINE
5
2EC
100
AcDbEntity
8
0
100
AcDbLine
62
7
6
CONTINUOUS
10
154.2654822335
20
131.7729187817
11
153.8801626335
21
124.4205828255
0
LINE
5
2ED
100
AcDbEntity
8
0
100
AcDbLine
62
7
6
CONTINUOUS
10
149.5234441178
20
135.7729187817
11
148.4654822335
21
129.7729187817
0
LINE
5
2EE
100
AcDbEntity
8
0
100
AcDbLine
62
2
6
CONTINUOUS
10
136.3569680284
20
144.4406289343
11
137.5801477321
21
145.6638086381
0
LINE
5
2EF
100
AcDbEntity
8
0
100
AcDbLine
62
2
6
CONTINUOUS
10
116.6311308324
20
123.4729187817
11
117.9311308324
21
124.7729187817
0
LINE
5
2F0
100
AcDbEntity
8
0
100
AcDbLine
62
2
6
CONTINUOUS
10
119.4595579572
20
123.4729187817
11
120.7595579572
21
124.7729187817
0
LINE
5
2F1
100
AcDbEntity
8
0
100
AcDbLine
62
2
6
CONTINUOUS
10
122.2879850819
20
123.4729187817
11
123.5879850819
21
124.7729187817
0
LINE
5
2F2
100
AcDbEntity
8
0
100
AcDbLine
62
2
6
CONTINUOUS
10
125.1164122067
20
123.4729187817
11
128.4164122067
21
126.7729187817
0
LINE
5
2F3
100
AcDbEntity
8
0
100
AcDbLine
62
2
6
CONTINUOUS
10
144.8587311876
20
141.0488560340
11
145.9744102625
21
142.1645351088
0
LINE
5
2F4
100
AcDbEntity
8
0
100
AcDbLine
62
2
6
CONTINUOUS
10
127.9448393314
20
123.4729187817
11
130.9678990547
21
126.4959785050
0
LINE
5
2F5
100
AcDbEntity
8
0
100
AcDbLine
62
2
6
CONTINUOUS
10
130.7732664562
20
123.4729187817
11
132.0732664562
21
124.7729187817
0
LINE
5
2F6
100
AcDbEntity
8
0
100
AcDbLine
62
2
6
CONTINUOUS
10
133.6016935809
20
123.4729187817
11
135.9016935809
21
125.7729187817
0
LINE
5
2F7
100
AcDbEntity
8
0
100
AcDbLine
62
7
6
CONTINUOUS
10
100.4088579065
20
241.7829187817
11
113.5221065605
21
241.7829187817
0
LINE
5
2F8
100
AcDbEntity
8
0
100
AcDbLine
62
2
6
CONTINUOUS
10
136.4301207057
20
123.4729187817
11
138.7301207057
21
125.7729187817
0
LINE
5
2F9
100
AcDbEntity
8
0
100
AcDbLine
62
2
6
CONTINUOUS
10
152.0605963232
20
136.3571851100
11
153.1268727693
21
137.4234615561
0
LINE
5
2FA
100
AcDbEntity
8
0
100
AcDbLine
62
2
6
CONTINUOUS
10
139.2585478304
20
123.4729187817
11
141.5585478304
21
125.7729187817
0
LINE
5
2FB
100
AcDbEntity
8
0
100
AcDbLine
62
2
6
CONTINUOUS
10
142.0869749552
20
123.4729187817
11
143.3869749552
21
124.7729187817
0
LINE
5
2FC
100
AcDbEntity
8
0
100
AcDbLine
62
2
6
CONTINUOUS
10
144.9154020799
20
123.4729187817
11
148.2154020799
21
126.7729187817
0
LINE
5
2FD
100
AcDbEntity
8
0
100
AcDbLine
62
2
6
CONTINUOUS
10
151.3687007160
20
129.9262174178
11
153.2154020799
21
131.7729187817
0
LINE
5
2FE
100
AcDbEntity
8
0
100
AcDbLine
62
2
6
CONTINUOUS
10
147.7438292046
20
123.4729187817
11
151.0438292046
21
126.7729187817
0
LINE
5
2FF
100
AcDbEntity
8
0
100
AcDbLine
62
2
6
CONTINUOUS
10
151.2122709974
20
126.9413605745
11
154.1671285181
21
129.8962180952
0
LINE
5
300
100
AcDbEntity
8
0
100
AcDbLine
62
2
6
CONTINUOUS
10
150.5722563294
20
123.4729187817
11
154.0106987995
21
126.9113612518
0
ARC
5
301
100
AcDbEntity
8
0
100
AcDbCircle
62
7
6
CONTINUOUS
10
63.1654822335
20
132.2725965483
40
5.5000000000
100
AcDbArc
50
130.6811807651
51
180.0000000000
0
ARC
5
302
100
AcDbEntity
8
0
100
AcDbCircle
62
7
6
CONTINUOUS
10
89.8911464441
20
101.1804941014
40
46.4997556342
100
AcDbArc
50
91.0174152563
51
130.6811807651
0
ARC
5
303
100
AcDbEntity
8
0
100
AcDbCircle
62
7
6
CONTINUOUS
10
89.8911464441
20
101.1804941014
40
45.0000000000
100
AcDbArc
50
91.0513273179
51
130.6808872323
0
ARC
5
304
100
AcDbEntity
8
0
100
AcDbCircle
62
7
6
CONTINUOUS
10
63.1654822335
20
132.2729187817
40
4.0000000000
100
AcDbArc
50
130.6808872323
51
180.0000000000
0
ARC
5
305
100
AcDbEntity
8
0
100
AcDbCircle
62
7
6
CONTINUOUS
10
150.7654822335
20
132.2725965483
40
5.5000000000
100
AcDbArc
50
0.0000000000
51
49.3188192349
0
ARC
5
306
100
AcDbEntity
8
0
100
AcDbCircle
62
7
6
CONTINUOUS
10
124.0398180229
20
101.1804941014
40
46.4997556342
100
AcDbArc
50
49.3188192349
51
88.9825847437
0
ARC
5
307
100
AcDbEntity
8
0
100
AcDbCircle
62
7
6
CONTINUOUS
10
124.0398180229
20
101.1804941014
40
45.0000000000
100
AcDbArc
50
49.3191127677
51
88.9486726821
0
ARC
5
308
100
AcDbEntity
8
0
100
AcDbCircle
62
7
6
CONTINUOUS
10
150.7654822335
20
132.2729187817
40
4.0000000000
100
AcDbArc
50
0.0000000000
51
49.3191127677
0
ARC
5
309
100
AcDbEntity
8
0
100
AcDbCircle
62
7
6
CONTINUOUS
10
122.9654822335
20
144.8129187817
40
3.8600000000
100
AcDbArc
50
60.5128743271
51
90.0000000000
0
ARC
5
30A
100
AcDbEntity
8
0
100
AcDbCircle
62
7
6
CONTINUOUS
10
90.9654822335
20
144.8129187817
40
3.8600000000
100
AcDbArc
50
90.0000000000
51
119.4871256729
0
ARC
5
30B
100
AcDbEntity
8
0
100
AcDbCircle
62
7
6
CONTINUOUS
10
61.0494313683
20
124.4729187817
40
1.0000000000
100
AcDbArc
50
183.0000000000
51
270.0000000000
0
ARC
5
30C
100
AcDbEntity
8
0
100
AcDbCircle
62
7
6
CONTINUOUS
10
152.8815330987
20
124.4729187817
40
1.0000000000
100
AcDbArc
50
270.0000000000
51
357.0000000000
0
ARC
5
30D
100
AcDbEntity
8
0
100
AcDbCircle
62
7
6
CONTINUOUS
10
152.2592899891
20
134.2729187817
40
1.5000000000
100
AcDbArc
50
20.0000000000
51
90.0000000000
0
ARC
5
30E
100
AcDbEntity
8
0
100
AcDbCircle
62
7
6
CONTINUOUS
10
61.6716744779
20
134.2729187817
40
1.5000000000
100
AcDbArc
50
90.0000000000
51
160.0000000000
0
ARC
5
30F
100
AcDbEntity
8
0
100
AcDbCircle
62
7
6
CONTINUOUS
10
122.9654822335
20
137.8129187817
40
3.8600000000
100
AcDbArc
50
60.5128743271
51
90.0000000000
0
ARC
5
310
100
AcDbEntity
8
0
100
AcDbCircle
62
7
6
CONTINUOUS
10
105.2541573681
20
131.4729187817
40
0.5000000000
100
AcDbArc
50
210.0000000000
51
270.0000000000
0
ARC
5
311
100
AcDbEntity
8
0
100
AcDbCircle
62
7
6
CONTINUOUS
10
108.6768070989
20
131.4729187817
40
0.5000000000
100
AcDbArc
50
270.0000000000
51
330.0000000000
0
ARC
5
312
100
AcDbEntity
8
0
100
AcDbCircle
62
7
6
CONTINUOUS
10
90.9654822335
20
137.8129187817
40
3.8600000000
100
AcDbArc
50
90.0000000000
51
119.4871256729
0
ARC
5
313
100
AcDbEntity
8
0
100
AcDbCircle
62
7
6
CONTINUOUS
10
108.5154822335
20
145.0329187817
40
12.1800000000
100
AcDbArc
50
297.2052048034
51
333.4968318668
0
ARC
5
314
100
AcDbEntity
8
0
100
AcDbCircle
62
7
6
CONTINUOUS
10
106.9654822335
20
144.1329187817
40
12.2200000000
100
AcDbArc
50
283.8498828148
51
305.6282265912
0
ARC
5
315
100
AcDbEntity
8
0
100
AcDbCircle
62
7
6
CONTINUOUS
10
110.0103812739
20
131.7827370084
40
0.5000000000
100
AcDbArc
50
103.8498828148
51
150.0000000000
0
ARC
5
316
100
AcDbEntity
8
0
100
AcDbCircle
62
7
6
CONTINUOUS
10
103.9205831931
20
131.7827370084
40
0.5000000000
100
AcDbArc
50
30.0000000000
51
76.1501171852
0
ARC
5
317
100
AcDbEntity
8
0
100
AcDbCircle
62
7
6
CONTINUOUS
10
106.9654822335
20
144.1329187817
40
12.2200000000
100
AcDbArc
50
234.3717734088
51
256.1501171852
0
ARC
5
318
100
AcDbEntity
8
0
100
AcDbCircle
62
7
6
CONTINUOUS
10
105.4154822335
20
145.0329187817
40
12.1800000000
100
AcDbArc
50
206.5031681332
51
242.7947951966
0
ARC
5
319
100
AcDbEntity
8
0
100
AcDbCircle
62
7
6
CONTINUOUS
10
97.4654822335
20
154.2693953827
40
1.0000000000
100
AcDbArc
50
315.8057962771
51
360.0000000000
0
ARC
5
31A
100
AcDbEntity
8
0
100
AcDbCircle
62
7
6
CONTINUOUS
10
116.4654822335
20
154.2693953827
40
1.0000000000
100
AcDbArc
50
180.0000000000
51
224.1942037229
0
ARC
5
31B
100
AcDbEntity
8
0
100
AcDbCircle
62
7
6
CONTINUOUS
10
106.9654822335
20
145.0329187817
40
12.2500000000
100
AcDbArc
50
293.3114456815
51
351.1314714371
0
ARC
5
31C
100
AcDbEntity
8
0
100
AcDbCircle
62
7
6
CONTINUOUS
10
106.9654822335
20
145.0329187817
40
12.2500000000
100
AcDbArc
50
8.8685285629
51
44.1942037229
0
ARC
5
31D
100
AcDbEntity
8
0
100
AcDbCircle
62
7
6
CONTINUOUS
10
97.4654822335
20
156.7829187817
40
1.0000000000
100
AcDbArc
50
0.0000000000
51
90.0000000000
0
ARC
5
31E
100
AcDbEntity
8
0
100
AcDbCircle
62
7
6
CONTINUOUS
10
116.4654822335
20
156.7829187817
40
1.0000000000
100
AcDbArc
50
90.0000000000
51
180.0000000000
0
ARC
5
31F
100
AcDbEntity
8
0
100
AcDbCircle
62
7
6
CONTINUOUS
10
106.9654822335
20
145.0329187817
40
12.2500000000
100
AcDbArc
50
188.8685285629
51
246.6885543185
0
ARC
5
320
100
AcDbEntity
8
0
100
AcDbCircle
62
7
6
CONTINUOUS
10
106.9654822335
20
145.0329187817
40
12.2500000000
100
AcDbArc
50
135.8057962771
51
171.1314714371
0
SPLINE
5
321
100
AcDbEntity
8
0
100
AcDbSpline
62
7
6
CONTINUOUS
70
0
71
3
72
10
73
6
74
4
42
0.0000001000
43
0.0000001000
44
0.0000000001
12
18.0990357315
22
-5.3974152037
32
0.0000000000
13
18.0978479022
23
-5.4013967267
33
0.0000000000
40
0.0000000000
40
0.0000000000
40
0.0000000000
40
0.0000000000
40
0.3152682808
40
0.6487522384
40
1.0000000000
40
1.0000000000
40
1.0000000000
40
1.0000000000
10
128.6283920922
20
141.1729187817
30
0.0000000000
10
130.5304093850
20
140.6057075111
30
0.0000000000
10
134.4442469236
20
139.4382024640
30
0.0000000000
10
140.4769729640
20
137.6381057333
30
0.0000000000
10
144.6077139099
20
136.4053282849
30
0.0000000000
10
146.7266567649
20
135.7729187817
30
0.0000000000
11
128.6283920922
21
141.1729187817
31
0.0000000000
11
134.3343321569
21
139.4709100725
31
0.0000000000
11
140.3697950614
21
137.6700362542
31
0.0000000000
11
146.7266567649
21
135.7729187817
31
0.0000000000
0
SPLINE
5
322
100
AcDbEntity
8
0
100
AcDbSpline
62
7
6
CONTINUOUS
70
0
71
3
72
10
73
6
74
4
42
0.0000001000
43
0.0000001000
44
0.0000000001
12
-18.0990357315
22
-5.3974152037
32
0.0000000000
13
-18.0978479022
23
-5.4013967267
33
0.0000000000
40
0.0000000000
40
0.0000000000
40
0.0000000000
40
0.0000000000
40
0.3152682806
40
0.6487522383
40
1.0000000000
40
1.0000000000
40
1.0000000000
40
1.0000000000
10
85.3025723748
20
141.1729187817
30
0.0000000000
10
83.4005550828
20
140.6057075114
30
0.0000000000
10
79.4867175450
20
139.4382024645
30
0.0000000000
10
73.4539915046
20
137.6381057338
30
0.0000000000
10
69.3232505579
20
136.4053282852
30
0.0000000000
10
67.2043077021
20
135.7729187817
30
0.0000000000
11
85.3025723748
21
141.1729187817
31
0.0000000000
11
79.5966323125
21
139.4709100732
31
0.0000000000
11
73.5611694080
21
137.6700362549
31
0.0000000000
11
67.2043077021
21
135.7729187817
31
0.0000000000
0
SPLINE
5
323
100
AcDbEntity
8
0
100
AcDbSpline
62
7
6
CONTINUOUS
70
0
71
3
72
10
73
6
74
4
42
0.0000001000
43
0.0000001000
44
0.0000000001
12
-0.9591425890
22
-6.0000117197
32
0.0000000000
13
-0.9592910813
23
-5.9999879803
33
0.0000000000
40
0.0000000000
40
0.0000000000
40
0.0000000000
40
0.0000000000
40
0.3343655099
40
0.6676993882
40
1.0000000000
40
1.0000000000
40
1.0000000000
40
1.0000000000
10
146.7266567649
20
135.7729187817
30
0.0000000000
10
146.6197553646
20
135.1041864558
30
0.0000000000
10
146.4062770720
20
133.7687859213
30
0.0000000000
10
146.0865385960
20
131.7687858962
30
0.0000000000
10
145.8736985372
20
130.4375186740
30
0.0000000000
10
145.7674408661
20
129.7729187817
30
0.0000000000
11
146.7266567649
21
135.7729187817
31
0.0000000000
11
146.4059445051
21
133.7667230922
31
0.0000000000
11
146.0862054370
21
131.7667198082
31
0.0000000000
11
145.7674408661
21
129.7729187817
31
0.0000000000
0
SPLINE
5
324
100
AcDbEntity
8
0
100
AcDbSpline
62
7
6
CONTINUOUS
70
0
71
3
72
10
73
6
74
4
42
0.0000001000
43
0.0000001000
44
0.0000000001
12
-0.9592910813
22
5.9999879803
32
0.0000000000
13
-0.9591425890
23
6.0000117197
33
0.0000000000
40
0.0000000000
40
0.0000000000
40
0.0000000000
40
0.0000000000
40
0.3322962881
40
0.6656301620
40
1.0000000000
40
1.0000000000
40
1.0000000000
40
1.0000000000
10
68.1635236009
20
129.7729187817
30
0.0000000000
10
68.0572673124
20
130.4375100265
30
0.0000000000
10
67.8444286374
20
131.7687685924
30
0.0000000000
10
67.5246901613
20
133.7687686175
30
0.0000000000
10
67.3112104862
20
135.1041777994
30
0.0000000000
10
67.2043077021
20
135.7729187817
30
0.0000000000
11
68.1635236009
21
129.7729187817
31
0.0000000000
11
67.8447631775
21
131.7666938657
31
0.0000000000
11
67.5250241135
21
133.7666971232
31
0.0000000000
11
67.2043077021
21
135.7729187817
31
0.0000000000
0
SPLINE
5
325
100
AcDbEntity
8
0
100
AcDbSpline
62
7
6
CONTINUOUS
70
0
71
3
72
11
73
7
74
5
42
0.0000001000
43
0.0000001000
44
0.0000000001
12
0.0000000000
22
-1.8935818444
32
0.0000000000
13
0.2919291505
23
-1.8709434980
33
0.0000000000
40
0.0000000000
40
0.0000000000
40
0.0000000000
40
0.0000000000
40
0.2826507558
40
0.5517622799
40
0.7948274375
40
1.0000000000
40
1.0000000000
40
1.0000000000
40
1.0000000000
10
94.7467604204
20
145.0329187817
30
0.0000000000
10
94.7467604204
20
144.8545113352
30
0.0000000000
10
94.7516472739
20
144.5062225640
30
0.0000000000
10
94.7733790181
20
144.0049176999
30
0.0000000000
10
94.8082340801
20
143.5533951589
30
0.0000000000
10
94.8419694226
20
143.2723199272
30
0.0000000000
10
94.8619347065
20
143.1443645033
30
0.0000000000
11
94.7467604204
21
145.0329187817
31
0.0000000000
11
94.7544436411
21
144.4977515921
31
0.0000000000
11
94.7770954903
21
143.9886706003
31
0.0000000000
11
94.8135909707
21
143.5298560219
31
0.0000000000
11
94.8619347065
21
143.1443645033
31
0.0000000000
0
SPLINE
5
326
100
AcDbEntity
8
0
100
AcDbSpline
62
7
6
CONTINUOUS
70
0
71
3
72
11
73
7
74
5
42
0.0000001000
43
0.0000001000
44
0.0000000001
12
-0.2919291505
22
-1.8709434980
32
0.0000000000
13
0.0000000000
23
-1.8935818444
33
0.0000000000
40
0.0000000000
40
0.0000000000
40
0.0000000000
40
0.0000000000
40
0.2051725625
40
0.4482377201
40
0.7173492442
40
1.0000000000
40
1.0000000000
40
1.0000000000
40
1.0000000000
10
94.8619347065
20
146.9214730602
30
0.0000000000
10
94.8419694226
20
146.7935176362
30
0.0000000000
10
94.8082340801
20
146.5124424046
30
0.0000000000
10
94.7733790181
20
146.0609198635
30
0.0000000000
10
94.7516472739
20
145.5596149995
30
0.0000000000
10
94.7467604204
20
145.2113262282
30
0.0000000000
10
94.7467604204
20
145.0329187817
30
0.0000000000
11
94.8619347065
21
146.9214730602
31
0.0000000000
11
94.8135909707
21
146.5359815415
31
0.0000000000
11
94.7770954903
21
146.0771669631
31
0.0000000000
11
94.7544436411
21
145.5680859714
31
0.0000000000
11
94.7467604204
21
145.0329187817
31
0.0000000000
0
SPLINE
5
327
100
AcDbEntity
8
0
100
AcDbSpline
62
7
6
CONTINUOUS
70
0
71
3
72
11
73
7
74
5
42
0.0000001000
43
0.0000001000
44
0.0000000001
12
0.5126194970
22
-1.1337226633
32
0.0000000000
13
1.0775339296
23
-0.6221145043
33
0.0000000000
40
0.0000000000
40
0.0000000000
40
0.0000000000
40
0.0000000000
40
0.3315338465
40
0.6043894907
40
0.8245672492
40
1.0000000000
40
1.0000000000
40
1.0000000000
40
1.0000000000
10
94.1638319104
20
158.8547155515
30
0.0000000000
10
94.2204821483
20
158.7294264063
30
0.0000000000
10
94.3295668897
20
158.5035409849
30
0.0000000000
10
94.5033221440
20
158.2082225709
30
0.0000000000
10
94.6727013617
20
157.9878475643
30
0.0000000000
10
94.7989231261
20
157.8790817272
30
0.0000000000
10
94.8619347065
20
157.8427019743
30
0.0000000000
11
94.1638319104
21
158.8547155515
31
0.0000000000
11
94.3456562155
21
158.4844460602
31
0.0000000000
11
94.5208647208
21
158.1936561497
31
0.0000000000
11
94.6920863871
21
157.9798043435
31
0.0000000000
11
94.8619347065
21
157.8427019743
31
0.0000000000
0
SPLINE
5
328
100
AcDbEntity
8
0
100
AcDbSpline
62
7
6
CONTINUOUS
70
0
71
3
72
11
73
7
74
5
42
0.0000001000
43
0.0000001000
44
0.0000000001
12
0.5126194970
22
1.1337226633
32
0.0000000000
13
1.0775339296
23
0.6221145043
33
0.0000000000
40
0.0000000000
40
0.0000000000
40
0.0000000000
40
0.0000000000
40
0.3315338468
40
0.6043894912
40
0.8245672506
40
1.0000000000
40
1.0000000000
40
1.0000000000
40
1.0000000000
10
94.1638319104
20
166.7111220120
30
0.0000000000
10
94.2204821484
20
166.8364111573
30
0.0000000000
10
94.3295668899
20
167.0622965789
30
0.0000000000
10
94.5033221445
20
167.3576149934
30
0.0000000000
10
94.6727013623
20
167.5779899998
30
0.0000000000
10
94.7989231266
20
167.6867558365
30
0.0000000000
10
94.8619347065
20
167.7231355892
30
0.0000000000
11
94.1638319104
21
166.7111220120
31
0.0000000000
11
94.3456562157
21
167.0813915036
31
0.0000000000
11
94.5208647211
21
167.3721814143
31
0.0000000000
11
94.6920863883
21
167.5860332212
31
0.0000000000
11
94.8619347065
21
167.7231355892
31
0.0000000000
0
ENDSEC
0
SECTION
2
OBJECTS
0
DICTIONARY
5
C
100
AcDbDictionary
280
0
281
1
3
ACAD_GROUP
350
D
3
ACAD_MLINESTYLE
350
17
3
ACAD_LAYOUT
350
1A
3
ACAD_PLOTSETTINGS
350
19
3
ACAD_PLOTSTYLENAME
350
E
0
DICTIONARY
5
D
102
{ACAD_REACTORS
330
C
102
}
100
AcDbDictionary
280
0
281
1
0
ACDBDICTIONARYWDFLT
5
E
102
{ACAD_REACTORS
330
C
102
}
100
AcDbDictionary
281
1
3
Normal
350
F
100
AcDbDictionaryWithDefault
340
F
0
DICTIONARY
5
17
102
{ACAD_REACTORS
330
C
102
}
100
AcDbDictionary
280
0
281
1
3
Standard
350
18
0
DICTIONARY
5
19
102
{ACAD_REACTORS
330
C
102
}
100
AcDbDictionary
281
1
0
DICTIONARY
5
1A
102
{ACAD_REACTORS
330
C
102
}
100
AcDbDictionary
281
1
3
Layout1
350
1E
3
Model
350
22
0
ACDBPLACEHOLDER
5
F
102
{ACAD_REACTORS
330
E
102
}
0
MLINESTYLE
5
18
102
{ACAD_REACTORS
330
17
102
}
100
AcDbMlineStyle
2
STANDARD
70
0
3

62
256
51
90.0
52
90.0
71
2
49
0.5
62
256
6
BYLAYER
49
-0.5
62
256
6
BYLAYER
0
LAYOUT
5
1E
102
{ACAD_REACTORS
330
1A
102
}
100
AcDbPlotSettings
1

2

4

6

40
0.0
41
0.0
42
0.0
43
0.0
44
0.0
45
0.0
46
0.0
47
0.0
48
0.0
49
0.0
140
0.0
141
0.0
142
1.0
143
1.0
70
0
72
0
73
0
74
0
7

75
0
147
1.0
148
0.0
149
0.0
100
AcDbLayout
1
Layout1
70
0
71
0
10
0.0
20
0.0
11
0.0
21
0.0
12
0.0
22
0.0
32
0.0
14
0.0
24
0.0
34
0.0
15
0.0
25
0.0
35
0.0
146
0.0
13
0.0
23
0.0
33
0.0
16
0.0
26
0.0
36
0.0
17
0.0
27
0.0
37
0.0
76
0
330
1B
331
0
345
0
346
0
0
LAYOUT
5
22
102
{ACAD_REACTORS
330
1A
102
}
100
AcDbPlotSettings
1

2

4

6

40
0.0
41
0.0
42
0.0
43
0.0
44
0.0
45
0.0
46
0.0
47
0.0
48
0.0
49
0.0
140
0.0
141
0.0
142
1.0
143
1.0
70
0
72
0
73
0
74
0
7

75
0
147
1.0
148
0.0
149
0.0
100
AcDbLayout
1
Model
70
0
71
0
10
0.0
20
0.0
11
0.0
21
0.0
12
0.0
22
0.0
32
0.0
14
0.0
24
0.0
34
0.0
15
0.0
25
0.0
35
0.0
146
0.0
13
0.0
23
0.0
33
0.0
16
0.0
26
0.0
36
0.0
17
0.0
27
0.0
37
0.0
76
0
330
1F
331
0
345
0
346
0
0
ENDSEC
0
EOF
