999
DXF file: s0684-684492.dxf
999
Pro/ENGINEER 2005310 by Parametric Technology Corporation
0
SECTION
2
HEADER
9
$ACADVER
1
AC1015
9
$DWGCODEPAGE
3
ANSI_1252
9
$EXTMAX
10
210.0000000000
20
297.0000000000
30
0.0000000000
9
$EXTMIN
10
0.0000000000
20
0.0000000000
30
0.0000000000
9
$LIMMIN
10
0.0000000000
20
0.0000000000
9
$LIMMAX
10
210.0000000000
20
297.0000000000
9
$VIEWCTR
10
105.0000000000
20
148.5000000000
9
$VIEWSIZE
40
297.0000000000
9
$CLAYER
8
0
9
$LTSCALE
40
19.3600000000
9
$CELTYPE
6
BYLAYER
9
$DIMSCALE
40
1
9
$DIMASZ
40
3.5000000000
9
$DIMEXO
40
2.2000000000
9
$DIMDLI
40
13.3760000000
9
$DIMEXE
40
6.3360000000
9
$DIMCEN
40
3.1680000000
9
$DIMLFAC
40
1.0000000000
9
$DIMBLK
1
_FILLED
9
$DIMTXT
40
3.5000000000
9
$DIMTOL
70
1
9
$DIMLIM
70
0
9
$DIMTFAC
40
1.0000000000
9
$DIMTP
40
0.0010000000
9
$DIMTM
40
0.0010000000
9
$PDMODE
70
3
9
$PDSIZE
40
0.3125000000
9
$HANDSEED
5
23B
9
$MEASUREMENT
70
1
9
$INSUNITS
70
4
0
ENDSEC
0
SECTION
2
CLASSES
0
CLASS
1
ACDBDICTIONARYWDFLT
2
AcDbDictionaryWithDefault
3
AutoCAD 2000
90
0
280
0
281
0
0
CLASS
1
ACDBPLACEHOLDER
2
AcDbPlaceHolder
3
AutoCAD 2000
90
0
280
0
281
0
0
CLASS
1
LAYOUT
2
AcDbLayout
3
AutoCAD 2000
90
0
280
0
281
0
0
ENDSEC
0
SECTION
2
TABLES
0
TABLE
2
VPORT
5
8
100
AcDbSymbolTable
70
2
0
VPORT
5
1F4
100
AcDbSymbolTableRecord
100
AcDbViewportTableRecord
2
*ACTIVE
70
0
10
0.0
20
0.0
11
1.0
21
1.0
12
105.0000000000
22
148.5000000000
13
0.0
23
0.0
14
1.0
24
1.0
15
0.0
25
0.0
16
0.0
26
0.0
36
1.0
17
0.0
27
0.0
37
0.0
40
297.0000000000
41
0.7070707071
42
50.0
43
0.0
44
0.0
50
0.0
51
0.0
71
0
72
100
73
1
74
1
75
0
76
0
77
0
78
0
0
ENDTAB
0
TABLE
2
LTYPE
5
5
100
AcDbSymbolTable
70
6
0
LTYPE
5
14
100
AcDbSymbolTableRecord
100
AcDbLinetypeTableRecord
2
BYBLOCK
70
0
3

72
65
73
0
40
0.0
0
LTYPE
5
15
100
AcDbSymbolTableRecord
100
AcDbLinetypeTableRecord
2
BYLAYER
70
0
3

72
65
73
0
40
0.0
0
LTYPE
5
16
100
AcDbSymbolTableRecord
100
AcDbLinetypeTableRecord
2
CONTINUOUS
70
64
3
Solid line
72
65
73
0
40
0
0
LTYPE
5
1F5
100
AcDbSymbolTableRecord
100
AcDbLinetypeTableRecord
2
CENTER
70
64
3
____ _ ____ _ ____ _ ____ _ ____ _ ____ _ ____
72
65
73
4
40
0.6
49
0.375
74
0
49
-0.075
74
0
49
0.075
74
0
49
-0.075
74
0
0
LTYPE
5
1F6
100
AcDbSymbolTableRecord
100
AcDbLinetypeTableRecord
2
HIDDEN
70
64
3
- - - - - - - - - - - - - - - - - - - -
72
65
73
2
40
0.2
49
0.1
74
0
49
-0.1
74
0
0
LTYPE
5
1F7
100
AcDbSymbolTableRecord
100
AcDbLinetypeTableRecord
2
PHANTOM
70
64
3
_____ _ _ _____ _ _ _____ _ _ _____
72
65
73
6
40
0.8
49
0.45
74
0
49
-0.05
74
0
49
0.1
74
0
49
-0.05
74
0
49
0.1
74
0
49
-0.05
74
0
0
LTYPE
5
1F8
100
AcDbSymbolTableRecord
100
AcDbLinetypeTableRecord
2
DOT
70
64
3
. . . . . . . . . . . . . . . . . . . .
72
65
73
2
40
0.2
49
0.1
74
0
49
-0.1
74
0
0
LTYPE
5
1F9
100
AcDbSymbolTableRecord
100
AcDbLinetypeTableRecord
2
DASHED
70
64
3
- - - - - - - - - - - - - - - - - - - -
72
65
73
2
40
0.2
49
0.1
74
0
49
-0.1
74
0
0
ENDTAB
0
TABLE
2
LAYER
5
2
100
AcDbSymbolTable
70
36
0
LAYER
5
10
100
AcDbSymbolTableRecord
100
AcDbLayerTableRecord
2
0
70
0
62
7
6
CONTINUOUS
370
-3
390
F
0
LAYER
5
1FA
100
AcDbSymbolTableRecord
100
AcDbLayerTableRecord
2
DEFAULT_1
70
0
62
7
6
CENTER
370
-3
390
F
0
LAYER
5
1FB
100
AcDbSymbolTableRecord
100
AcDbLayerTableRecord
2
DEFAULT_2
70
0
62
8
6
HIDDEN
370
-3
390
F
0
LAYER
5
1FC
100
AcDbSymbolTableRecord
100
AcDbLayerTableRecord
2
DEFAULT_3
70
0
62
7
6
PHANTOM
370
-3
390
F
0
LAYER
5
1FD
100
AcDbSymbolTableRecord
100
AcDbLayerTableRecord
2
_2D_DELETED_OBJS
70
0
62
7
6
CONTINUOUS
370
-3
390
F
0
LAYER
5
1FE
100
AcDbSymbolTableRecord
100
AcDbLayerTableRecord
2
_BLACK_HOLE
70
0
62
7
6
CONTINUOUS
370
-3
390
F
0
LAYER
5
1FF
100
AcDbSymbolTableRecord
100
AcDbLayerTableRecord
2
ASSI
70
0
62
7
6
CONTINUOUS
370
-3
390
F
0
LAYER
5
200
100
AcDbSymbolTableRecord
100
AcDbLayerTableRecord
2
CURVE
70
0
62
7
6
CONTINUOUS
370
-3
390
F
0
LAYER
5
201
100
AcDbSymbolTableRecord
100
AcDbLayerTableRecord
2
PIANI
70
0
62
7
6
CONTINUOUS
370
-3
390
F
0
LAYER
5
202
100
AcDbSymbolTableRecord
100
AcDbLayerTableRecord
2
SURF_FILETTI
70
0
62
7
6
CONTINUOUS
370
-3
390
F
0
LAYER
5
203
100
AcDbSymbolTableRecord
100
AcDbLayerTableRecord
2
TOLL
70
0
62
7
6
CONTINUOUS
370
-3
390
F
0
ENDTAB
0
TABLE
2
STYLE
5
3
100
AcDbSymbolTable
70
1
0
STYLE
5
11
100
AcDbSymbolTableRecord
100
AcDbTextStyleTableRecord
2
STANDARD
70
0
40
0.0
41
0.7143000000
50
0.0
71
0
42
0.2
3
txt
4

0
ENDTAB
0
TABLE
2
VIEW
5
6
100
AcDbSymbolTable
70
0
0
ENDTAB
0
TABLE
2
UCS
5
7
100
AcDbSymbolTable
70
0
0
ENDTAB
0
TABLE
2
APPID
5
9
100
AcDbSymbolTable
70
1
0
APPID
5
204
100
AcDbSymbolTableRecord
100
AcDbRegAppTableRecord
2
ACAD
70
0
0
ENDTAB
0
TABLE
2
BLOCK_RECORD
5
1
100
AcDbSymbolTable
70
0
0
BLOCK_RECORD
5
1F
100
AcDbSymbolTableRecord
100
AcDbBlockTableRecord
2
*MODEL_SPACE
0
BLOCK_RECORD
5
1B
100
AcDbSymbolTableRecord
100
AcDbBlockTableRecord
2
*PAPER_SPACE
0
ENDTAB
0
TABLE
2
DIMSTYLE
5
A
100
AcDbSymbolTable
70
1
100
AcDbDimStyleTable
71
0
0
DIMSTYLE
105
205
100
AcDbSymbolTableRecord
100
AcDbDimStyleTableRecord
2
STANDARD
70
0
3

4

40
1.0
41
3.5000000000
42
0.0625
43
0.38
44
0.18
45
0.0
46
0.0
47
0.0010000000
48
0.0010000000
140
3.5000000000
141
0.09
142
0.0
143
25.4
144
1.0000000000
145
0.0
146
1.0000000000
147
0.09
71
1
72
0
73
0
74
0
75
0
76
0
77
1
78
8
170
0
171
2
172
0
173
0
174
0
175
0
176
0
177
0
178
0
270
2
271
3
272
3
273
2
274
2
275
0
280
0
281
0
282
0
283
1
284
8
285
0
286
0
287
3
288
0
340
11
0
ENDTAB
0
ENDSEC
0
SECTION
2
BLOCKS
0
BLOCK
5
20
100
AcDbEntity
8
0
100
AcDbBlockBegin
2
*MODEL_SPACE
70
0
10
0.0
20
0.0
30
0.0
3
*MODEL_SPACE
1

0
ENDBLK
5
21
100
AcDbEntity
8
0
100
AcDbBlockEnd
0
BLOCK
5
1C
100
AcDbEntity
8
0
100
AcDbBlockBegin
2
*PAPER_SPACE
70
0
10
0.0
20
0.0
30
0.0
3
*PAPER_SPACE
1

0
ENDBLK
5
1D
100
AcDbEntity
8
0
100
AcDbBlockEnd
0
ENDSEC
0
SECTION
2
ENTITIES
0
LINE
5
206
100
AcDbEntity
8
0
100
AcDbLine
62
7
6
CONTINUOUS
10
0.0000000000
20
0.0000000000
11
210.0000000000
21
0.0000000000
0
LINE
5
207
100
AcDbEntity
8
0
100
AcDbLine
62
7
6
CONTINUOUS
10
0.0000000000
20
0.0000000000
11
0.0000000000
21
297.0000000000
0
LINE
5
208
100
AcDbEntity
8
0
100
AcDbLine
62
7
6
CONTINUOUS
10
210.0000000000
20
0.0000000000
11
210.0000000000
21
297.0000000000
0
LINE
5
209
100
AcDbEntity
8
0
100
AcDbLine
62
7
6
CONTINUOUS
10
0.0000000000
20
297.0000000000
11
210.0000000000
21
297.0000000000
0
LINE
5
20A
100
AcDbEntity
8
0
100
AcDbLine
62
7
6
CONTINUOUS
10
99.2857694420
20
240.3347076369
11
98.2857727014
21
239.3347042922
0
LINE
5
20B
100
AcDbEntity
8
0
100
AcDbLine
62
7
6
CONTINUOUS
10
73.2857397038
20
173.3347373353
11
73.2857397038
21
168.3347373353
0
LINE
5
20C
100
AcDbEntity
8
DEFAULT_1
100
AcDbLine
62
2
6
CENTER
10
108.2857397038
20
152.3347373353
11
89.2857397038
21
152.3347373353
0
LINE
5
20D
100
AcDbEntity
8
DEFAULT_1
100
AcDbLine
62
2
6
CENTER
10
108.2857397038
20
152.3347373353
11
127.2857397038
21
152.3347373353
0
LINE
5
20E
100
AcDbEntity
8
0
100
AcDbLine
62
7
6
CONTINUOUS
10
78.2857397038
20
190.3347373353
11
78.2857397038
21
195.3347373353
0
LINE
5
20F
100
AcDbEntity
8
0
100
AcDbLine
62
7
6
CONTINUOUS
10
83.0941466773
20
181.8876516182
11
81.0009990416
21
174.0759182943
0
LINE
5
210
100
AcDbEntity
8
0
100
AcDbLine
62
7
6
CONTINUOUS
10
91.2857397038
20
195.7979326267
11
91.2857397038
21
210.8715420631
0
LINE
5
211
100
AcDbEntity
8
0
100
AcDbLine
62
7
6
CONTINUOUS
10
73.2857397038
20
168.3347373353
11
143.2857397038
21
168.3347373353
0
LINE
5
212
100
AcDbEntity
8
0
100
AcDbLine
62
7
6
CONTINUOUS
10
98.2857397038
20
186.3347373353
11
98.2857397038
21
190.3347373353
0
LINE
5
213
100
AcDbEntity
8
0
100
AcDbLine
62
7
6
CONTINUOUS
10
98.2857397038
20
211.3347373353
11
98.2857397038
21
239.3347372896
0
LINE
5
214
100
AcDbEntity
8
0
100
AcDbLine
62
2
6
CONTINUOUS
10
99.2857397038
20
186.3347373353
11
99.2857397038
21
190.3347373353
0
LINE
5
215
100
AcDbEntity
8
0
100
AcDbLine
62
2
6
CONTINUOUS
10
99.2857397038
20
211.3347373353
11
99.2857397038
21
240.3347373353
0
LINE
5
216
100
AcDbEntity
8
0
100
AcDbLine
62
7
6
CONTINUOUS
10
73.2857397038
20
173.3347373353
11
143.2857397038
21
173.3347373353
0
LINE
5
217
100
AcDbEntity
8
0
100
AcDbLine
62
7
6
CONTINUOUS
10
135.5704803664
20
174.0759182926
11
81.0009990412
21
174.0759182926
0
LINE
5
218
100
AcDbEntity
8
DEFAULT_1
100
AcDbLine
62
2
6
CENTER
10
108.2857397038
20
152.3347373353
11
108.2857397038
21
133.3347373353
0
LINE
5
219
100
AcDbEntity
8
DEFAULT_1
100
AcDbLine
62
2
6
CENTER
10
108.2857397038
20
152.3347373353
11
108.2857397038
21
171.3347373353
0
LINE
5
21A
100
AcDbEntity
8
0
100
AcDbLine
62
7
6
CONTINUOUS
10
108.2857397038
20
197.0757087840
11
108.2857397038
21
209.5937658865
0
LINE
5
21B
100
AcDbEntity
8
0
100
AcDbLine
62
7
6
CONTINUOUS
10
83.0941466770
20
181.8876516174
11
133.4773327306
21
181.8876516174
0
LINE
5
21C
100
AcDbEntity
8
0
100
AcDbLine
62
7
6
CONTINUOUS
10
88.8897016317
20
186.3347373353
11
127.6815487963
21
186.3347373353
0
LINE
5
21D
100
AcDbEntity
8
0
100
AcDbLine
62
2
6
CONTINUOUS
10
117.2857397038
20
186.3347373353
11
117.2857397038
21
190.3347373353
0
LINE
5
21E
100
AcDbEntity
8
0
100
AcDbLine
62
2
6
CONTINUOUS
10
117.2857397038
20
211.3347373353
11
117.2857397038
21
240.3347373353
0
LINE
5
21F
100
AcDbEntity
8
0
100
AcDbLine
62
7
6
CONTINUOUS
10
78.2857397038
20
190.3347373353
11
138.2857397038
21
190.3347373353
0
LINE
5
220
100
AcDbEntity
8
0
100
AcDbLine
62
7
6
CONTINUOUS
10
118.2857397038
20
186.3347373353
11
118.2857397038
21
190.3347373353
0
LINE
5
221
100
AcDbEntity
8
0
100
AcDbLine
62
7
6
CONTINUOUS
10
118.2857397038
20
211.3347373353
11
118.2857397038
21
239.3347372896
0
LINE
5
222
100
AcDbEntity
8
0
100
AcDbLine
62
7
6
CONTINUOUS
10
78.2857397038
20
195.3347373353
11
138.2857397038
21
195.3347373353
0
LINE
5
223
100
AcDbEntity
8
0
100
AcDbLine
62
7
6
CONTINUOUS
10
125.2857397038
20
195.7979326267
11
125.2857397038
21
210.8715420631
0
LINE
5
224
100
AcDbEntity
8
0
100
AcDbLine
62
7
6
CONTINUOUS
10
94.2939550081
20
211.3347373353
11
122.2775243995
21
211.3347373353
0
LINE
5
225
100
AcDbEntity
8
0
100
AcDbLine
62
7
6
CONTINUOUS
10
133.4773327304
20
181.8876516182
11
135.5704803660
21
174.0759182943
0
LINE
5
226
100
AcDbEntity
8
0
100
AcDbLine
62
7
6
CONTINUOUS
10
138.2857397038
20
190.3347373353
11
138.2857397038
21
195.3347373353
0
LINE
5
227
100
AcDbEntity
8
0
100
AcDbLine
62
7
6
CONTINUOUS
10
143.2857397038
20
173.3347373353
11
143.2857397038
21
168.3347373353
0
LINE
5
228
100
AcDbEntity
8
0
100
AcDbLine
62
7
6
CONTINUOUS
10
117.2857099656
20
240.3347076369
11
118.2857067062
21
239.3347042922
0
LINE
5
229
100
AcDbEntity
8
0
100
AcDbLine
62
7
6
CONTINUOUS
10
98.2857397038
20
239.3347374247
11
118.2857397038
21
239.3347374247
0
LINE
5
22A
100
AcDbEntity
8
0
100
AcDbLine
62
7
6
CONTINUOUS
10
99.2857397038
20
240.3347373353
11
117.2857397038
21
240.3347373353
0
ARC
5
22B
100
AcDbEntity
8
0
100
AcDbCircle
62
7
6
CONTINUOUS
10
122.2775243995
20
205.3347373353
40
10.0000000000
100
AcDbArc
50
270.0000000000
51
287.5103163535
0
ARC
5
22C
100
AcDbEntity
8
0
100
AcDbCircle
62
7
6
CONTINUOUS
10
94.2939550081
20
201.3347373353
40
10.0000000000
100
AcDbArc
50
90.0000000000
51
107.5104824181
0
ARC
5
22D
100
AcDbEntity
8
0
100
AcDbCircle
62
7
6
CONTINUOUS
10
94.2939550081
20
205.3347373353
40
10.0000000000
100
AcDbArc
50
252.4896836465
51
270.0000000000
0
ARC
5
22E
100
AcDbEntity
8
0
100
AcDbCircle
62
7
6
CONTINUOUS
10
122.2775243995
20
201.3347373353
40
10.0000000000
100
AcDbArc
50
72.4895175819
51
90.0000000000
0
ARC
5
22F
100
AcDbEntity
8
0
100
AcDbCircle
62
7
6
CONTINUOUS
10
136.5364061934
20
174.3347373353
40
1.0000000000
100
AcDbArc
50
194.9999997518
51
269.9999990329
0
ARC
5
230
100
AcDbEntity
8
0
100
AcDbCircle
62
7
6
CONTINUOUS
10
80.0350732142
20
174.3347373353
40
1.0000000000
100
AcDbArc
50
270.0000009671
51
345.0000002482
0
ARC
5
231
100
AcDbEntity
8
0
100
AcDbCircle
62
7
6
CONTINUOUS
10
88.8897016317
20
180.3347373353
40
6.0000000000
100
AcDbArc
50
90.0000000000
51
164.9999998778
0
ARC
5
232
100
AcDbEntity
8
0
100
AcDbCircle
62
7
6
CONTINUOUS
10
127.6817777759
20
180.3347373353
40
6.0000000000
100
AcDbArc
50
15.0000001222
51
90.0000000000
0
CIRCLE
5
233
100
AcDbEntity
8
0
100
AcDbCircle
62
7
6
CONTINUOUS
10
108.2857397038
20
152.3347373353
40
16.0000000000
0
ARC
5
234
100
AcDbEntity
8
0
100
AcDbCircle
62
7
6
CONTINUOUS
10
108.2857397038
20
152.3347373353
40
24.0000000000
100
AcDbArc
50
138.1561657068
51
41.8438342932
0
ARC
5
235
100
AcDbEntity
8
0
100
AcDbCircle
62
7
6
CONTINUOUS
10
108.2857397038
20
152.3347373353
40
18.6332495807
100
AcDbArc
50
120.7917563334
51
59.2082436666
0
ARC
5
236
100
AcDbEntity
8
0
100
AcDbCircle
62
7
6
CONTINUOUS
10
108.2857397038
20
152.3347373353
40
17.0000032774
100
AcDbArc
50
109.6364579381
51
70.3637104579
0
SPLINE
5
237
100
AcDbEntity
8
0
100
AcDbSpline
62
7
6
CONTINUOUS
70
0
71
3
72
25
73
21
74
19
42
0.0000001000
43
0.0000001000
44
0.0000000001
12
-16.0824750561
22
6.3386671918
32
0.0000000000
13
-16.0824750561
23
-6.3386671918
33
0.0000000000
40
0.0000000000
40
0.0000000000
40
0.0000000000
40
0.0000000000
40
0.0933379945
40
0.1842950962
40
0.2737967418
40
0.3587960003
40
0.4373753716
40
0.5084807266
40
0.5715577922
40
0.6273635293
40
0.6768735417
40
0.7210873834
40
0.7610579937
40
0.7978209232
40
0.8324161830
40
0.8658937972
40
0.8992407321
40
0.9327427497
40
0.9663528576
40
1.0000000000
40
1.0000000000
40
1.0000000000
40
1.0000000000
10
125.2857397038
20
209.5937658865
30
0.0000000000
10
124.7853710479
20
209.7909787143
30
0.0000000000
10
123.7729802586
20
210.1201935398
30
0.0000000000
10
122.2306523428
20
210.4601828580
30
0.0000000000
10
120.7153674541
20
210.6771321175
30
0.0000000000
10
119.2619535646
20
210.8027839361
30
0.0000000000
10
117.9106953083
20
210.8628971283
30
0.0000000000
10
116.6846177317
20
210.8769296027
30
0.0000000000
10
115.5898952063
20
210.8582697519
30
0.0000000000
10
114.6203992270
20
210.8158993736
30
0.0000000000
10
113.7607866520
20
210.7557383123
30
0.0000000000
10
112.9938890315
20
210.6817151351
30
0.0000000000
10
112.3021470500
20
210.5962216706
30
0.0000000000
10
111.6678010784
20
210.5001590187
30
0.0000000000
10
111.0732359738
20
210.3928796184
30
0.0000000000
10
110.5013630427
20
210.2720910162
30
0.0000000000
10
109.9397300381
20
210.1346513911
30
0.0000000000
10
109.3824464805
20
209.9775928358
30
0.0000000000
10
108.8298403654
20
209.7990473246
30
0.0000000000
10
108.4661161464
20
209.6648585657
30
0.0000000000
10
108.2857397038
20
209.5937658865
30
0.0000000000
11
125.2857397038
21
209.5937658865
31
0.0000000000
11
123.7532927030
21
210.0987029229
31
0.0000000000
11
122.2190116251
21
210.4425291004
31
0.0000000000
11
120.6880737677
21
210.6660864784
31
0.0000000000
11
119.2244275516
21
210.7953558993
31
0.0000000000
11
117.8674594689
21
210.8569658862
31
0.0000000000
11
116.6383766809
21
210.8712732095
31
0.0000000000
11
115.5481549981
21
210.8524216550
31
0.0000000000
11
114.5844059330
21
210.8098583664
31
0.0000000000
11
113.7306692377
21
210.7496493819
31
0.0000000000
11
112.9699399021
21
210.6758084949
31
0.0000000000
11
112.2842469869
21
210.5907060623
31
0.0000000000
11
111.6559527849
21
210.4952499715
31
0.0000000000
11
111.0674726832
21
210.3887880518
31
0.0000000000
11
110.5013074834
21
210.2689341783
31
0.0000000000
11
109.9414412304
21
210.1316452435
31
0.0000000000
11
109.3840988768
21
209.9742733211
31
0.0000000000
11
108.8313277549
21
209.7953648677
31
0.0000000000
11
108.2857397038
21
209.5937658865
31
0.0000000000
0
SPLINE
5
238
100
AcDbEntity
8
0
100
AcDbSpline
62
7
6
CONTINUOUS
70
0
71
3
72
25
73
21
74
19
42
0.0000001000
43
0.0000001000
44
0.0000000001
12
16.0823723914
22
-6.3386267280
32
0.0000000000
13
16.0823723914
23
6.3386267280
33
0.0000000000
40
0.0000000000
40
0.0000000000
40
0.0000000000
40
0.0000000000
40
0.0966320165
40
0.1909661342
40
0.2825199295
40
0.3681394541
40
0.4463791633
40
0.5167162736
40
0.5790768094
40
0.6342784559
40
0.6832425596
40
0.7269204503
40
0.7663359542
40
0.8025033595
40
0.8364423811
40
0.8691813052
40
0.9017141128
40
0.9343920542
40
0.9671758773
40
1.0000000000
40
1.0000000000
40
1.0000000000
40
1.0000000000
10
91.2857397038
20
197.0757087840
30
0.0000000000
10
91.8037637288
20
196.8715373564
30
0.0000000000
10
92.8536933071
20
196.5326140764
30
0.0000000000
10
94.4469057106
20
196.1894942733
30
0.0000000000
10
95.9979350432
20
195.9763419610
30
0.0000000000
10
97.4653409148
20
195.8569920350
30
0.0000000000
10
98.8140129016
20
195.8027294846
30
0.0000000000
10
100.0296065406
20
195.7932628308
30
0.0000000000
10
101.1122158436
20
195.8154084243
30
0.0000000000
10
102.0708115728
20
195.8605812673
30
0.0000000000
10
102.9205118807
20
195.9230709257
30
0.0000000000
10
103.6777412010
20
195.9989762449
30
0.0000000000
10
104.3595097801
20
196.0858522451
30
0.0000000000
10
104.9831946197
20
196.1827114364
30
0.0000000000
10
105.5660781712
20
196.2900817788
30
0.0000000000
10
106.1250884884
20
196.4101201015
30
0.0000000000
10
106.6730178176
20
196.5458889253
30
0.0000000000
10
107.2162748579
20
196.7003177055
30
0.0000000000
10
107.7550503616
20
196.8752694140
30
0.0000000000
10
108.1097764489
20
197.0063554969
30
0.0000000000
10
108.2857397038
20
197.0757087840
30
0.0000000000
11
91.2857397038
21
197.0757087840
31
0.0000000000
11
92.8732365137
21
196.5559322557
31
0.0000000000
11
94.4660970076
21
196.2066753764
31
0.0000000000
11
96.0333763242
21
195.9867177354
31
0.0000000000
11
97.5083434269
21
195.8640831465
31
0.0000000000
11
98.8596904896
21
195.8085954824
31
0.0000000000
11
100.0755304041
21
195.7989721344
31
0.0000000000
11
101.1532900429
21
195.8213266989
31
0.0000000000
11
102.1064503419
21
195.8667025372
31
0.0000000000
11
102.9505516215
21
195.9292418811
31
0.0000000000
11
103.7017810318
21
196.0049542254
31
0.0000000000
11
104.3776255609
21
196.0914233793
31
0.0000000000
11
104.9953799052
21
196.1876603802
31
0.0000000000
11
105.5723097509
21
196.2942011871
31
0.0000000000
11
106.1255834056
21
196.4132624919
31
0.0000000000
11
106.6713905016
21
196.5487679734
31
0.0000000000
11
107.2146760359
21
196.7034808512
31
0.0000000000
11
107.7536014204
21
196.8787688011
31
0.0000000000
11
108.2857397038
21
197.0757087840
31
0.0000000000
0
SPLINE
5
239
100
AcDbEntity
8
0
100
AcDbSpline
62
7
6
CONTINUOUS
70
0
71
3
72
25
73
21
74
19
42
0.0000001000
43
0.0000001000
44
0.0000000001
12
-16.0824635970
22
6.3386626754
32
0.0000000000
13
-16.0824635970
23
-6.3386626754
33
0.0000000000
40
0.0000000000
40
0.0000000000
40
0.0000000000
40
0.0000000000
40
0.0335879769
40
0.0671414199
40
0.1005876281
40
0.1338758788
40
0.1672879985
40
0.2018130260
40
0.2385051499
40
0.2784088864
40
0.3225640788
40
0.3720216742
40
0.4277652601
40
0.4907546150
40
0.5617337105
40
0.6402028589
40
0.7252092580
40
0.8149028385
40
0.9062642118
40
1.0000000000
40
1.0000000000
40
1.0000000000
40
1.0000000000
10
108.2857397038
20
209.5937658865
30
0.0000000000
10
108.1056805653
20
209.6647335050
30
0.0000000000
10
107.7425886429
20
209.7987049583
30
0.0000000000
10
107.1909431729
20
209.9770033730
30
0.0000000000
10
106.6346344236
20
210.1338814149
30
0.0000000000
10
106.0740372974
20
210.2711872286
30
0.0000000000
10
105.5032903218
20
210.3918818769
30
0.0000000000
10
104.9099267604
20
210.4991138080
30
0.0000000000
10
104.2767951135
20
210.5951887889
30
0.0000000000
10
103.5862037103
20
210.6807628628
30
0.0000000000
10
102.8203509606
20
210.7549321514
30
0.0000000000
10
101.9617534486
20
210.8152907646
30
0.0000000000
10
100.9934356162
20
210.8579042595
30
0.0000000000
10
99.9003109368
20
210.8768770315
30
0.0000000000
10
98.6760984011
20
210.8632964688
30
0.0000000000
10
97.3261372519
20
210.8038359405
30
0.0000000000
10
95.8721463932
20
210.6789626223
30
0.0000000000
10
94.3532766109
20
210.4625259109
30
0.0000000000
10
92.8051418731
20
210.1222082227
30
0.0000000000
10
91.7882405042
20
209.7918190671
30
0.0000000000
10
91.2857397038
20
209.5937658865
30
0.0000000000
11
108.2857397038
21
209.5937658865
31
0.0000000000
11
107.7411188389
21
209.7950303384
31
0.0000000000
11
107.1892983068
21
209.9736934173
31
0.0000000000
11
106.6329092027
21
210.1308894777
31
0.0000000000
11
106.0740560065
21
210.2680484032
31
0.0000000000
11
105.5090275234
21
210.3878031399
31
0.0000000000
11
104.9217717377
21
210.4942102241
31
0.0000000000
11
104.2947168412
21
210.5896715078
31
0.0000000000
11
103.6101985789
21
210.6748483691
31
0.0000000000
11
102.8505024673
21
210.7488337947
31
0.0000000000
11
101.9976890496
21
210.8092450801
31
0.0000000000
11
101.0350270367
21
210.8520549722
31
0.0000000000
11
99.9463280940
21
210.8712228153
31
0.0000000000
11
98.7194235807
21
210.8573808468
31
0.0000000000
11
97.3643322845
21
210.7964681063
31
0.0000000000
11
95.9004901681
21
210.6680283485
31
0.0000000000
11
94.3661235314
21
210.4449993391
31
0.0000000000
11
92.8248317788
21
210.1005051044
31
0.0000000000
11
91.2857397038
21
209.5937658865
31
0.0000000000
0
SPLINE
5
23A
100
AcDbEntity
8
0
100
AcDbSpline
62
7
6
CONTINUOUS
70
0
71
3
72
25
73
21
74
19
42
0.0000001000
43
0.0000001000
44
0.0000000001
12
16.0823845008
22
-6.3386315008
32
0.0000000000
13
16.0823845008
23
6.3386315008
33
0.0000000000
40
0.0000000000
40
0.0000000000
40
0.0000000000
40
0.0000000000
40
0.0328821809
40
0.0657216733
40
0.0984545592
40
0.1310457680
40
0.1638497101
40
0.1978580412
40
0.2340949142
40
0.2735756724
40
0.3173104408
40
0.3663241293
40
0.4215834296
40
0.4840254802
40
0.5544804726
40
0.6328297241
40
0.7184545443
40
0.8098360459
40
0.9037767692
40
1.0000000000
40
1.0000000000
40
1.0000000000
40
1.0000000000
10
108.2857397038
20
197.0757087840
30
0.0000000000
10
108.4620143294
20
197.0062327747
30
0.0000000000
10
108.8173609884
20
196.8749327051
30
0.0000000000
10
109.3570797901
20
196.6997356656
30
0.0000000000
10
109.9012984713
20
196.5451245841
30
0.0000000000
10
110.4502533723
20
196.4092179660
30
0.0000000000
10
111.0103791550
20
196.2890808849
30
0.0000000000
10
111.5944480130
20
196.1816588172
30
0.0000000000
10
112.2193246886
20
196.0848083358
30
0.0000000000
10
112.9022167531
20
195.9980096864
30
0.0000000000
10
113.6604554802
20
195.9222477131
30
0.0000000000
10
114.5111189266
20
195.8599525801
30
0.0000000000
10
115.4708154269
20
195.8150170709
30
0.0000000000
10
116.5549134333
20
195.7931714331
30
0.0000000000
10
117.7722857503
20
195.8030648161
30
0.0000000000
10
119.1222778058
20
195.8579467778
30
0.0000000000
10
120.5892932618
20
195.9780602946
30
0.0000000000
10
122.1369879243
20
196.1917652543
30
0.0000000000
10
123.7244978893
20
196.5346284146
30
0.0000000000
10
124.7699067055
20
196.8724009168
30
0.0000000000
10
125.2857397038
20
197.0757087840
30
0.0000000000
11
108.2857397038
21
197.0757087840
31
0.0000000000
11
108.8188267726
21
196.8784396465
31
0.0000000000
11
109.3586853539
21
196.7029082089
31
0.0000000000
11
109.9029085236
21
196.5480184987
31
0.0000000000
11
110.4497227189
21
196.4123779973
31
0.0000000000
11
111.0041240259
21
196.2932124654
31
0.0000000000
11
111.5822617671
21
196.1866126168
31
0.0000000000
11
112.2012321575
21
196.0903773057
31
0.0000000000
11
112.8782234951
21
196.0039794022
31
0.0000000000
11
113.6304558767
21
195.9284083916
31
0.0000000000
11
114.4754320168
21
195.8660683914
31
0.0000000000
11
115.4296022274
21
195.8209336209
31
0.0000000000
11
116.5087783158
21
195.7988821056
31
0.0000000000
11
117.7266534427
21
195.8089423598
31
0.0000000000
11
119.0798695545
21
195.8650885514
31
0.0000000000
11
120.5548615931
21
195.9885387930
31
0.0000000000
11
122.1190523695
21
196.2090798985
31
0.0000000000
11
123.7050776150
21
196.5577635164
31
0.0000000000
11
125.2857397038
21
197.0757087840
31
0.0000000000
0
ENDSEC
0
SECTION
2
OBJECTS
0
DICTIONARY
5
C
100
AcDbDictionary
280
0
281
1
3
ACAD_GROUP
350
D
3
ACAD_MLINESTYLE
350
17
3
ACAD_LAYOUT
350
1A
3
ACAD_PLOTSETTINGS
350
19
3
ACAD_PLOTSTYLENAME
350
E
0
DICTIONARY
5
D
102
{ACAD_REACTORS
330
C
102
}
100
AcDbDictionary
280
0
281
1
0
ACDBDICTIONARYWDFLT
5
E
102
{ACAD_REACTORS
330
C
102
}
100
AcDbDictionary
281
1
3
Normal
350
F
100
AcDbDictionaryWithDefault
340
F
0
DICTIONARY
5
17
102
{ACAD_REACTORS
330
C
102
}
100
AcDbDictionary
280
0
281
1
3
Standard
350
18
0
DICTIONARY
5
19
102
{ACAD_REACTORS
330
C
102
}
100
AcDbDictionary
281
1
0
DICTIONARY
5
1A
102
{ACAD_REACTORS
330
C
102
}
100
AcDbDictionary
281
1
3
Layout1
350
1E
3
Model
350
22
0
ACDBPLACEHOLDER
5
F
102
{ACAD_REACTORS
330
E
102
}
0
MLINESTYLE
5
18
102
{ACAD_REACTORS
330
17
102
}
100
AcDbMlineStyle
2
STANDARD
70
0
3

62
256
51
90.0
52
90.0
71
2
49
0.5
62
256
6
BYLAYER
49
-0.5
62
256
6
BYLAYER
0
LAYOUT
5
1E
102
{ACAD_REACTORS
330
1A
102
}
100
AcDbPlotSettings
1

2

4

6

40
0.0
41
0.0
42
0.0
43
0.0
44
0.0
45
0.0
46
0.0
47
0.0
48
0.0
49
0.0
140
0.0
141
0.0
142
1.0
143
1.0
70
0
72
0
73
0
74
0
7

75
0
147
1.0
148
0.0
149
0.0
100
AcDbLayout
1
Layout1
70
0
71
0
10
0.0
20
0.0
11
0.0
21
0.0
12
0.0
22
0.0
32
0.0
14
0.0
24
0.0
34
0.0
15
0.0
25
0.0
35
0.0
146
0.0
13
0.0
23
0.0
33
0.0
16
0.0
26
0.0
36
0.0
17
0.0
27
0.0
37
0.0
76
0
330
1B
331
0
345
0
346
0
0
LAYOUT
5
22
102
{ACAD_REACTORS
330
1A
102
}
100
AcDbPlotSettings
1

2

4

6

40
0.0
41
0.0
42
0.0
43
0.0
44
0.0
45
0.0
46
0.0
47
0.0
48
0.0
49
0.0
140
0.0
141
0.0
142
1.0
143
1.0
70
0
72
0
73
0
74
0
7

75
0
147
1.0
148
0.0
149
0.0
100
AcDbLayout
1
Model
70
0
71
0
10
0.0
20
0.0
11
0.0
21
0.0
12
0.0
22
0.0
32
0.0
14
0.0
24
0.0
34
0.0
15
0.0
25
0.0
35
0.0
146
0.0
13
0.0
23
0.0
33
0.0
16
0.0
26
0.0
36
0.0
17
0.0
27
0.0
37
0.0
76
0
330
1F
331
0
345
0
346
0
0
ENDSEC
0
EOF
