999
DXF file: s0672-687432.dxf
999
Pro/ENGINEER 2005310 by Parametric Technology Corporation
0
SECTION
2
HEADER
9
$ACADVER
1
AC1015
9
$DWGCODEPAGE
3
ANSI_1252
9
$EXTMAX
10
210.0000000000
20
297.0000000000
30
0.0000000000
9
$EXTMIN
10
0.0000000000
20
0.0000000000
30
0.0000000000
9
$LIMMIN
10
0.0000000000
20
0.0000000000
9
$LIMMAX
10
210.0000000000
20
297.0000000000
9
$VIEWCTR
10
105.0000000000
20
148.5000000000
9
$VIEWSIZE
40
297.0000000000
9
$CLAYER
8
0
9
$LTSCALE
40
19.3600000000
9
$CELTYPE
6
BYLAYER
9
$DIMSCALE
40
1
9
$DIMASZ
40
3.5000000000
9
$DIMEXO
40
2.2000000000
9
$DIMDLI
40
13.3760000000
9
$DIMEXE
40
6.3360000000
9
$DIMCEN
40
3.1680000000
9
$DIMLFAC
40
1.0000000000
9
$DIMBLK
1
_FILLED
9
$DIMTXT
40
3.5000000000
9
$DIMTOL
70
1
9
$DIMLIM
70
0
9
$DIMTFAC
40
1.0000000000
9
$DIMTP
40
0.0010000000
9
$DIMTM
40
0.0010000000
9
$PDMODE
70
3
9
$PDSIZE
40
0.3125000000
9
$HANDSEED
5
3CA
9
$MEASUREMENT
70
1
9
$INSUNITS
70
4
0
ENDSEC
0
SECTION
2
CLASSES
0
CLASS
1
ACDBDICTIONARYWDFLT
2
AcDbDictionaryWithDefault
3
AutoCAD 2000
90
0
280
0
281
0
0
CLASS
1
ACDBPLACEHOLDER
2
AcDbPlaceHolder
3
AutoCAD 2000
90
0
280
0
281
0
0
CLASS
1
LAYOUT
2
AcDbLayout
3
AutoCAD 2000
90
0
280
0
281
0
0
ENDSEC
0
SECTION
2
TABLES
0
TABLE
2
VPORT
5
8
100
AcDbSymbolTable
70
2
0
VPORT
5
1F4
100
AcDbSymbolTableRecord
100
AcDbViewportTableRecord
2
*ACTIVE
70
0
10
0.0
20
0.0
11
1.0
21
1.0
12
105.0000000000
22
148.5000000000
13
0.0
23
0.0
14
1.0
24
1.0
15
0.0
25
0.0
16
0.0
26
0.0
36
1.0
17
0.0
27
0.0
37
0.0
40
297.0000000000
41
0.7070707071
42
50.0
43
0.0
44
0.0
50
0.0
51
0.0
71
0
72
100
73
1
74
1
75
0
76
0
77
0
78
0
0
ENDTAB
0
TABLE
2
LTYPE
5
5
100
AcDbSymbolTable
70
6
0
LTYPE
5
14
100
AcDbSymbolTableRecord
100
AcDbLinetypeTableRecord
2
BYBLOCK
70
0
3

72
65
73
0
40
0.0
0
LTYPE
5
15
100
AcDbSymbolTableRecord
100
AcDbLinetypeTableRecord
2
BYLAYER
70
0
3

72
65
73
0
40
0.0
0
LTYPE
5
16
100
AcDbSymbolTableRecord
100
AcDbLinetypeTableRecord
2
CONTINUOUS
70
64
3
Solid line
72
65
73
0
40
0
0
LTYPE
5
1F5
100
AcDbSymbolTableRecord
100
AcDbLinetypeTableRecord
2
CENTER
70
64
3
____ _ ____ _ ____ _ ____ _ ____ _ ____ _ ____
72
65
73
4
40
0.6
49
0.375
74
0
49
-0.075
74
0
49
0.075
74
0
49
-0.075
74
0
0
LTYPE
5
1F6
100
AcDbSymbolTableRecord
100
AcDbLinetypeTableRecord
2
HIDDEN
70
64
3
- - - - - - - - - - - - - - - - - - - -
72
65
73
2
40
0.2
49
0.1
74
0
49
-0.1
74
0
0
LTYPE
5
1F7
100
AcDbSymbolTableRecord
100
AcDbLinetypeTableRecord
2
PHANTOM
70
64
3
_____ _ _ _____ _ _ _____ _ _ _____
72
65
73
6
40
0.8
49
0.45
74
0
49
-0.05
74
0
49
0.1
74
0
49
-0.05
74
0
49
0.1
74
0
49
-0.05
74
0
0
LTYPE
5
1F8
100
AcDbSymbolTableRecord
100
AcDbLinetypeTableRecord
2
DOT
70
64
3
. . . . . . . . . . . . . . . . . . . .
72
65
73
2
40
0.2
49
0.1
74
0
49
-0.1
74
0
0
LTYPE
5
1F9
100
AcDbSymbolTableRecord
100
AcDbLinetypeTableRecord
2
DASHED
70
64
3
- - - - - - - - - - - - - - - - - - - -
72
65
73
2
40
0.2
49
0.1
74
0
49
-0.1
74
0
0
ENDTAB
0
TABLE
2
LAYER
5
2
100
AcDbSymbolTable
70
36
0
LAYER
5
10
100
AcDbSymbolTableRecord
100
AcDbLayerTableRecord
2
0
70
0
62
7
6
CONTINUOUS
370
-3
390
F
0
LAYER
5
1FA
100
AcDbSymbolTableRecord
100
AcDbLayerTableRecord
2
DEFAULT_1
70
0
62
7
6
CENTER
370
-3
390
F
0
LAYER
5
1FB
100
AcDbSymbolTableRecord
100
AcDbLayerTableRecord
2
DEFAULT_2
70
0
62
8
6
HIDDEN
370
-3
390
F
0
LAYER
5
1FC
100
AcDbSymbolTableRecord
100
AcDbLayerTableRecord
2
DEFAULT_3
70
0
62
7
6
PHANTOM
370
-3
390
F
0
LAYER
5
1FD
100
AcDbSymbolTableRecord
100
AcDbLayerTableRecord
2
_2D_DELETED_OBJS
70
0
62
7
6
CONTINUOUS
370
-3
390
F
0
LAYER
5
1FE
100
AcDbSymbolTableRecord
100
AcDbLayerTableRecord
2
ASSI
70
0
62
7
6
CONTINUOUS
370
-3
390
F
0
LAYER
5
1FF
100
AcDbSymbolTableRecord
100
AcDbLayerTableRecord
2
CURVE
70
0
62
7
6
CONTINUOUS
370
-3
390
F
0
LAYER
5
200
100
AcDbSymbolTableRecord
100
AcDbLayerTableRecord
2
PIANI
70
0
62
7
6
CONTINUOUS
370
-3
390
F
0
LAYER
5
201
100
AcDbSymbolTableRecord
100
AcDbLayerTableRecord
2
SURF_FILETTI
70
0
62
7
6
CONTINUOUS
370
-3
390
F
0
ENDTAB
0
TABLE
2
STYLE
5
3
100
AcDbSymbolTable
70
1
0
STYLE
5
11
100
AcDbSymbolTableRecord
100
AcDbTextStyleTableRecord
2
STANDARD
70
0
40
0.0
41
0.7143000000
50
0.0
71
0
42
0.2
3
txt
4

0
ENDTAB
0
TABLE
2
VIEW
5
6
100
AcDbSymbolTable
70
0
0
ENDTAB
0
TABLE
2
UCS
5
7
100
AcDbSymbolTable
70
0
0
ENDTAB
0
TABLE
2
APPID
5
9
100
AcDbSymbolTable
70
1
0
APPID
5
202
100
AcDbSymbolTableRecord
100
AcDbRegAppTableRecord
2
ACAD
70
0
0
ENDTAB
0
TABLE
2
BLOCK_RECORD
5
1
100
AcDbSymbolTable
70
0
0
BLOCK_RECORD
5
1F
100
AcDbSymbolTableRecord
100
AcDbBlockTableRecord
2
*MODEL_SPACE
0
BLOCK_RECORD
5
1B
100
AcDbSymbolTableRecord
100
AcDbBlockTableRecord
2
*PAPER_SPACE
0
ENDTAB
0
TABLE
2
DIMSTYLE
5
A
100
AcDbSymbolTable
70
1
100
AcDbDimStyleTable
71
0
0
DIMSTYLE
105
203
100
AcDbSymbolTableRecord
100
AcDbDimStyleTableRecord
2
STANDARD
70
0
3

4

40
1.0
41
3.5000000000
42
0.0625
43
0.38
44
0.18
45
0.0
46
0.0
47
0.0010000000
48
0.0010000000
140
3.5000000000
141
0.09
142
0.0
143
25.4
144
1.0000000000
145
0.0
146
1.0000000000
147
0.09
71
1
72
0
73
0
74
0
75
0
76
0
77
1
78
8
170
0
171
2
172
0
173
0
174
0
175
0
176
0
177
0
178
0
270
2
271
3
272
3
273
2
274
2
275
0
280
0
281
0
282
0
283
1
284
8
285
0
286
0
287
3
288
0
340
11
0
ENDTAB
0
ENDSEC
0
SECTION
2
BLOCKS
0
BLOCK
5
20
100
AcDbEntity
8
0
100
AcDbBlockBegin
2
*MODEL_SPACE
70
0
10
0.0
20
0.0
30
0.0
3
*MODEL_SPACE
1

0
ENDBLK
5
21
100
AcDbEntity
8
0
100
AcDbBlockEnd
0
BLOCK
5
1C
100
AcDbEntity
8
0
100
AcDbBlockBegin
2
*PAPER_SPACE
70
0
10
0.0
20
0.0
30
0.0
3
*PAPER_SPACE
1

0
ENDBLK
5
1D
100
AcDbEntity
8
0
100
AcDbBlockEnd
0
ENDSEC
0
SECTION
2
ENTITIES
0
LINE
5
204
100
AcDbEntity
8
0
100
AcDbLine
62
7
6
CONTINUOUS
10
45.9968052694
20
102.6142137016
11
86.6593029944
21
102.6142132107
0
LINE
5
205
100
AcDbEntity
8
0
100
AcDbLine
62
7
6
CONTINUOUS
10
87.1593029944
20
103.6142132107
11
85.1555147942
21
103.6142132107
0
LINE
5
206
100
AcDbEntity
8
0
100
AcDbLine
62
7
6
CONTINUOUS
10
84.3586098305
20
103.6142132107
11
44.8026182587
21
103.6142129479
0
LINE
5
207
100
AcDbEntity
8
0
100
AcDbLine
62
7
6
CONTINUOUS
10
87.1593029944
20
104.2001392073
11
86.8066106354
21
104.2001392073
0
LINE
5
208
100
AcDbEntity
8
0
100
AcDbLine
62
7
6
CONTINUOUS
10
84.1593029944
20
104.5363765112
11
83.7296875585
21
104.5363765109
0
LINE
5
209
100
AcDbEntity
8
0
100
AcDbLine
62
7
6
CONTINUOUS
10
59.7611565916
20
107.0142132107
11
65.9154615025
21
107.0142132107
0
LINE
5
20A
100
AcDbEntity
8
0
100
AcDbLine
62
7
6
CONTINUOUS
10
68.6406290624
20
107.0142132107
11
77.4135516834
21
107.0142132107
0
LINE
5
20B
100
AcDbEntity
8
0
100
AcDbLine
62
7
6
CONTINUOUS
10
84.1593029944
20
107.0920499101
11
83.7296875585
21
107.0920499101
0
LINE
5
20C
100
AcDbEntity
8
0
100
AcDbLine
62
7
6
CONTINUOUS
10
59.8074766844
20
107.5142132107
11
65.9412670950
21
107.5142132107
0
LINE
5
20D
100
AcDbEntity
8
0
100
AcDbLine
62
7
6
CONTINUOUS
10
68.6573512327
20
107.5142132107
11
77.4135516832
21
107.5142132107
0
LINE
5
20E
100
AcDbEntity
8
0
100
AcDbLine
62
7
6
CONTINUOUS
10
63.9593029944
20
108.0142132107
11
70.9593029944
21
108.0142132107
0
LINE
5
20F
100
AcDbEntity
8
0
100
AcDbLine
62
7
6
CONTINUOUS
10
76.5593029944
20
108.0142132107
11
80.0593029944
21
108.0142132107
0
LINE
5
210
100
AcDbEntity
8
0
100
AcDbLine
62
7
6
CONTINUOUS
10
59.9593029944
20
108.5142132107
11
56.6185299174
21
108.5142132107
0
LINE
5
211
100
AcDbEntity
8
0
100
AcDbLine
62
7
6
CONTINUOUS
10
63.9593029944
20
108.5142132107
11
70.9593029944
21
108.5142132107
0
LINE
5
212
100
AcDbEntity
8
0
100
AcDbLine
62
7
6
CONTINUOUS
10
76.5593029944
20
108.5142132107
11
87.1593029944
21
108.5142132107
0
LINE
5
213
100
AcDbEntity
8
0
100
AcDbLine
62
7
6
CONTINUOUS
10
64.4593029944
20
109.0142132107
11
70.4593029944
21
109.0142132107
0
LINE
5
214
100
AcDbEntity
8
0
100
AcDbLine
62
7
6
CONTINUOUS
10
77.0593029944
20
109.0142132107
11
86.6593029944
21
109.0142132107
0
LINE
5
215
100
AcDbEntity
8
0
100
AcDbLine
62
7
6
CONTINUOUS
10
64.9596901877
20
109.3642132107
11
69.9589158012
21
109.3642132107
0
LINE
5
216
100
AcDbEntity
8
0
100
AcDbLine
62
7
6
CONTINUOUS
10
77.5596901877
20
109.3642132107
11
82.5589158012
21
109.3642132107
0
LINE
5
217
100
AcDbEntity
8
0
100
AcDbLine
62
7
6
CONTINUOUS
10
85.8277070231
20
215.2119042879
11
87.6882929228
21
215.8891021736
0
LINE
5
218
100
AcDbEntity
8
0
100
AcDbLine
62
7
6
CONTINUOUS
10
85.9987170947
20
214.7420579775
11
87.8593029944
21
215.4192558632
0
LINE
5
219
100
AcDbEntity
8
0
100
AcDbLine
62
7
6
CONTINUOUS
10
63.7093029944
20
111.6142132107
11
71.2093029944
21
111.6142132107
0
LINE
5
21A
100
AcDbEntity
8
0
100
AcDbLine
62
7
6
CONTINUOUS
10
76.3093029944
20
111.6142132107
11
83.8093029944
21
111.6142132107
0
LINE
5
21B
100
AcDbEntity
8
0
100
AcDbLine
62
7
6
CONTINUOUS
10
61.9593029944
20
111.9642132107
11
72.9593029944
21
111.9642132107
0
LINE
5
21C
100
AcDbEntity
8
0
100
AcDbLine
62
7
6
CONTINUOUS
10
74.5593029944
20
111.9642132107
11
85.5593029944
21
111.9642132107
0
LINE
5
21D
100
AcDbEntity
8
0
100
AcDbLine
62
7
6
CONTINUOUS
10
87.1593029944
20
115.3001392073
11
86.6593029944
21
115.3001392073
0
LINE
5
21E
100
AcDbEntity
8
0
100
AcDbLine
62
7
6
CONTINUOUS
10
86.4882929228
20
106.9584409037
11
84.8303130661
21
107.5618962205
0
LINE
5
21F
100
AcDbEntity
8
0
100
AcDbLine
62
7
6
CONTINUOUS
10
61.9593029944
20
120.9642132107
11
72.9593029944
21
120.9642132107
0
LINE
5
220
100
AcDbEntity
8
0
100
AcDbLine
62
7
6
CONTINUOUS
10
74.5593029944
20
120.9642132107
11
85.5593029944
21
120.9642132107
0
LINE
5
221
100
AcDbEntity
8
0
100
AcDbLine
62
7
6
CONTINUOUS
10
63.7093029944
20
121.3142132107
11
71.2093029944
21
121.3142132107
0
LINE
5
222
100
AcDbEntity
8
0
100
AcDbLine
62
7
6
CONTINUOUS
10
76.3093029944
20
121.3142132107
11
83.8093029944
21
121.3142132107
0
LINE
5
223
100
AcDbEntity
8
0
100
AcDbLine
62
7
6
CONTINUOUS
10
61.9593029944
20
121.6642132107
11
72.9593029944
21
121.6642132107
0
LINE
5
224
100
AcDbEntity
8
0
100
AcDbLine
62
7
6
CONTINUOUS
10
74.5593029944
20
121.6642132107
11
85.5593029944
21
121.6642132107
0
LINE
5
225
100
AcDbEntity
8
0
100
AcDbLine
62
7
6
CONTINUOUS
10
85.8277070231
20
204.2295519130
11
86.4882929228
21
204.4699855177
0
LINE
5
226
100
AcDbEntity
8
0
100
AcDbLine
62
7
6
CONTINUOUS
10
85.9987170947
20
203.7597056026
11
86.6593029944
21
204.0001392073
0
LINE
5
227
100
AcDbEntity
8
0
100
AcDbLine
62
7
6
CONTINUOUS
10
61.9593029944
20
130.6642132107
11
72.9593029944
21
130.6642132107
0
LINE
5
228
100
AcDbEntity
8
0
100
AcDbLine
62
7
6
CONTINUOUS
10
74.5593029944
20
130.6642132107
11
85.5593029944
21
130.6642132107
0
LINE
5
229
100
AcDbEntity
8
0
100
AcDbLine
62
7
6
CONTINUOUS
10
63.7093029944
20
131.0142132107
11
71.2093029944
21
131.0142132107
0
LINE
5
22A
100
AcDbEntity
8
0
100
AcDbLine
62
7
6
CONTINUOUS
10
76.3093029944
20
131.0142132107
11
83.8093029944
21
131.0142132107
0
LINE
5
22B
100
AcDbEntity
8
0
100
AcDbLine
62
7
6
CONTINUOUS
10
61.9593029944
20
131.3642132107
11
72.9593029944
21
131.3642132107
0
LINE
5
22C
100
AcDbEntity
8
0
100
AcDbLine
62
7
6
CONTINUOUS
10
74.5593029944
20
131.3642132107
11
85.5593029944
21
131.3642132107
0
LWPOLYLINE
5
22D
100
AcDbEntity
8
0
100
AcDbPolyline
62
7
6
CONTINUOUS
90
12
70
0
10
44.8026181347
20
103.6142129477
10
44.8038350709
20
103.5687411738
10
44.8281104883
20
103.4064797772
10
44.8835812472
20
103.2487235202
10
44.9693941499
20
103.1003250380
10
45.0824767500
20
102.9669330875
10
45.2208093256
20
102.8508722037
10
45.3797648022
20
102.7559083888
10
45.5565447028
20
102.6836063298
10
45.7481950162
20
102.6358562424
10
45.9520110944
20
102.6149293910
10
45.9968144903
20
102.6142133506
0
LINE
5
22E
100
AcDbEntity
8
0
100
AcDbLine
62
7
6
CONTINUOUS
10
44.8026182587
20
216.6142132105
11
44.8026182587
21
103.6142129554
0
LINE
5
22F
100
AcDbEntity
8
0
100
AcDbLine
62
7
6
CONTINUOUS
10
45.2077869359
20
216.6142132107
11
45.2077869359
21
103.6142132107
0
LINE
5
230
100
AcDbEntity
8
0
100
AcDbLine
62
7
6
CONTINUOUS
10
87.1593029944
20
139.3282872140
11
86.6593029944
21
139.3282872140
0
LINE
5
231
100
AcDbEntity
8
0
100
AcDbLine
62
7
6
CONTINUOUS
10
61.9593029944
20
140.3642132107
11
72.9593029944
21
140.3642132107
0
LINE
5
232
100
AcDbEntity
8
0
100
AcDbLine
62
7
6
CONTINUOUS
10
74.5593029944
20
140.3642132107
11
85.5593029944
21
140.3642132107
0
LINE
5
233
100
AcDbEntity
8
0
100
AcDbLine
62
7
6
CONTINUOUS
10
63.7093029944
20
140.7142132107
11
71.2093029944
21
140.7142132107
0
LINE
5
234
100
AcDbEntity
8
0
100
AcDbLine
62
7
6
CONTINUOUS
10
76.3093029944
20
140.7142132107
11
83.8093029944
21
140.7142132107
0
LINE
5
235
100
AcDbEntity
8
0
100
AcDbLine
62
7
6
CONTINUOUS
10
61.9593029944
20
141.0642132107
11
72.9593029944
21
141.0642132107
0
LINE
5
236
100
AcDbEntity
8
0
100
AcDbLine
62
7
6
CONTINUOUS
10
74.5593029944
20
141.0642132107
11
85.5593029944
21
141.0642132107
0
LINE
5
237
100
AcDbEntity
8
0
100
AcDbLine
62
7
6
CONTINUOUS
10
79.2047838034
20
212.4227504245
11
79.3143049969
21
212.6312706404
0
LINE
5
238
100
AcDbEntity
8
0
100
AcDbLine
62
7
6
CONTINUOUS
10
86.4882929228
20
138.8584409037
11
85.8277070231
21
139.0988745083
0
LINE
5
239
100
AcDbEntity
8
0
100
AcDbLine
62
7
6
CONTINUOUS
10
86.6593029944
20
139.3282872140
11
85.9987170947
21
139.5687208187
0
LINE
5
23A
100
AcDbEntity
8
0
100
AcDbLine
62
7
6
CONTINUOUS
10
56.6185299174
20
211.7142132107
11
56.6185299174
21
108.5142132107
0
LINE
5
23B
100
AcDbEntity
8
0
100
AcDbLine
62
7
6
CONTINUOUS
10
61.9593029944
20
150.0642132107
11
72.9593029944
21
150.0642132107
0
LINE
5
23C
100
AcDbEntity
8
0
100
AcDbLine
62
7
6
CONTINUOUS
10
74.5593029944
20
150.0642132107
11
85.5593029944
21
150.0642132107
0
LINE
5
23D
100
AcDbEntity
8
0
100
AcDbLine
62
7
6
CONTINUOUS
10
63.7093029944
20
150.4142132107
11
71.2093029944
21
150.4142132107
0
LINE
5
23E
100
AcDbEntity
8
0
100
AcDbLine
62
7
6
CONTINUOUS
10
76.3093029944
20
150.4142132107
11
83.8093029944
21
150.4142132107
0
LINE
5
23F
100
AcDbEntity
8
0
100
AcDbLine
62
7
6
CONTINUOUS
10
61.9593029944
20
150.7642132107
11
72.9593029944
21
150.7642132107
0
LINE
5
240
100
AcDbEntity
8
0
100
AcDbLine
62
7
6
CONTINUOUS
10
74.5593029944
20
150.7642132107
11
85.5593029944
21
150.7642132107
0
LINE
5
241
100
AcDbEntity
8
0
100
AcDbLine
62
7
6
CONTINUOUS
10
59.9593029944
20
211.7142132107
11
59.9593029944
21
108.5142132107
0
LINE
5
242
100
AcDbEntity
8
0
100
AcDbLine
62
7
6
CONTINUOUS
10
61.9593029944
20
208.2642132107
11
61.9593029944
21
199.2642132107
0
LINE
5
243
100
AcDbEntity
8
0
100
AcDbLine
62
7
6
CONTINUOUS
10
61.9593029944
20
198.5642132107
11
61.9593029944
21
189.5642132107
0
LINE
5
244
100
AcDbEntity
8
0
100
AcDbLine
62
7
6
CONTINUOUS
10
61.9593029944
20
188.8642132107
11
61.9593029944
21
179.8642132107
0
LINE
5
245
100
AcDbEntity
8
0
100
AcDbLine
62
7
6
CONTINUOUS
10
61.9593029944
20
179.1642132107
11
61.9593029944
21
170.1642132107
0
LINE
5
246
100
AcDbEntity
8
0
100
AcDbLine
62
7
6
CONTINUOUS
10
61.9593029944
20
169.4642132107
11
61.9593029944
21
160.4642132107
0
LINE
5
247
100
AcDbEntity
8
0
100
AcDbLine
62
7
6
CONTINUOUS
10
61.9593029944
20
159.7642132107
11
61.9593029944
21
150.7642132107
0
LINE
5
248
100
AcDbEntity
8
0
100
AcDbLine
62
7
6
CONTINUOUS
10
61.9593029944
20
150.0642132107
11
61.9593029944
21
141.0642132107
0
LINE
5
249
100
AcDbEntity
8
0
100
AcDbLine
62
7
6
CONTINUOUS
10
61.9593029944
20
140.3642132107
11
61.9593029944
21
131.3642132107
0
LINE
5
24A
100
AcDbEntity
8
0
100
AcDbLine
62
7
6
CONTINUOUS
10
61.9593029944
20
130.6642132107
11
61.9593029944
21
121.6642132107
0
LINE
5
24B
100
AcDbEntity
8
0
100
AcDbLine
62
7
6
CONTINUOUS
10
61.9593029944
20
120.9642132107
11
61.9593029944
21
111.9642132107
0
LINE
5
24C
100
AcDbEntity
8
0
100
AcDbLine
62
7
6
CONTINUOUS
10
63.7093029944
20
208.6142132107
11
63.7093029944
21
208.2642132107
0
LINE
5
24D
100
AcDbEntity
8
0
100
AcDbLine
62
7
6
CONTINUOUS
10
63.7093029944
20
199.2642132107
11
63.7093029944
21
198.5642132107
0
LINE
5
24E
100
AcDbEntity
8
0
100
AcDbLine
62
7
6
CONTINUOUS
10
63.7093029944
20
189.5642132107
11
63.7093029944
21
188.8642132107
0
LINE
5
24F
100
AcDbEntity
8
0
100
AcDbLine
62
7
6
CONTINUOUS
10
63.7093029944
20
179.8642132107
11
63.7093029944
21
179.1642132107
0
LINE
5
250
100
AcDbEntity
8
0
100
AcDbLine
62
7
6
CONTINUOUS
10
63.7093029944
20
170.1642132107
11
63.7093029944
21
169.4642132107
0
LINE
5
251
100
AcDbEntity
8
0
100
AcDbLine
62
7
6
CONTINUOUS
10
63.7093029944
20
160.4642132107
11
63.7093029944
21
159.7642132107
0
LINE
5
252
100
AcDbEntity
8
0
100
AcDbLine
62
7
6
CONTINUOUS
10
63.7093029944
20
150.7642132107
11
63.7093029944
21
150.0642132107
0
LINE
5
253
100
AcDbEntity
8
0
100
AcDbLine
62
7
6
CONTINUOUS
10
63.7093029944
20
141.0642132107
11
63.7093029944
21
140.3642132107
0
LINE
5
254
100
AcDbEntity
8
0
100
AcDbLine
62
7
6
CONTINUOUS
10
63.7093029944
20
131.3642132107
11
63.7093029944
21
130.6642132107
0
LINE
5
255
100
AcDbEntity
8
0
100
AcDbLine
62
7
6
CONTINUOUS
10
63.7093029944
20
121.6642132107
11
63.7093029944
21
120.9642132107
0
LINE
5
256
100
AcDbEntity
8
0
100
AcDbLine
62
7
6
CONTINUOUS
10
63.7093029944
20
111.9642132107
11
63.7093029944
21
111.6142132107
0
LINE
5
257
100
AcDbEntity
8
0
100
AcDbLine
62
7
6
CONTINUOUS
10
63.9593029944
20
212.2142132107
11
63.9593029944
21
211.7142132107
0
LINE
5
258
100
AcDbEntity
8
0
100
AcDbLine
62
7
6
CONTINUOUS
10
63.9593029944
20
108.0142132107
11
63.9593029944
21
108.5142132107
0
LINE
5
259
100
AcDbEntity
8
0
100
AcDbLine
62
7
6
CONTINUOUS
10
64.5105236584
20
109.0142132107
11
64.5105236584
21
111.6142132107
0
LINE
5
25A
100
AcDbEntity
8
0
100
AcDbLine
62
7
6
CONTINUOUS
10
64.5105236584
20
208.6142132107
11
64.5105236584
21
211.2142132107
0
LINE
5
25B
100
AcDbEntity
8
0
100
AcDbLine
62
7
6
CONTINUOUS
10
64.9593029944
20
210.8642132107
11
64.9593029944
21
208.6142132107
0
LINE
5
25C
100
AcDbEntity
8
0
100
AcDbLine
62
7
6
CONTINUOUS
10
64.9593029944
20
111.6142132107
11
64.9593029944
21
109.3642132107
0
LINE
5
25D
100
AcDbEntity
8
0
100
AcDbLine
62
7
6
CONTINUOUS
10
85.8277070231
20
213.6165221335
11
85.9987170948
21
214.0863684439
0
LINE
5
25E
100
AcDbEntity
8
0
100
AcDbLine
62
7
6
CONTINUOUS
10
85.7593029944
20
159.6142132107
11
87.1593029944
21
159.6142132107
0
LINE
5
25F
100
AcDbEntity
8
0
100
AcDbLine
62
7
6
CONTINUOUS
10
61.9593029944
20
159.7642132107
11
72.9593029944
21
159.7642132107
0
LINE
5
260
100
AcDbEntity
8
0
100
AcDbLine
62
7
6
CONTINUOUS
10
74.5593029944
20
159.7642132107
11
85.5593029944
21
159.7642132107
0
LINE
5
261
100
AcDbEntity
8
0
100
AcDbLine
62
7
6
CONTINUOUS
10
63.7093029944
20
160.1142132107
11
71.2093029944
21
160.1142132107
0
LINE
5
262
100
AcDbEntity
8
0
100
AcDbLine
62
7
6
CONTINUOUS
10
76.3093029944
20
160.1142132107
11
83.8093029944
21
160.1142132107
0
LINE
5
263
100
AcDbEntity
8
0
100
AcDbLine
62
7
6
CONTINUOUS
10
85.7593029944
20
160.1142132107
11
86.6593029944
21
160.1142132107
0
LINE
5
264
100
AcDbEntity
8
0
100
AcDbLine
62
7
6
CONTINUOUS
10
85.5593029944
20
160.3142132107
11
85.0593029953
21
160.3142132194
0
LINE
5
265
100
AcDbEntity
8
0
100
AcDbLine
62
7
6
CONTINUOUS
10
61.9593029944
20
160.4642132107
11
72.9593029944
21
160.4642132107
0
LINE
5
266
100
AcDbEntity
8
0
100
AcDbLine
62
7
6
CONTINUOUS
10
74.5593029944
20
160.4642132107
11
85.5593029944
21
160.4642132107
0
LINE
5
267
100
AcDbEntity
8
0
100
AcDbLine
62
7
6
CONTINUOUS
10
65.2292899325
20
211.2142132107
11
65.2443029944
21
210.8642132107
0
LINE
5
268
100
AcDbEntity
8
0
100
AcDbLine
62
7
6
CONTINUOUS
10
69.6743029944
20
109.3642132107
11
69.6893160564
21
109.0142132107
0
LINE
5
269
100
AcDbEntity
8
0
100
AcDbLine
62
7
6
CONTINUOUS
10
69.9593029944
20
210.8642132107
11
69.9593029944
21
208.6142132107
0
LINE
5
26A
100
AcDbEntity
8
0
100
AcDbLine
62
7
6
CONTINUOUS
10
69.9593029944
20
111.6142132107
11
69.9593029944
21
109.3642132107
0
LINE
5
26B
100
AcDbEntity
8
0
100
AcDbLine
62
7
6
CONTINUOUS
10
70.9593029944
20
212.2142132107
11
70.9593029944
21
211.7142132107
0
LINE
5
26C
100
AcDbEntity
8
0
100
AcDbLine
62
7
6
CONTINUOUS
10
70.9593029944
20
108.0142132107
11
70.9593029944
21
108.5142132107
0
LINE
5
26D
100
AcDbEntity
8
0
100
AcDbLine
62
7
6
CONTINUOUS
10
71.2093029944
20
208.6142132107
11
71.2093029944
21
208.2642132107
0
LINE
5
26E
100
AcDbEntity
8
0
100
AcDbLine
62
7
6
CONTINUOUS
10
71.2093029944
20
199.2642132107
11
71.2093029944
21
198.5642132107
0
LINE
5
26F
100
AcDbEntity
8
0
100
AcDbLine
62
7
6
CONTINUOUS
10
71.2093029944
20
189.5642132107
11
71.2093029944
21
188.8642132107
0
LINE
5
270
100
AcDbEntity
8
0
100
AcDbLine
62
7
6
CONTINUOUS
10
71.2093029944
20
179.8642132107
11
71.2093029944
21
179.1642132107
0
LINE
5
271
100
AcDbEntity
8
0
100
AcDbLine
62
7
6
CONTINUOUS
10
71.2093029944
20
170.1642132107
11
71.2093029944
21
169.4642132107
0
LINE
5
272
100
AcDbEntity
8
0
100
AcDbLine
62
7
6
CONTINUOUS
10
71.2093029944
20
160.4642132107
11
71.2093029944
21
159.7642132107
0
LINE
5
273
100
AcDbEntity
8
0
100
AcDbLine
62
7
6
CONTINUOUS
10
71.2093029944
20
150.7642132107
11
71.2093029944
21
150.0642132107
0
LINE
5
274
100
AcDbEntity
8
0
100
AcDbLine
62
7
6
CONTINUOUS
10
71.2093029944
20
141.0642132107
11
71.2093029944
21
140.3642132107
0
LINE
5
275
100
AcDbEntity
8
0
100
AcDbLine
62
7
6
CONTINUOUS
10
71.2093029944
20
131.3642132107
11
71.2093029944
21
130.6642132107
0
LINE
5
276
100
AcDbEntity
8
0
100
AcDbLine
62
7
6
CONTINUOUS
10
71.2093029944
20
121.6642132107
11
71.2093029944
21
120.9642132107
0
LINE
5
277
100
AcDbEntity
8
0
100
AcDbLine
62
7
6
CONTINUOUS
10
71.2093029944
20
111.9642132107
11
71.2093029944
21
111.6142132107
0
LINE
5
278
100
AcDbEntity
8
0
100
AcDbLine
62
7
6
CONTINUOUS
10
65.2443029944
20
109.3642132107
11
65.2292899325
21
109.0142132107
0
LINE
5
279
100
AcDbEntity
8
0
100
AcDbLine
62
7
6
CONTINUOUS
10
69.6893160564
20
211.2142132107
11
69.6743029944
21
210.8642132107
0
LINE
5
27A
100
AcDbEntity
8
0
100
AcDbLine
62
7
6
CONTINUOUS
10
87.6882929228
20
212.9393242477
11
87.8593029944
21
213.4091705581
0
LINE
5
27B
100
AcDbEntity
8
0
100
AcDbLine
62
7
6
CONTINUOUS
10
85.8277070231
20
115.5295519130
11
85.9987170947
21
115.0597056026
0
LINE
5
27C
100
AcDbEntity
8
0
100
AcDbLine
62
7
6
CONTINUOUS
10
86.4882929228
20
115.7699855177
11
86.6593029944
21
115.3001392073
0
LINE
5
27D
100
AcDbEntity
8
0
100
AcDbLine
62
7
6
CONTINUOUS
10
72.0593029944
20
209.4142132107
11
72.0593029944
21
208.4142132107
0
LINE
5
27E
100
AcDbEntity
8
0
100
AcDbLine
62
7
6
CONTINUOUS
10
72.0593029944
20
110.8142132107
11
72.0593029944
21
111.8142132107
0
LINE
5
27F
100
AcDbEntity
8
0
100
AcDbLine
62
7
6
CONTINUOUS
10
72.9593029944
20
208.2642132107
11
72.9593029944
21
199.2642132107
0
LINE
5
280
100
AcDbEntity
8
0
100
AcDbLine
62
7
6
CONTINUOUS
10
72.9593029944
20
198.5642132107
11
72.9593029944
21
189.5642132107
0
LINE
5
281
100
AcDbEntity
8
0
100
AcDbLine
62
7
6
CONTINUOUS
10
72.9593029944
20
188.8642132107
11
72.9593029944
21
179.8642132107
0
LINE
5
282
100
AcDbEntity
8
0
100
AcDbLine
62
7
6
CONTINUOUS
10
72.9593029944
20
179.1642132107
11
72.9593029944
21
170.1642132107
0
LINE
5
283
100
AcDbEntity
8
0
100
AcDbLine
62
7
6
CONTINUOUS
10
72.9593029944
20
169.4642132107
11
72.9593029944
21
160.4642132107
0
LINE
5
284
100
AcDbEntity
8
0
100
AcDbLine
62
7
6
CONTINUOUS
10
72.9593029944
20
159.7642132107
11
72.9593029944
21
150.7642132107
0
LINE
5
285
100
AcDbEntity
8
0
100
AcDbLine
62
7
6
CONTINUOUS
10
72.9593029944
20
150.0642132107
11
72.9593029944
21
141.0642132107
0
LINE
5
286
100
AcDbEntity
8
0
100
AcDbLine
62
7
6
CONTINUOUS
10
72.9593029944
20
140.3642132107
11
72.9593029944
21
131.3642132107
0
LINE
5
287
100
AcDbEntity
8
0
100
AcDbLine
62
7
6
CONTINUOUS
10
72.9593029944
20
130.6642132107
11
72.9593029944
21
121.6642132107
0
LINE
5
288
100
AcDbEntity
8
0
100
AcDbLine
62
7
6
CONTINUOUS
10
72.9593029944
20
120.9642132107
11
72.9593029944
21
111.9642132107
0
LINE
5
289
100
AcDbEntity
8
0
100
AcDbLine
62
7
6
CONTINUOUS
10
73.6571837667
20
102.6142132107
11
73.6571837667
21
107.5142132107
0
LINE
5
28A
100
AcDbEntity
8
0
100
AcDbLine
62
7
6
CONTINUOUS
10
73.6571837667
20
212.7142132107
11
73.6571837667
21
217.6142132107
0
LINE
5
28B
100
AcDbEntity
8
0
100
AcDbLine
62
7
6
CONTINUOUS
10
74.5593029944
20
208.2642132107
11
74.5593029944
21
199.2642132107
0
LINE
5
28C
100
AcDbEntity
8
0
100
AcDbLine
62
7
6
CONTINUOUS
10
74.5593029944
20
198.5642132107
11
74.5593029944
21
189.5642132107
0
LINE
5
28D
100
AcDbEntity
8
0
100
AcDbLine
62
7
6
CONTINUOUS
10
74.5593029944
20
188.8642132107
11
74.5593029944
21
179.8642132107
0
LINE
5
28E
100
AcDbEntity
8
0
100
AcDbLine
62
7
6
CONTINUOUS
10
74.5593029944
20
179.1642132107
11
74.5593029944
21
170.1642132107
0
LINE
5
28F
100
AcDbEntity
8
0
100
AcDbLine
62
7
6
CONTINUOUS
10
74.5593029944
20
169.4642132107
11
74.5593029944
21
160.4642132107
0
LINE
5
290
100
AcDbEntity
8
0
100
AcDbLine
62
7
6
CONTINUOUS
10
74.5593029944
20
159.7642132107
11
74.5593029944
21
150.7642132107
0
LINE
5
291
100
AcDbEntity
8
0
100
AcDbLine
62
7
6
CONTINUOUS
10
74.5593029944
20
150.0642132107
11
74.5593029944
21
141.0642132107
0
LINE
5
292
100
AcDbEntity
8
0
100
AcDbLine
62
7
6
CONTINUOUS
10
74.5593029944
20
140.3642132107
11
74.5593029944
21
131.3642132107
0
LINE
5
293
100
AcDbEntity
8
0
100
AcDbLine
62
7
6
CONTINUOUS
10
74.5593029944
20
130.6642132107
11
74.5593029944
21
121.6642132107
0
LINE
5
294
100
AcDbEntity
8
0
100
AcDbLine
62
7
6
CONTINUOUS
10
74.5593029944
20
120.9642132107
11
74.5593029944
21
111.9642132107
0
LINE
5
295
100
AcDbEntity
8
0
100
AcDbLine
62
7
6
CONTINUOUS
10
76.3093029944
20
208.6142132107
11
76.3093029944
21
208.2642132107
0
LINE
5
296
100
AcDbEntity
8
0
100
AcDbLine
62
7
6
CONTINUOUS
10
76.3093029944
20
199.2642132107
11
76.3093029944
21
198.5642132107
0
LINE
5
297
100
AcDbEntity
8
0
100
AcDbLine
62
7
6
CONTINUOUS
10
76.3093029944
20
189.5642132107
11
76.3093029944
21
188.8642132107
0
LINE
5
298
100
AcDbEntity
8
0
100
AcDbLine
62
7
6
CONTINUOUS
10
76.3093029944
20
179.8642132107
11
76.3093029944
21
179.1642132107
0
LINE
5
299
100
AcDbEntity
8
0
100
AcDbLine
62
7
6
CONTINUOUS
10
76.3093029944
20
170.1642132107
11
76.3093029944
21
169.4642132107
0
LINE
5
29A
100
AcDbEntity
8
0
100
AcDbLine
62
7
6
CONTINUOUS
10
76.3093029944
20
160.4642132107
11
76.3093029944
21
159.7642132107
0
LINE
5
29B
100
AcDbEntity
8
0
100
AcDbLine
62
7
6
CONTINUOUS
10
76.3093029944
20
150.7642132107
11
76.3093029944
21
150.0642132107
0
LINE
5
29C
100
AcDbEntity
8
0
100
AcDbLine
62
7
6
CONTINUOUS
10
76.3093029944
20
141.0642132107
11
76.3093029944
21
140.3642132107
0
LINE
5
29D
100
AcDbEntity
8
0
100
AcDbLine
62
7
6
CONTINUOUS
10
76.3093029944
20
131.3642132107
11
76.3093029944
21
130.6642132107
0
LINE
5
29E
100
AcDbEntity
8
0
100
AcDbLine
62
7
6
CONTINUOUS
10
76.3093029944
20
121.6642132107
11
76.3093029944
21
120.9642132107
0
LINE
5
29F
100
AcDbEntity
8
0
100
AcDbLine
62
7
6
CONTINUOUS
10
76.3093029944
20
111.9642132107
11
76.3093029944
21
111.6142132107
0
LINE
5
2A0
100
AcDbEntity
8
0
100
AcDbLine
62
7
6
CONTINUOUS
10
76.5593029944
20
212.2142132107
11
76.5593029944
21
211.7142132107
0
LINE
5
2A1
100
AcDbEntity
8
0
100
AcDbLine
62
7
6
CONTINUOUS
10
76.5593029944
20
108.0142132107
11
76.5593029944
21
108.5142132107
0
LINE
5
2A2
100
AcDbEntity
8
0
100
AcDbLine
62
7
6
CONTINUOUS
10
77.4135516834
20
212.7142132107
11
77.4135516834
21
213.2142132107
0
LINE
5
2A3
100
AcDbEntity
8
0
100
AcDbLine
62
7
6
CONTINUOUS
10
77.4135516834
20
107.5142132107
11
77.4135516638
21
107.0142132143
0
LINE
5
2A4
100
AcDbEntity
8
0
100
AcDbLine
62
7
6
CONTINUOUS
10
77.5593029944
20
210.8642132107
11
77.5593029944
21
208.6142132107
0
LINE
5
2A5
100
AcDbEntity
8
0
100
AcDbLine
62
7
6
CONTINUOUS
10
77.5593029944
20
111.6142132107
11
77.5593029944
21
109.3642132107
0
LINE
5
2A6
100
AcDbEntity
8
0
100
AcDbLine
62
7
6
CONTINUOUS
10
79.3143049960
20
217.6142132107
11
79.3143049960
21
212.6312706402
0
LINE
5
2A7
100
AcDbEntity
8
0
100
AcDbLine
62
7
6
CONTINUOUS
10
85.8277070231
20
181.5988745083
11
85.9987170899
21
182.0687208205
0
LINE
5
2A8
100
AcDbEntity
8
0
100
AcDbLine
62
7
6
CONTINUOUS
10
86.4882929228
20
181.3584409037
11
86.6593029944
21
181.8282872140
0
LINE
5
2A9
100
AcDbEntity
8
0
100
AcDbLine
62
7
6
CONTINUOUS
10
61.9593029944
20
169.4642132107
11
72.9593029944
21
169.4642132107
0
LINE
5
2AA
100
AcDbEntity
8
0
100
AcDbLine
62
7
6
CONTINUOUS
10
74.5593029944
20
169.4642132107
11
85.5593029944
21
169.4642132107
0
LINE
5
2AB
100
AcDbEntity
8
0
100
AcDbLine
62
7
6
CONTINUOUS
10
63.7093029944
20
169.8142132107
11
71.2093029944
21
169.8142132107
0
LINE
5
2AC
100
AcDbEntity
8
0
100
AcDbLine
62
7
6
CONTINUOUS
10
76.3093029944
20
169.8142132107
11
83.8093029944
21
169.8142132107
0
LINE
5
2AD
100
AcDbEntity
8
0
100
AcDbLine
62
7
6
CONTINUOUS
10
61.9593029944
20
170.1642132107
11
72.9593029944
21
170.1642132107
0
LINE
5
2AE
100
AcDbEntity
8
0
100
AcDbLine
62
7
6
CONTINUOUS
10
74.5593029944
20
170.1642132107
11
85.5593029944
21
170.1642132107
0
LINE
5
2AF
100
AcDbEntity
8
0
100
AcDbLine
62
7
6
CONTINUOUS
10
77.8291154837
20
211.2182801415
11
77.8443029944
21
210.8642132107
0
LINE
5
2B0
100
AcDbEntity
8
0
100
AcDbLine
62
7
6
CONTINUOUS
10
82.2743029944
20
109.3642132107
11
82.2893160564
21
109.0142132107
0
LINE
5
2B1
100
AcDbEntity
8
0
100
AcDbLine
62
7
6
CONTINUOUS
10
79.8145253105
20
211.7142132107
11
79.8145253105
21
212.2142132107
0
LINE
5
2B2
100
AcDbEntity
8
0
100
AcDbLine
62
7
6
CONTINUOUS
10
79.8632163345
20
211.7142132107
11
79.8632163345
21
212.2142132107
0
LINE
5
2B3
100
AcDbEntity
8
0
100
AcDbLine
62
7
6
CONTINUOUS
10
80.0593029944
20
108.0142119615
11
80.0593029944
21
109.0142132107
0
LINE
5
2B4
100
AcDbEntity
8
0
100
AcDbLine
62
7
6
CONTINUOUS
10
80.9143049960
20
102.6142132107
11
80.9143049960
21
109.0142132107
0
LINE
5
2B5
100
AcDbEntity
8
0
100
AcDbLine
62
7
6
CONTINUOUS
10
82.5593029944
20
210.8642132107
11
82.5593029944
21
208.6142132107
0
LINE
5
2B6
100
AcDbEntity
8
0
100
AcDbLine
62
7
6
CONTINUOUS
10
82.5593029944
20
111.6142132107
11
82.5593029944
21
109.3642132107
0
LINE
5
2B7
100
AcDbEntity
8
0
100
AcDbLine
62
7
6
CONTINUOUS
10
77.8443029944
20
109.3642132107
11
77.8292899325
21
109.0142132107
0
LINE
5
2B8
100
AcDbEntity
8
0
100
AcDbLine
62
7
6
CONTINUOUS
10
82.2894905052
20
211.2182801415
11
82.2743029944
21
210.8642132107
0
LINE
5
2B9
100
AcDbEntity
8
0
100
AcDbLine
62
7
6
CONTINUOUS
10
83.7296875585
20
107.0920499101
11
83.7296875585
21
104.5363765109
0
LINE
5
2BA
100
AcDbEntity
8
0
100
AcDbLine
62
7
6
CONTINUOUS
10
83.8093029944
20
208.6142132107
11
83.8093029944
21
208.2642132107
0
LINE
5
2BB
100
AcDbEntity
8
0
100
AcDbLine
62
7
6
CONTINUOUS
10
83.8093029944
20
199.2642132107
11
83.8093029944
21
198.5642132107
0
LINE
5
2BC
100
AcDbEntity
8
0
100
AcDbLine
62
7
6
CONTINUOUS
10
83.8093029944
20
189.5642132107
11
83.8093029944
21
188.8642132107
0
LINE
5
2BD
100
AcDbEntity
8
0
100
AcDbLine
62
7
6
CONTINUOUS
10
83.8093029944
20
179.8642132107
11
83.8093029944
21
179.1642132107
0
LINE
5
2BE
100
AcDbEntity
8
0
100
AcDbLine
62
7
6
CONTINUOUS
10
83.8093029944
20
170.1642132107
11
83.8093029944
21
169.4642132107
0
LINE
5
2BF
100
AcDbEntity
8
0
100
AcDbLine
62
7
6
CONTINUOUS
10
83.8093029944
20
160.4642132107
11
83.8093029944
21
159.7642132107
0
LINE
5
2C0
100
AcDbEntity
8
0
100
AcDbLine
62
7
6
CONTINUOUS
10
83.8093029944
20
150.7642132107
11
83.8093029944
21
150.0642132107
0
LINE
5
2C1
100
AcDbEntity
8
0
100
AcDbLine
62
7
6
CONTINUOUS
10
83.8093029944
20
141.0642132107
11
83.8093029944
21
140.3642132107
0
LINE
5
2C2
100
AcDbEntity
8
0
100
AcDbLine
62
7
6
CONTINUOUS
10
83.8093029944
20
131.3642132107
11
83.8093029944
21
130.6642132107
0
LINE
5
2C3
100
AcDbEntity
8
0
100
AcDbLine
62
7
6
CONTINUOUS
10
83.8093029944
20
121.6642132107
11
83.8093029944
21
120.9642132107
0
LINE
5
2C4
100
AcDbEntity
8
0
100
AcDbLine
62
7
6
CONTINUOUS
10
83.8093029944
20
111.9642132107
11
83.8093029944
21
111.6142132107
0
LINE
5
2C5
100
AcDbEntity
8
0
100
AcDbLine
62
7
6
CONTINUOUS
10
84.1593029944
20
107.0920499101
11
84.1593029944
21
104.5363765112
0
LINE
5
2C6
100
AcDbEntity
8
0
100
AcDbLine
62
7
6
CONTINUOUS
10
85.0593029944
20
211.2142132107
11
85.0593029944
21
208.2642132107
0
LINE
5
2C7
100
AcDbEntity
8
0
100
AcDbLine
62
7
6
CONTINUOUS
10
85.0593029944
20
179.8642132107
11
85.0593029944
21
179.1642132107
0
LINE
5
2C8
100
AcDbEntity
8
0
100
AcDbLine
62
7
6
CONTINUOUS
10
85.0593029944
20
170.1642132107
11
85.0593029944
21
169.4642132107
0
LINE
5
2C9
100
AcDbEntity
8
0
100
AcDbLine
62
7
6
CONTINUOUS
10
85.0593029944
20
160.4642132107
11
85.0593029944
21
160.3142132107
0
LINE
5
2CA
100
AcDbEntity
8
0
100
AcDbLine
62
7
6
CONTINUOUS
10
85.0593029944
20
131.3642132107
11
85.0593029944
21
130.6642132107
0
LINE
5
2CB
100
AcDbEntity
8
0
100
AcDbLine
62
7
6
CONTINUOUS
10
85.0593029944
20
121.6642132107
11
85.0593029944
21
120.9642132107
0
LINE
5
2CC
100
AcDbEntity
8
0
100
AcDbLine
62
7
6
CONTINUOUS
10
85.2066106354
20
211.7142132107
11
85.2066106354
21
213.4285836093
0
LINE
5
2CD
100
AcDbEntity
8
0
100
AcDbLine
62
7
6
CONTINUOUS
10
85.2066106354
20
215.3998428120
11
85.2066106354
21
216.6142132107
0
LINE
5
2CE
100
AcDbEntity
8
0
100
AcDbLine
62
7
6
CONTINUOUS
10
85.5593029944
20
198.5642132107
11
85.5593029944
21
189.5642132107
0
LINE
5
2CF
100
AcDbEntity
8
0
100
AcDbLine
62
7
6
CONTINUOUS
10
85.5593029944
20
188.8642132107
11
85.5593029944
21
160.3142132107
0
LINE
5
2D0
100
AcDbEntity
8
0
100
AcDbLine
62
7
6
CONTINUOUS
10
85.5593029944
20
159.7642132107
11
85.5593029944
21
150.7642132107
0
LINE
5
2D1
100
AcDbEntity
8
0
100
AcDbLine
62
7
6
CONTINUOUS
10
85.5593029944
20
150.0642132107
11
85.5593029944
21
141.0642132107
0
LINE
5
2D2
100
AcDbEntity
8
0
100
AcDbLine
62
7
6
CONTINUOUS
10
85.5593029944
20
140.3642132107
11
85.5593029944
21
111.9642132107
0
LINE
5
2D3
100
AcDbEntity
8
0
100
AcDbLine
62
7
6
CONTINUOUS
10
85.5593029944
20
199.2642132107
11
85.5593029944
21
213.4285836093
0
LINE
5
2D4
100
AcDbEntity
8
0
100
AcDbLine
62
7
6
CONTINUOUS
10
85.5593029944
20
214.0993706106
11
85.5593029944
21
214.7290558107
0
LINE
5
2D5
100
AcDbEntity
8
0
100
AcDbLine
62
7
6
CONTINUOUS
10
85.5593029944
20
215.3998428120
11
85.5593029944
21
217.1142132107
0
LINE
5
2D6
100
AcDbEntity
8
0
100
AcDbLine
62
7
6
CONTINUOUS
10
85.7593029944
20
160.1142132107
11
85.7593029944
21
159.6142132107
0
LINE
5
2D7
100
AcDbEntity
8
0
100
AcDbLine
62
7
6
CONTINUOUS
10
86.6593029944
20
204.0001392073
11
86.6593029944
21
181.8282872140
0
LINE
5
2D8
100
AcDbEntity
8
0
100
AcDbLine
62
7
6
CONTINUOUS
10
86.6593029944
20
160.1142132107
11
86.6593029944
21
139.3282872140
0
LINE
5
2D9
100
AcDbEntity
8
0
100
AcDbLine
62
7
6
CONTINUOUS
10
86.6593029944
20
115.3001392073
11
86.6593029944
21
109.0142132107
0
LINE
5
2DA
100
AcDbEntity
8
0
100
AcDbLine
62
7
6
CONTINUOUS
10
86.8066106354
20
108.5142132107
11
86.8066106354
21
107.4282872140
0
LINE
5
2DB
100
AcDbEntity
8
0
100
AcDbLine
62
7
6
CONTINUOUS
10
86.8066106354
20
104.2001392073
11
86.8066106354
21
103.6142132106
0
LINE
5
2DC
100
AcDbEntity
8
0
100
AcDbLine
62
7
6
CONTINUOUS
10
87.1593029944
20
204.0001392073
11
87.1593029944
21
181.8282872140
0
LINE
5
2DD
100
AcDbEntity
8
0
100
AcDbLine
62
7
6
CONTINUOUS
10
87.1593029944
20
159.6142132107
11
87.1593029944
21
139.3282872140
0
LINE
5
2DE
100
AcDbEntity
8
0
100
AcDbLine
62
7
6
CONTINUOUS
10
87.1593029944
20
115.3001392073
11
87.1593029944
21
107.4282872140
0
LINE
5
2DF
100
AcDbEntity
8
0
100
AcDbLine
62
7
6
CONTINUOUS
10
87.1593029944
20
104.2001392073
11
87.1593029944
21
103.1142132107
0
LINE
5
2E0
100
AcDbEntity
8
0
100
AcDbLine
62
7
6
CONTINUOUS
10
61.9593029944
20
179.1642132107
11
72.9593029944
21
179.1642132107
0
LINE
5
2E1
100
AcDbEntity
8
0
100
AcDbLine
62
7
6
CONTINUOUS
10
74.5593029944
20
179.1642132107
11
85.5593029944
21
179.1642132107
0
LINE
5
2E2
100
AcDbEntity
8
0
100
AcDbLine
62
7
6
CONTINUOUS
10
63.7093029944
20
179.5142132107
11
71.2093029944
21
179.5142132107
0
LINE
5
2E3
100
AcDbEntity
8
0
100
AcDbLine
62
7
6
CONTINUOUS
10
76.3093029944
20
179.5142132107
11
83.8093029944
21
179.5142132107
0
LINE
5
2E4
100
AcDbEntity
8
0
100
AcDbLine
62
7
6
CONTINUOUS
10
61.9593029944
20
179.8642132107
11
72.9593029944
21
179.8642132107
0
LINE
5
2E5
100
AcDbEntity
8
0
100
AcDbLine
62
7
6
CONTINUOUS
10
74.5593029944
20
179.8642132107
11
85.5593029944
21
179.8642132107
0
LINE
5
2E6
100
AcDbEntity
8
0
100
AcDbLine
62
7
6
CONTINUOUS
10
87.8593029944
20
215.4192558632
11
87.8593029944
21
213.4091705581
0
LINE
5
2E7
100
AcDbEntity
8
0
100
AcDbLine
62
7
6
CONTINUOUS
10
88.3593029944
20
215.4192558632
11
88.3593029944
21
213.4091705581
0
LINE
5
2E8
100
AcDbEntity
8
0
100
AcDbLine
62
7
6
CONTINUOUS
10
87.1593029944
20
181.8282872140
11
86.6593029944
21
181.8282872140
0
LINE
5
2E9
100
AcDbEntity
8
0
100
AcDbLine
62
7
6
CONTINUOUS
10
85.8277070231
20
139.0988745083
11
85.9987170899
21
139.5687208205
0
LINE
5
2EA
100
AcDbEntity
8
0
100
AcDbLine
62
7
6
CONTINUOUS
10
86.4882929228
20
138.8584409037
11
86.6593029944
21
139.3282872140
0
LINE
5
2EB
100
AcDbEntity
8
0
100
AcDbLine
62
7
6
CONTINUOUS
10
61.9593029944
20
188.8642132107
11
72.9593029944
21
188.8642132107
0
LINE
5
2EC
100
AcDbEntity
8
0
100
AcDbLine
62
7
6
CONTINUOUS
10
74.5593029944
20
188.8642132107
11
85.5593029944
21
188.8642132107
0
LINE
5
2ED
100
AcDbEntity
8
0
100
AcDbLine
62
7
6
CONTINUOUS
10
63.7093029944
20
189.2142132107
11
71.2093029944
21
189.2142132107
0
LINE
5
2EE
100
AcDbEntity
8
0
100
AcDbLine
62
7
6
CONTINUOUS
10
76.3093029944
20
189.2142132107
11
83.8093029944
21
189.2142132107
0
LINE
5
2EF
100
AcDbEntity
8
0
100
AcDbLine
62
7
6
CONTINUOUS
10
86.4882929228
20
181.3584409037
11
85.8277070231
21
181.5988745083
0
LINE
5
2F0
100
AcDbEntity
8
0
100
AcDbLine
62
7
6
CONTINUOUS
10
86.6593029944
20
181.8282872140
11
85.9987170947
21
182.0687208187
0
LINE
5
2F1
100
AcDbEntity
8
0
100
AcDbLine
62
7
6
CONTINUOUS
10
61.9593029944
20
189.5642132107
11
72.9593029944
21
189.5642132107
0
LINE
5
2F2
100
AcDbEntity
8
0
100
AcDbLine
62
7
6
CONTINUOUS
10
74.5593029944
20
189.5642132107
11
85.5593029944
21
189.5642132107
0
LINE
5
2F3
100
AcDbEntity
8
0
100
AcDbLine
62
7
6
CONTINUOUS
10
85.8277070231
20
204.2295519130
11
85.9987170947
21
203.7597056026
0
LINE
5
2F4
100
AcDbEntity
8
0
100
AcDbLine
62
7
6
CONTINUOUS
10
86.4882929228
20
204.4699855177
11
86.6593029944
21
204.0001392073
0
LINE
5
2F5
100
AcDbEntity
8
0
100
AcDbLine
62
7
6
CONTINUOUS
10
85.8277070231
20
215.2119042879
11
85.9987170947
21
214.7420579775
0
LINE
5
2F6
100
AcDbEntity
8
0
100
AcDbLine
62
7
6
CONTINUOUS
10
61.9593029944
20
198.5642132107
11
72.9593029944
21
198.5642132107
0
LINE
5
2F7
100
AcDbEntity
8
0
100
AcDbLine
62
7
6
CONTINUOUS
10
74.5593029944
20
198.5642132107
11
85.5593029944
21
198.5642132107
0
LINE
5
2F8
100
AcDbEntity
8
0
100
AcDbLine
62
7
6
CONTINUOUS
10
63.7093029944
20
198.9142132107
11
71.2093029944
21
198.9142132107
0
LINE
5
2F9
100
AcDbEntity
8
0
100
AcDbLine
62
7
6
CONTINUOUS
10
76.3093029944
20
198.9142132107
11
83.8093029944
21
198.9142132107
0
LINE
5
2FA
100
AcDbEntity
8
0
100
AcDbLine
62
7
6
CONTINUOUS
10
61.9593029944
20
199.2642132107
11
72.9593029944
21
199.2642132107
0
LINE
5
2FB
100
AcDbEntity
8
0
100
AcDbLine
62
7
6
CONTINUOUS
10
74.5593029944
20
199.2642132107
11
85.5593029944
21
199.2642132107
0
LINE
5
2FC
100
AcDbEntity
8
0
100
AcDbLine
62
7
6
CONTINUOUS
10
87.6882929228
20
215.8891021736
11
87.8593029944
21
215.4192558632
0
LINE
5
2FD
100
AcDbEntity
8
0
100
AcDbLine
62
7
6
CONTINUOUS
10
87.1593029944
20
204.0001392073
11
86.6593029944
21
204.0001392073
0
LINE
5
2FE
100
AcDbEntity
8
0
100
AcDbLine
62
7
6
CONTINUOUS
10
85.8277070231
20
115.5295519130
11
86.4882929228
21
115.7699855177
0
LINE
5
2FF
100
AcDbEntity
8
0
100
AcDbLine
62
7
6
CONTINUOUS
10
85.9987170947
20
115.0597056026
11
86.6593029944
21
115.3001392073
0
LINE
5
300
100
AcDbEntity
8
0
100
AcDbLine
62
7
6
CONTINUOUS
10
61.9593029944
20
208.2642132107
11
72.9593029944
21
208.2642132107
0
LINE
5
301
100
AcDbEntity
8
0
100
AcDbLine
62
7
6
CONTINUOUS
10
74.5593029944
20
208.2642132107
11
85.5593029944
21
208.2642132107
0
LINE
5
302
100
AcDbEntity
8
0
100
AcDbLine
62
7
6
CONTINUOUS
10
63.7093029944
20
208.6142132107
11
71.2093029944
21
208.6142132107
0
LINE
5
303
100
AcDbEntity
8
0
100
AcDbLine
62
7
6
CONTINUOUS
10
76.3093029944
20
208.6142132107
11
83.8093029944
21
208.6142132107
0
LINE
5
304
100
AcDbEntity
8
0
100
AcDbLine
62
7
6
CONTINUOUS
10
64.9596901877
20
210.8642132107
11
69.9589158012
21
210.8642132107
0
LINE
5
305
100
AcDbEntity
8
0
100
AcDbLine
62
7
6
CONTINUOUS
10
77.5596901877
20
210.8642132107
11
82.5589158012
21
210.8642132107
0
LINE
5
306
100
AcDbEntity
8
0
100
AcDbLine
62
7
6
CONTINUOUS
10
85.0593029944
20
211.2142132107
11
77.0593029944
21
211.2142132107
0
LINE
5
307
100
AcDbEntity
8
0
100
AcDbLine
62
7
6
CONTINUOUS
10
70.4593029944
20
211.2142132107
11
64.4593029944
21
211.2142132107
0
LINE
5
308
100
AcDbEntity
8
0
100
AcDbLine
62
7
6
CONTINUOUS
10
70.9593029944
20
211.7142132107
11
63.9593029944
21
211.7142132107
0
LINE
5
309
100
AcDbEntity
8
0
100
AcDbLine
62
7
6
CONTINUOUS
10
56.6185299174
20
211.7142132107
11
59.9593029944
21
211.7142132107
0
LINE
5
30A
100
AcDbEntity
8
0
100
AcDbLine
62
7
6
CONTINUOUS
10
76.5593029944
20
211.7142132107
11
85.5593029944
21
211.7142132107
0
LINE
5
30B
100
AcDbEntity
8
0
100
AcDbLine
62
7
6
CONTINUOUS
10
70.9593029944
20
212.2142132107
11
63.9593029944
21
212.2142132107
0
LINE
5
30C
100
AcDbEntity
8
0
100
AcDbLine
62
7
6
CONTINUOUS
10
76.5593029944
20
212.2142132107
11
79.8632163345
21
212.2142132107
0
LINE
5
30D
100
AcDbEntity
8
0
100
AcDbLine
62
7
6
CONTINUOUS
10
77.4135516832
20
212.7142132107
11
68.6573513273
21
212.7142132107
0
LINE
5
30E
100
AcDbEntity
8
0
100
AcDbLine
62
7
6
CONTINUOUS
10
65.9412671140
20
212.7142132107
11
59.8074767011
21
212.7142132107
0
LINE
5
30F
100
AcDbEntity
8
0
100
AcDbLine
62
7
6
CONTINUOUS
10
77.4135516834
20
213.2142132107
11
68.6406290624
21
213.2142132107
0
LINE
5
310
100
AcDbEntity
8
0
100
AcDbLine
62
7
6
CONTINUOUS
10
65.9154615025
20
213.2142132107
11
59.7611565916
21
213.2142132107
0
LINE
5
311
100
AcDbEntity
8
0
100
AcDbLine
62
7
6
CONTINUOUS
10
88.3593029944
20
213.4091705581
11
87.8593029944
21
213.4091705581
0
LINE
5
312
100
AcDbEntity
8
0
100
AcDbLine
62
7
6
CONTINUOUS
10
85.2066106354
20
213.4285836093
11
85.5593029944
21
213.4285836062
0
LINE
5
313
100
AcDbEntity
8
0
100
AcDbLine
62
7
6
CONTINUOUS
10
84.8303130661
20
104.0665302009
11
86.4882929228
21
104.6699855177
0
LWPOLYLINE
5
314
100
AcDbEntity
8
0
100
AcDbPolyline
62
7
6
CONTINUOUS
90
12
70
0
10
45.9968022931
20
217.6142130334
10
45.9679469531
20
217.6139102258
10
45.7644739207
20
217.5953295066
10
45.5728487075
20
217.5500346777
10
45.3957163811
20
217.4803289494
10
45.2359074889
20
217.3880809596
10
45.0961468173
20
217.2748202476
10
44.9809403539
20
217.1440977572
10
44.8923013948
20
216.9980808249
10
44.8333949665
20
216.8421724598
10
44.8052386111
20
216.6809951940
10
44.8026202199
20
216.6142132114
0
LINE
5
315
100
AcDbEntity
8
0
100
AcDbLine
62
7
6
CONTINUOUS
10
85.2066106354
20
215.3998428120
11
85.5593029944
21
215.3998428120
0
LINE
5
316
100
AcDbEntity
8
0
100
AcDbLine
62
7
6
CONTINUOUS
10
88.3593029944
20
215.4192558632
11
87.8593029944
21
215.4192558632
0
LINE
5
317
100
AcDbEntity
8
0
100
AcDbLine
62
7
6
CONTINUOUS
10
44.8026182587
20
216.6142132104
11
85.5593029944
21
216.6142132107
0
LINE
5
318
100
AcDbEntity
8
0
100
AcDbLine
62
7
6
CONTINUOUS
10
45.9967943655
20
217.6142127056
11
85.0593029944
21
217.6142132107
0
LINE
5
319
100
AcDbEntity
8
0
100
AcDbLine
62
7
6
CONTINUOUS
10
87.6882929228
20
212.9393242477
11
85.8277070231
21
213.6165221335
0
LINE
5
31A
100
AcDbEntity
8
0
100
AcDbLine
62
7
6
CONTINUOUS
10
87.8593029944
20
213.4091705581
11
85.9987170947
21
214.0863684439
0
LINE
5
31B
100
AcDbEntity
8
0
100
AcDbLine
62
7
6
CONTINUOUS
10
45.9975833082
20
264.2338035680
11
45.7568747264
21
263.7955577710
0
LINE
5
31C
100
AcDbEntity
8
0
100
AcDbLine
62
7
6
CONTINUOUS
10
66.2551057421
20
246.4236041198
11
87.8593029944
21
246.4236041198
0
LINE
5
31D
100
AcDbEntity
8
0
100
AcDbLine
62
7
6
CONTINUOUS
10
71.8093029944
20
246.9236041198
11
66.2551057421
21
246.9236041198
0
LINE
5
31E
100
AcDbEntity
8
0
100
AcDbLine
62
7
6
CONTINUOUS
10
78.3093029944
20
246.9236041198
11
88.3593029944
21
246.9236041198
0
LINE
5
31F
100
AcDbEntity
8
0
100
AcDbLine
62
7
6
CONTINUOUS
10
69.8093029944
20
249.9236041198
11
80.3093029944
21
249.9236041198
0
LINE
5
320
100
AcDbEntity
8
0
100
AcDbLine
62
7
6
CONTINUOUS
10
69.3093029944
20
250.4236041198
11
80.8093029944
21
250.4236041198
0
LINE
5
321
100
AcDbEntity
8
0
100
AcDbLine
62
7
6
CONTINUOUS
10
69.3093029944
20
253.4236041198
11
80.8093029944
21
253.4236041198
0
LINE
5
322
100
AcDbEntity
8
0
100
AcDbLine
62
7
6
CONTINUOUS
10
80.3093029944
20
253.9236041198
11
69.8093029944
21
253.9236041198
0
LINE
5
323
100
AcDbEntity
8
0
100
AcDbLine
62
7
6
CONTINUOUS
10
66.2551057421
20
246.4236041198
11
66.2551057421
21
246.9236041198
0
LINE
5
324
100
AcDbEntity
8
0
100
AcDbLine
62
7
6
CONTINUOUS
10
69.3093029944
20
253.4236041198
11
69.3093029944
21
250.4236041198
0
LINE
5
325
100
AcDbEntity
8
0
100
AcDbLine
62
7
6
CONTINUOUS
10
69.5593029944
20
250.4236041198
11
69.5593029944
21
253.4236041198
0
LINE
5
326
100
AcDbEntity
8
0
100
AcDbLine
62
7
6
CONTINUOUS
10
71.8093029944
20
246.4236041198
11
71.8093029944
21
249.9236041198
0
LINE
5
327
100
AcDbEntity
8
0
100
AcDbLine
62
7
6
CONTINUOUS
10
73.6571837667
20
266.8236041198
11
73.6571837667
21
267.8236041198
0
LINE
5
328
100
AcDbEntity
8
0
100
AcDbLine
62
7
6
CONTINUOUS
10
65.8597595849
20
246.6174972496
11
66.2551057421
21
246.9236041198
0
LINE
5
329
100
AcDbEntity
8
0
100
AcDbLine
62
7
6
CONTINUOUS
10
87.1593029944
20
265.9342363009
11
86.6593029944
21
265.9342363009
0
LINE
5
32A
100
AcDbEntity
8
0
100
AcDbLine
62
7
6
CONTINUOUS
10
75.0593029944
20
250.4236041198
11
75.0593029944
21
253.4236041198
0
LINE
5
32B
100
AcDbEntity
8
0
100
AcDbLine
62
7
6
CONTINUOUS
10
88.3593029944
20
266.3236041198
11
87.1593029944
21
266.3236041198
0
LINE
5
32C
100
AcDbEntity
8
0
100
AcDbLine
62
7
6
CONTINUOUS
10
87.8593029944
20
266.8236041198
11
86.9994903952
21
266.8236041198
0
LINE
5
32D
100
AcDbEntity
8
0
100
AcDbLine
62
7
6
CONTINUOUS
10
80.9143049960
20
266.8236041198
11
73.6571837667
21
266.8236041198
0
LINE
5
32E
100
AcDbEntity
8
0
100
AcDbLine
62
7
6
CONTINUOUS
10
80.9143049960
20
267.8236041198
11
73.6571837667
21
267.8236041198
0
LINE
5
32F
100
AcDbEntity
8
0
100
AcDbLine
62
7
6
CONTINUOUS
10
78.3093029944
20
246.4236041198
11
78.3093029944
21
249.9236041198
0
LINE
5
330
100
AcDbEntity
8
0
100
AcDbLine
62
7
6
CONTINUOUS
10
84.3589270082
20
267.5247321070
11
84.3586093679
21
267.5247883483
0
LINE
5
331
100
AcDbEntity
8
0
100
AcDbLine
62
7
6
CONTINUOUS
10
85.1010984186
20
267.3801129813
11
84.7827777893
21
267.4397535420
0
LWPOLYLINE
5
332
100
AcDbEntity
8
0
100
AcDbPolyline
62
7
6
CONTINUOUS
90
4
70
0
10
84.7827777893
20
267.4397535420
10
84.6243193269
20
267.4715978760
10
84.4684380417
20
267.5039769603
10
84.3589270082
20
267.5247321070
0
LINE
5
333
100
AcDbEntity
8
0
100
AcDbLine
62
7
6
CONTINUOUS
10
80.5593029944
20
253.4236041198
11
80.5593029944
21
250.4236041198
0
LINE
5
334
100
AcDbEntity
8
0
100
AcDbLine
62
7
6
CONTINUOUS
10
80.8093029944
20
253.4236041198
11
80.8093029944
21
250.4236041198
0
LINE
5
335
100
AcDbEntity
8
0
100
AcDbLine
62
7
6
CONTINUOUS
10
80.9143049960
20
266.8236041198
11
80.9143049960
21
267.8236041198
0
LINE
5
336
100
AcDbEntity
8
0
100
AcDbLine
62
7
6
CONTINUOUS
10
85.0999916707
20
267.3803476541
11
85.1010984859
21
267.3801133122
0
LWPOLYLINE
5
337
100
AcDbEntity
8
0
100
AcDbPolyline
62
7
6
CONTINUOUS
90
3
70
0
10
85.1555214580
20
267.3687343925
10
85.1285423702
20
267.3744856756
10
85.0999916707
20
267.3803476541
0
LINE
5
338
100
AcDbEntity
8
0
100
AcDbLine
62
7
6
CONTINUOUS
10
85.1010984859
20
267.3801133122
11
85.1060557733
21
267.3787734982
0
LINE
5
339
100
AcDbEntity
8
0
100
AcDbLine
62
7
6
CONTINUOUS
10
86.6593029944
20
246.4236041198
11
86.6593029944
21
265.9342363009
0
LINE
5
33A
100
AcDbEntity
8
0
100
AcDbLine
62
7
6
CONTINUOUS
10
87.1593029944
20
266.4581150605
11
87.1593029944
21
246.9236041198
0
LINE
5
33B
100
AcDbEntity
8
0
100
AcDbLine
62
7
6
CONTINUOUS
10
87.6882929228
20
266.3236041198
11
87.6882929228
21
246.9236041198
0
LINE
5
33C
100
AcDbEntity
8
0
100
AcDbLine
62
7
6
CONTINUOUS
10
88.3593029944
20
266.3236041198
11
88.3593029944
21
246.9236041198
0
ARC
5
33D
100
AcDbEntity
8
0
100
AcDbCircle
62
7
6
CONTINUOUS
10
60.9593029944
20
211.7142132107
40
1.0000000000
100
AcDbArc
50
90.0000000000
51
180.0000000000
0
ARC
5
33E
100
AcDbEntity
8
0
100
AcDbCircle
62
7
6
CONTINUOUS
10
75.0593029944
20
110.8142132107
40
3.0000000000
100
AcDbArc
50
323.1301023542
51
331.0638766384
0
ARC
5
33F
100
AcDbEntity
8
0
100
AcDbCircle
62
7
6
CONTINUOUS
10
75.0593029944
20
111.8142132107
40
3.0000000000
100
AcDbArc
50
177.1038399745
51
180.0000000000
0
ARC
5
340
100
AcDbEntity
8
0
100
AcDbCircle
62
7
6
CONTINUOUS
10
75.0593029944
20
111.8142132107
40
3.0000000000
100
AcDbArc
50
99.6245517751
51
134.4639124079
0
ARC
5
341
100
AcDbEntity
8
0
100
AcDbCircle
62
7
6
CONTINUOUS
10
75.0593029944
20
110.8142132107
40
3.0000000000
100
AcDbArc
50
180.0000000000
51
300.0000000000
0
ARC
5
342
100
AcDbEntity
8
0
100
AcDbCircle
62
7
6
CONTINUOUS
10
75.0593029944
20
209.4142132107
40
3.0000000000
100
AcDbArc
50
60.0000000000
51
180.0000000000
0
ARC
5
343
100
AcDbEntity
8
0
100
AcDbCircle
62
7
6
CONTINUOUS
10
75.0593029944
20
208.4142132107
40
3.0000000000
100
AcDbArc
50
180.0000000000
51
182.8961600255
0
ARC
5
344
100
AcDbEntity
8
0
100
AcDbCircle
62
7
6
CONTINUOUS
10
75.0593029944
20
208.4142132107
40
3.0000000000
100
AcDbArc
50
225.5360875921
51
260.3754482249
0
ARC
5
345
100
AcDbEntity
8
0
100
AcDbCircle
62
7
6
CONTINUOUS
10
75.0593029944
20
209.4142132107
40
3.0000000000
100
AcDbArc
50
28.9361233616
51
36.8698976458
0
ARC
5
346
100
AcDbEntity
8
0
100
AcDbCircle
62
7
6
CONTINUOUS
10
70.4593029944
20
108.5142132107
40
0.5000000000
100
AcDbArc
50
0.0000000000
51
90.0000000000
0
ARC
5
347
100
AcDbEntity
8
0
100
AcDbCircle
62
7
6
CONTINUOUS
10
64.4593029944
20
108.5142132107
40
0.5000000000
100
AcDbArc
50
90.0000000000
51
180.0000000000
0
ARC
5
348
100
AcDbEntity
8
0
100
AcDbCircle
62
7
6
CONTINUOUS
10
64.4593029944
20
211.7142132107
40
0.5000000000
100
AcDbArc
50
180.0000000000
51
270.0000000000
0
ARC
5
349
100
AcDbEntity
8
0
100
AcDbCircle
62
7
6
CONTINUOUS
10
70.4593029944
20
211.7142132107
40
0.5000000000
100
AcDbArc
50
270.0000000000
51
360.0000000000
0
ARC
5
34A
100
AcDbEntity
8
0
100
AcDbCircle
62
7
6
CONTINUOUS
10
77.0593029944
20
108.5142132107
40
0.5000000000
100
AcDbArc
50
90.0000000000
51
180.0000000000
0
ARC
5
34B
100
AcDbEntity
8
0
100
AcDbCircle
62
7
6
CONTINUOUS
10
77.0593029944
20
211.7142132107
40
0.5000000000
100
AcDbArc
50
180.0000000000
51
270.0000000000
0
ARC
5
34C
100
AcDbEntity
8
0
100
AcDbCircle
62
7
6
CONTINUOUS
10
85.7593029944
20
115.7174904372
40
0.2000000000
100
AcDbArc
50
180.0000000000
51
290.0000000000
0
ARC
5
34D
100
AcDbEntity
8
0
100
AcDbCircle
62
7
6
CONTINUOUS
10
85.7593029944
20
138.9109359842
40
0.2000000000
100
AcDbArc
50
70.0000000000
51
180.0000000000
0
ARC
5
34E
100
AcDbEntity
8
0
100
AcDbCircle
62
7
6
CONTINUOUS
10
85.7593029944
20
160.3142132107
40
0.2000000000
100
AcDbArc
50
180.0000000000
51
270.0000000000
0
ARC
5
34F
100
AcDbEntity
8
0
100
AcDbCircle
62
7
6
CONTINUOUS
10
85.7593029944
20
181.4109359842
40
0.2000000000
100
AcDbArc
50
70.0000000000
51
180.0000000000
0
ARC
5
350
100
AcDbEntity
8
0
100
AcDbCircle
62
7
6
CONTINUOUS
10
85.7593029944
20
204.4174904372
40
0.2000000000
100
AcDbArc
50
180.0000000000
51
290.0000000000
0
ARC
5
351
100
AcDbEntity
8
0
100
AcDbCircle
62
7
6
CONTINUOUS
10
86.6593029944
20
181.8282872140
40
0.5000000000
100
AcDbArc
50
250.0000000000
51
360.0000000000
0
ARC
5
352
100
AcDbEntity
8
0
100
AcDbCircle
62
7
6
CONTINUOUS
10
86.6593029944
20
159.6142132107
40
0.5000000000
100
AcDbArc
50
0.0000000000
51
90.0000000000
0
ARC
5
353
100
AcDbEntity
8
0
100
AcDbCircle
62
7
6
CONTINUOUS
10
86.6593029944
20
139.3282872140
40
0.5000000000
100
AcDbArc
50
250.0000000000
51
360.0000000000
0
ARC
5
354
100
AcDbEntity
8
0
100
AcDbCircle
62
7
6
CONTINUOUS
10
84.6593029944
20
107.0920499101
40
0.5000000000
100
AcDbArc
50
70.0000000000
51
180.0000000000
0
ARC
5
355
100
AcDbEntity
8
0
100
AcDbCircle
62
7
6
CONTINUOUS
10
84.6593029944
20
104.5363765112
40
0.5000000000
100
AcDbArc
50
180.0000000000
51
290.0000000000
0
ARC
5
356
100
AcDbEntity
8
0
100
AcDbCircle
62
7
6
CONTINUOUS
10
60.9593029944
20
108.5142132107
40
1.0000000000
100
AcDbArc
50
180.0000000000
51
270.0000000000
0
ARC
5
357
100
AcDbEntity
8
0
100
AcDbCircle
62
7
6
CONTINUOUS
10
86.6593029944
20
103.1142132107
40
0.5000000000
100
AcDbArc
50
270.0000000000
51
360.0000000000
0
ARC
5
358
100
AcDbEntity
8
0
100
AcDbCircle
62
7
6
CONTINUOUS
10
85.7593029944
20
213.4285836093
40
0.2000000000
100
AcDbArc
50
70.0000000000
51
180.0000000000
0
ARC
5
359
100
AcDbEntity
8
0
100
AcDbCircle
62
7
6
CONTINUOUS
10
85.7593029944
20
215.3998428120
40
0.2000000000
100
AcDbArc
50
180.0000000000
51
290.0000000000
0
ARC
5
35A
100
AcDbEntity
8
0
100
AcDbCircle
62
7
6
CONTINUOUS
10
85.0593029944
20
217.1142132107
40
0.5000000000
100
AcDbArc
50
0.0000000000
51
90.0000000000
0
ARC
5
35B
100
AcDbEntity
8
0
100
AcDbCircle
62
7
6
CONTINUOUS
10
87.8593029944
20
215.4192558632
40
0.5000000000
100
AcDbArc
50
0.0000000000
51
110.0000000000
0
ARC
5
35C
100
AcDbEntity
8
0
100
AcDbCircle
62
7
6
CONTINUOUS
10
87.8593029944
20
213.4091705581
40
0.5000000000
100
AcDbArc
50
250.0000000000
51
360.0000000000
0
ARC
5
35D
100
AcDbEntity
8
0
100
AcDbCircle
62
7
6
CONTINUOUS
10
86.6593029944
20
204.0001392073
40
0.5000000000
100
AcDbArc
50
0.0000000000
51
110.0000000000
0
ARC
5
35E
100
AcDbEntity
8
0
100
AcDbCircle
62
7
6
CONTINUOUS
10
86.6593029944
20
115.3001392073
40
0.5000000000
100
AcDbArc
50
0.0000000000
51
110.0000000000
0
ARC
5
35F
100
AcDbEntity
8
0
100
AcDbCircle
62
7
6
CONTINUOUS
10
86.6593029944
20
104.2001392073
40
0.5000000000
100
AcDbArc
50
0.0000000000
51
110.0000000000
0
ARC
5
360
100
AcDbEntity
8
0
100
AcDbCircle
62
7
6
CONTINUOUS
10
86.6593029944
20
107.4282872140
40
0.5000000000
100
AcDbArc
50
250.0000000000
51
360.0000000000
0
ARC
5
361
100
AcDbEntity
8
0
100
AcDbCircle
62
7
6
CONTINUOUS
10
76.0593029944
20
212.2142132107
40
0.5000000000
100
AcDbArc
50
0.0000000000
51
78.7500000000
0
ARC
5
362
100
AcDbEntity
8
0
100
AcDbCircle
62
7
6
CONTINUOUS
10
76.0593029944
20
108.0142132107
40
0.5000000000
100
AcDbArc
50
270.0000000000
51
360.0000000000
0
ARC
5
363
100
AcDbEntity
8
0
100
AcDbCircle
62
7
6
CONTINUOUS
10
71.4593029944
20
108.0142132107
40
0.5000000000
100
AcDbArc
50
180.0000000000
51
270.0000000000
0
ARC
5
364
100
AcDbEntity
8
0
100
AcDbCircle
62
7
6
CONTINUOUS
10
63.4593029944
20
108.0142132107
40
0.5000000000
100
AcDbArc
50
270.0000000000
51
360.0000000000
0
ARC
5
365
100
AcDbEntity
8
0
100
AcDbCircle
62
7
6
CONTINUOUS
10
63.4593029944
20
212.2142132107
40
0.5000000000
100
AcDbArc
50
0.0000000000
51
90.0000000000
0
ARC
5
366
100
AcDbEntity
8
0
100
AcDbCircle
62
7
6
CONTINUOUS
10
71.4593029944
20
212.2142132107
40
0.5000000000
100
AcDbArc
50
90.0000000000
51
180.0000000000
0
ARC
5
367
100
AcDbEntity
8
0
100
AcDbCircle
62
7
6
CONTINUOUS
10
85.0593029944
20
211.7142132107
40
0.5000000000
100
AcDbArc
50
270.0000000000
51
360.0000000000
0
ARC
5
368
100
AcDbEntity
8
0
100
AcDbCircle
62
7
6
CONTINUOUS
10
86.6593029944
20
108.5142132107
40
0.5000000000
100
AcDbArc
50
0.0000000000
51
90.0000000000
0
ARC
5
369
100
AcDbEntity
8
0
100
AcDbCircle
62
7
6
CONTINUOUS
10
85.7593029944
20
115.7174904372
40
0.6999782264
100
AcDbArc
50
253.3456871819
51
290.0000000000
0
ARC
5
36A
100
AcDbEntity
8
0
100
AcDbCircle
62
7
6
CONTINUOUS
10
85.7593029944
20
138.9109359842
40
0.6999782264
100
AcDbArc
50
70.0000000000
51
106.6374453556
0
ARC
5
36B
100
AcDbEntity
8
0
100
AcDbCircle
62
7
6
CONTINUOUS
10
85.7593029944
20
160.3142132107
40
0.6999936605
100
AcDbArc
50
180.0000000000
51
232.0532523764
0
ARC
5
36C
100
AcDbEntity
8
0
100
AcDbCircle
62
7
6
CONTINUOUS
10
85.7593029944
20
160.3142132107
40
0.6999936605
100
AcDbArc
50
253.0223385567
51
270.0000000000
0
ARC
5
36D
100
AcDbEntity
8
0
100
AcDbCircle
62
7
6
CONTINUOUS
10
85.7593029944
20
181.4109359842
40
0.6999782264
100
AcDbArc
50
70.0000000000
51
106.6374453556
0
ARC
5
36E
100
AcDbEntity
8
0
100
AcDbCircle
62
7
6
CONTINUOUS
10
85.7593029944
20
213.4285836093
40
0.7000000000
100
AcDbArc
50
70.0000000000
51
106.6023305404
0
ARC
5
36F
100
AcDbEntity
8
0
100
AcDbCircle
62
7
6
CONTINUOUS
10
85.7593029944
20
215.3998428120
40
0.7000000000
100
AcDbArc
50
253.3976694596
51
290.0000000000
0
ARC
5
370
100
AcDbEntity
8
0
100
AcDbCircle
62
7
6
CONTINUOUS
10
85.7593029944
20
204.4174904372
40
0.6999782264
100
AcDbArc
50
253.3456871819
51
290.0000000000
0
CIRCLE
5
371
100
AcDbEntity
8
0
100
AcDbCircle
62
7
6
CONTINUOUS
10
67.4593029944
20
263.4236041198
40
2.5000000000
0
CIRCLE
5
372
100
AcDbEntity
8
0
100
AcDbCircle
62
7
6
CONTINUOUS
10
67.4593029944
20
263.4236041198
40
2.4500000000
0
CIRCLE
5
373
100
AcDbEntity
8
0
100
AcDbCircle
62
7
6
CONTINUOUS
10
67.4593029944
20
263.4236041198
40
1.4500000000
0
CIRCLE
5
374
100
AcDbEntity
8
0
100
AcDbCircle
62
7
6
CONTINUOUS
10
80.0593029944
20
263.4236041198
40
2.5000000000
0
CIRCLE
5
375
100
AcDbEntity
8
0
100
AcDbCircle
62
7
6
CONTINUOUS
10
80.0593029944
20
263.4236041198
40
2.4500000000
0
CIRCLE
5
376
100
AcDbEntity
8
0
100
AcDbCircle
62
7
6
CONTINUOUS
10
80.0593029944
20
263.4236041198
40
1.4500000000
0
ARC
5
377
100
AcDbEntity
8
0
100
AcDbCircle
62
7
6
CONTINUOUS
10
80.0593029944
20
263.4236041198
40
5.5000000000
100
AcDbArc
50
50.1407042464
51
126.8473899311
0
ARC
5
378
100
AcDbEntity
8
0
100
AcDbCircle
62
7
6
CONTINUOUS
10
67.4593029944
20
263.4236041198
40
5.5000000000
100
AcDbArc
50
52.6464298129
51
132.2196788525
0
CIRCLE
5
379
100
AcDbEntity
8
0
100
AcDbCircle
62
7
6
CONTINUOUS
10
80.0593029944
20
263.4236041198
40
2.5500000000
0
CIRCLE
5
37A
100
AcDbEntity
8
0
100
AcDbCircle
62
7
6
CONTINUOUS
10
67.4593029944
20
263.4236041198
40
2.5500000000
0
ARC
5
37B
100
AcDbEntity
8
0
100
AcDbCircle
62
7
6
CONTINUOUS
10
66.2551151390
20
246.9236041198
40
0.5000000000
100
AcDbArc
50
217.7490842854
51
269.9989231925
0
ARC
5
37C
100
AcDbEntity
8
0
100
AcDbCircle
62
7
6
CONTINUOUS
10
73.6571837667
20
117.8236041198
40
150.0000000000
100
AcDbArc
50
90.0000000000
51
100.9330972384
0
ARC
5
37D
100
AcDbEntity
8
0
100
AcDbCircle
62
7
6
CONTINUOUS
10
86.6593029944
20
246.9236041198
40
0.5000000000
100
AcDbArc
50
270.0000000000
51
360.0000000000
0
ARC
5
37E
100
AcDbEntity
8
0
100
AcDbCircle
62
7
6
CONTINUOUS
10
87.8593029944
20
246.9236041198
40
0.5000000000
100
AcDbArc
50
270.0000000000
51
360.0000000000
0
ARC
5
37F
100
AcDbEntity
8
0
100
AcDbCircle
62
7
6
CONTINUOUS
10
87.8593029944
20
266.3236041198
40
0.5000000000
100
AcDbArc
50
0.0000000000
51
90.0000000000
0
ARC
5
380
100
AcDbEntity
8
0
100
AcDbCircle
62
7
6
CONTINUOUS
10
80.3093029944
20
253.4236041198
40
0.5000000000
100
AcDbArc
50
0.0000000000
51
90.0000000000
0
ARC
5
381
100
AcDbEntity
8
0
100
AcDbCircle
62
7
6
CONTINUOUS
10
80.3093029944
20
250.4236041198
40
0.5000000000
100
AcDbArc
50
270.0000000000
51
360.0000000000
0
ARC
5
382
100
AcDbEntity
8
0
100
AcDbCircle
62
7
6
CONTINUOUS
10
69.8093029944
20
250.4236041198
40
0.5000000000
100
AcDbArc
50
180.0000000000
51
270.0000000000
0
ARC
5
383
100
AcDbEntity
8
0
100
AcDbCircle
62
7
6
CONTINUOUS
10
69.8093029944
20
253.4236041198
40
0.5000000000
100
AcDbArc
50
90.0000000000
51
180.0000000000
0
ARC
5
384
100
AcDbEntity
8
0
100
AcDbCircle
62
7
6
CONTINUOUS
10
45.3026182369
20
264.6100769919
40
0.5000000000
100
AcDbArc
50
100.9330950301
51
241.9133088221
0
ARC
5
385
100
AcDbEntity
8
0
100
AcDbCircle
62
7
6
CONTINUOUS
10
14.4647591513
20
206.8236041198
40
65.0000000000
100
AcDbArc
50
37.7497435119
51
61.9133059888
0
ARC
5
386
100
AcDbEntity
8
0
100
AcDbCircle
62
7
6
CONTINUOUS
10
86.6593029944
20
266.4581150605
40
0.5000000000
100
AcDbArc
50
0.0000264261
51
72.8655305650
0
ARC
5
387
100
AcDbEntity
8
0
100
AcDbCircle
62
7
6
CONTINUOUS
10
80.9143049960
20
247.8236041198
40
20.0000000000
100
AcDbArc
50
80.0833570624
51
90.0000000000
0
ARC
5
388
100
AcDbEntity
8
0
100
AcDbCircle
62
7
6
CONTINUOUS
10
80.9143049960
20
247.8236041198
40
20.0000000000
100
AcDbArc
50
77.8589580218
51
80.0689011526
0
ARC
5
389
100
AcDbEntity
8
0
100
AcDbCircle
62
7
6
CONTINUOUS
10
80.9143049960
20
247.8236041198
40
20.0000000000
100
AcDbArc
50
72.8655305650
51
77.7568703922
0
ARC
5
38A
100
AcDbEntity
8
0
100
AcDbCircle
62
7
6
CONTINUOUS
10
73.6571837667
20
117.8236041198
40
149.0000000000
100
AcDbArc
50
90.0000000000
51
100.6981508338
0
ARC
5
38B
100
AcDbEntity
8
0
100
AcDbCircle
62
7
6
CONTINUOUS
10
80.9143049960
20
247.8236041198
40
19.0000000000
100
AcDbArc
50
72.4000946751
51
90.0000000000
0
ARC
5
38C
100
AcDbEntity
8
0
100
AcDbCircle
62
7
6
CONTINUOUS
10
14.4647591513
20
206.8236041198
40
65.5000000000
100
AcDbArc
50
37.7497435119
51
61.2219998877
0
SPLINE
5
38D
100
AcDbEntity
8
0
100
AcDbSpline
62
7
6
CONTINUOUS
70
0
71
3
72
10
73
6
74
4
42
0.0000001000
43
0.0000001000
44
0.0000000001
12
-0.6489850136
22
-0.3577178860
32
0.0000000000
13
-0.0001921088
23
-0.7410422370
33
0.0000000000
40
0.0000000000
40
0.0000000000
40
0.0000000000
40
0.0000000000
40
0.3321215885
40
0.6727944547
40
1.0000000000
40
1.0000000000
40
1.0000000000
40
1.0000000000
10
85.5711588800
20
214.0379098204
30
0.0000000000
10
85.4993115688
20
213.9983078763
30
0.0000000000
10
85.3664288532
20
213.8920712378
30
0.0000000000
10
85.2366063320
20
213.6758612412
30
0.0000000000
10
85.2066315884
20
213.5094079857
30
0.0000000000
10
85.2066106354
20
213.4285836093
30
0.0000000000
11
85.5711588800
21
214.0379098204
31
0.0000000000
11
85.3792149530
21
213.8838621659
31
0.0000000000
11
85.2496184365
21
213.6672120892
31
0.0000000000
11
85.2066106354
21
213.4285836093
31
0.0000000000
0
SPLINE
5
38E
100
AcDbEntity
8
0
100
AcDbSpline
62
7
6
CONTINUOUS
70
0
71
3
72
11
73
7
74
5
42
0.0000001000
43
0.0000001000
44
0.0000000001
12
-0.5007146165
22
-0.0000000000
32
0.0000000000
13
0.0000000000
23
-0.5007146165
33
0.0000000000
40
0.0000000000
40
0.0000000000
40
0.0000000000
40
0.0000000000
40
0.0770787316
40
0.2938130967
40
0.6178543019
40
1.0000000000
40
1.0000000000
40
1.0000000000
40
1.0000000000
10
68.6573509114
20
107.5142132107
30
0.0000000000
10
68.6444860955
20
107.5142132107
30
0.0000000000
10
68.6602725030
20
107.4362429476
30
0.0000000000
10
68.6379456795
20
107.3593358672
30
0.0000000000
10
68.6439438572
20
107.1921147463
30
0.0000000000
10
68.6406290624
20
107.0779951896
30
0.0000000000
10
68.6406290624
20
107.0142132107
30
0.0000000000
11
68.6573509114
21
107.5142132107
31
0.0000000000
11
68.6509517362
21
107.4761529697
31
0.0000000000
11
68.6455267780
21
107.3677665854
31
0.0000000000
11
68.6419019371
21
107.2055549136
31
0.0000000000
11
68.6406290624
21
107.0142132107
31
0.0000000000
0
SPLINE
5
38F
100
AcDbEntity
8
0
100
AcDbSpline
62
7
6
CONTINUOUS
70
0
71
3
72
11
73
7
74
5
42
0.0000001000
43
0.0000001000
44
0.0000000001
12
-0.5016896730
22
-0.0000000000
32
0.0000000000
13
-0.0000000684
23
-0.5016896730
33
0.0000000000
40
0.0000000000
40
0.0000000000
40
0.0000000000
40
0.0000000000
40
0.0783762859
40
0.2950625886
40
0.6185855035
40
1.0000000000
40
1.0000000000
40
1.0000000000
40
1.0000000000
10
65.9412672434
20
107.5142132107
30
0.0000000000
10
65.9281603856
20
107.5142132107
30
0.0000000000
10
65.9366436645
20
107.4373263925
30
0.0000000000
10
65.9165352570
20
107.3589168740
30
0.0000000000
10
65.9185102373
20
107.1923375193
30
0.0000000000
10
65.9154615112
20
107.0779971154
30
0.0000000000
10
65.9154615025
20
107.0142132107
30
0.0000000000
11
65.9412672434
21
107.5142132107
31
0.0000000000
11
65.9313918303
21
107.4761529467
31
0.0000000000
11
65.9230198521
21
107.3677665194
31
0.0000000000
11
65.9174258659
21
107.2055548416
31
0.0000000000
11
65.9154615025
21
107.0142132107
31
0.0000000000
0
SPLINE
5
390
100
AcDbEntity
8
0
100
AcDbSpline
62
7
6
CONTINUOUS
70
0
71
3
72
17
73
13
74
11
42
0.0000001000
43
0.0000001000
44
0.0000000001
12
2.7258092710
22
0.0000253128
32
0.0000000000
13
2.7258092706
23
-0.0000519440
33
0.0000000000
40
0.0000000000
40
0.0000000000
40
0.0000000000
40
0.0000000000
40
0.0736071129
40
0.1532500425
40
0.2392876165
40
0.3323716996
40
0.4327447091
40
0.5400671787
40
0.6540953160
40
0.7736960398
40
0.8928355925
40
1.0000000000
40
1.0000000000
40
1.0000000000
40
1.0000000000
10
65.9154615025
20
107.0142132107
30
0.0000000000
10
65.9823411528
20
107.0142138317
30
0.0000000000
10
66.1215854067
20
107.0157344051
30
0.0000000000
10
66.3389369001
20
107.0212010553
30
0.0000000000
10
66.5739343152
20
107.0286128681
30
0.0000000000
10
66.8277751541
20
107.0360881665
30
0.0000000000
10
67.1010234806
20
107.0412976387
30
0.0000000000
10
67.3933586247
20
107.0419856513
30
0.0000000000
10
67.7031225443
20
107.0369482028
30
0.0000000000
10
68.0235075927
20
107.0273182676
30
0.0000000000
10
68.3376410771
20
107.0174697964
30
0.0000000000
10
68.5432591505
20
107.0142150662
30
0.0000000000
10
68.6406290624
20
107.0142132107
30
0.0000000000
11
65.9154615025
21
107.0142132107
31
0.0000000000
11
66.1160912837
21
107.0161314092
31
0.0000000000
11
66.3331217312
21
107.0212769227
31
0.0000000000
11
66.5675375872
21
107.0283326254
31
0.0000000000
11
66.8211666077
21
107.0354710486
31
0.0000000000
11
67.0947191463
21
107.0404408674
31
0.0000000000
11
67.3872590061
21
107.0410912222
31
0.0000000000
11
67.6980415451
21
107.0363335516
31
0.0000000000
11
68.0239233271
21
107.0272353699
31
0.0000000000
11
68.3485440362
21
107.0180125668
31
0.0000000000
11
68.6406290624
21
107.0142132107
31
0.0000000000
0
SPLINE
5
391
100
AcDbEntity
8
0
100
AcDbSpline
62
7
6
CONTINUOUS
70
0
71
3
72
17
73
13
74
11
42
0.0000001000
43
0.0000001000
44
0.0000000001
12
2.7162447609
22
0.0000070646
32
0.0000000000
13
2.7162447608
23
-0.0000142822
33
0.0000000000
40
0.0000000000
40
0.0000000000
40
0.0000000000
40
0.0000000000
40
0.0698052114
40
0.1470641927
40
0.2323090070
40
0.3262449928
40
0.4289325317
40
0.5394859967
40
0.6566972359
40
0.7781324651
40
0.8965222415
40
1.0000000000
40
1.0000000000
40
1.0000000000
40
1.0000000000
10
65.9412672434
20
107.5142132107
30
0.0000000000
10
66.0044699232
20
107.5142133751
30
0.0000000000
10
66.1376241081
20
107.5149973622
30
0.0000000000
10
66.3479427704
20
107.5177435591
30
0.0000000000
10
66.5800975657
20
107.5214501121
30
0.0000000000
10
66.8352785526
20
107.5251748933
30
0.0000000000
10
67.1133913665
20
107.5277611130
30
0.0000000000
10
67.4125916322
20
107.5281000127
30
0.0000000000
10
67.7287563945
20
107.5256060322
30
0.0000000000
10
68.0519880749
20
107.5208295907
30
0.0000000000
10
68.3627795604
20
107.5159019537
30
0.0000000000
10
68.5636606049
20
107.5142137033
30
0.0000000000
10
68.6573509114
20
107.5142132107
30
0.0000000000
11
65.9412672434
21
107.5142132107
31
0.0000000000
11
66.1308728554
21
107.5151726769
31
0.0000000000
11
66.3407113823
21
107.5177458538
31
0.0000000000
11
66.5722302775
21
107.5212742319
31
0.0000000000
11
66.8273584335
21
107.5248440440
31
0.0000000000
11
67.1062718509
21
107.5273292676
31
0.0000000000
11
67.4065619445
21
107.5276549064
31
0.0000000000
11
67.7249274802
21
107.5252772012
31
0.0000000000
11
68.0547439247
21
107.5207288609
31
0.0000000000
11
68.3762864191
21
107.5161139760
31
0.0000000000
11
68.6573509114
21
107.5142132107
31
0.0000000000
0
SPLINE
5
392
100
AcDbEntity
8
0
100
AcDbSpline
62
7
6
CONTINUOUS
70
0
71
3
72
11
73
7
74
5
42
0.0000001000
43
0.0000001000
44
0.0000000001
12
-0.5053050931
22
-0.0000000000
32
0.0000000000
13
-0.0000000000
23
-0.5053050931
33
0.0000000000
40
0.0000000000
40
0.0000000000
40
0.0000000000
40
0.0000000000
40
0.0830895532
40
0.2996381964
40
0.6212699278
40
1.0000000000
40
1.0000000000
40
1.0000000000
40
1.0000000000
10
59.8074766822
20
107.5142132107
30
0.0000000000
10
59.7934814907
20
107.5142132107
30
0.0000000000
10
59.7869834930
20
107.4410170869
30
0.0000000000
10
59.7700874282
20
107.3575870662
30
0.0000000000
10
59.7638629521
20
107.1930790214
30
0.0000000000
10
59.7611565916
20
107.0780046221
30
0.0000000000
10
59.7611565916
20
107.0142132107
30
0.0000000000
11
59.8074766822
21
107.5142132107
31
0.0000000000
11
59.7897507551
21
107.4761529956
31
0.0000000000
11
59.7747234359
21
107.3677666425
31
0.0000000000
11
59.7646824999
21
107.2055549614
31
0.0000000000
11
59.7611565916
21
107.0142132107
31
0.0000000000
0
SPLINE
5
393
100
AcDbEntity
8
0
100
AcDbSpline
62
7
6
CONTINUOUS
70
0
71
3
72
15
73
11
74
9
42
0.0000001000
43
0.0000001000
44
0.0000000001
12
2.8096615329
22
-2.1652136191
32
0.0000000000
13
3.5471605469
23
0.0000230256
33
0.0000000000
40
0.0000000000
40
0.0000000000
40
0.0000000000
40
0.0000000000
40
0.1606808412
40
0.3192876213
40
0.4627202291
40
0.5907974065
40
0.7069359573
40
0.8131410229
40
0.9108701750
40
1.0000000000
40
1.0000000000
40
1.0000000000
40
1.0000000000
10
56.6185299174
20
108.5142127821
30
0.0000000000
10
56.7690161769
20
108.3982433336
30
0.0000000000
10
57.0680980149
20
108.1678562118
30
0.0000000000
10
57.5118711531
20
107.8475328600
30
0.0000000000
10
57.9414889902
20
107.5746094780
30
0.0000000000
10
58.3469633068
20
107.3596916860
30
0.0000000000
10
58.7299656032
20
107.1999240658
30
0.0000000000
10
59.0930735153
20
107.0906680055
30
0.0000000000
10
59.4346509396
20
107.0282146086
30
0.0000000000
10
59.6557706587
20
107.0142125266
30
0.0000000000
10
59.7611565916
20
107.0142132107
30
0.0000000000
11
56.6185299174
21
108.5142127821
31
0.0000000000
11
57.0718470237
21
108.1687292851
31
0.0000000000
11
57.5297378017
21
107.8418363770
31
0.0000000000
11
57.9603988574
21
107.5709367564
31
0.0000000000
11
58.3626074302
21
107.3596877979
31
0.0000000000
11
58.7433387709
21
107.2023461130
31
0.0000000000
11
59.1044083081
21
107.0948678185
31
0.0000000000
11
59.4455842325
21
107.0334444309
31
0.0000000000
11
59.7611565916
21
107.0142132107
31
0.0000000000
0
SPLINE
5
394
100
AcDbEntity
8
0
100
AcDbSpline
62
7
6
CONTINUOUS
70
0
71
3
72
15
73
11
74
9
42
0.0000001000
43
0.0000001000
44
0.0000000001
12
3.0894082270
22
-1.3262770990
32
0.0000000000
13
3.3620609954
23
0.0000101530
33
0.0000000000
40
0.0000000000
40
0.0000000000
40
0.0000000000
40
0.0000000000
40
0.1748485070
40
0.3450337653
40
0.4944452672
40
0.6230856139
40
0.7353920625
40
0.8343767489
40
0.9223341915
40
1.0000000000
40
1.0000000000
40
1.0000000000
40
1.0000000000
10
56.6185299174
20
108.5142132107
30
0.0000000000
10
56.7985893894
20
108.4369140205
30
0.0000000000
10
57.1541174875
20
108.2848645055
30
0.0000000000
10
57.6660669792
20
108.0727777578
30
0.0000000000
10
58.1343582578
20
107.8908203341
30
0.0000000000
10
58.5476213939
20
107.7469220370
30
0.0000000000
10
58.9133856389
20
107.6396886121
30
0.0000000000
10
59.2408939508
20
107.5661894107
30
0.0000000000
10
59.5347497016
20
107.5239870992
30
0.0000000000
10
59.7204376204
20
107.5142129478
30
0.0000000000
10
59.8074766822
20
107.5142132107
30
0.0000000000
11
56.6185299174
21
108.5142132107
31
0.0000000000
11
57.1593643916
21
108.2838498545
31
0.0000000000
11
57.6884224384
21
108.0659513104
31
0.0000000000
11
58.1571776168
21
107.8853838794
31
0.0000000000
11
58.5661030867
21
107.7445529569
31
0.0000000000
11
58.9288206230
21
107.6396553934
31
0.0000000000
11
59.2538062311
21
107.5679948177
31
0.0000000000
11
59.5466746840
21
107.5270390536
31
0.0000000000
11
59.8074766822
21
107.5142132107
31
0.0000000000
0
SPLINE
5
395
100
AcDbEntity
8
0
100
AcDbSpline
62
7
6
CONTINUOUS
70
0
71
3
72
11
73
7
74
5
42
0.0000001000
43
0.0000001000
44
0.0000000001
12
0.5004821073
22
0.0000000000
32
0.0000000000
13
-0.0000000000
23
0.5004821073
33
0.0000000000
40
0.0000000000
40
0.0000000000
40
0.0000000000
40
0.0000000000
40
0.0767669082
40
0.2935182511
40
0.6176869179
40
1.0000000000
40
1.0000000000
40
1.0000000000
40
1.0000000000
10
79.8494935510
20
211.2142132107
30
0.0000000000
10
79.8623003724
20
211.2142132107
30
0.0000000000
10
79.8440293040
20
211.2924488787
30
0.0000000000
10
79.8671670155
20
211.3689880752
30
0.0000000000
10
79.8598028650
20
211.5363682487
30
0.0000000000
10
79.8632163345
20
211.6504329250
30
0.0000000000
10
79.8632163345
20
211.7142132107
30
0.0000000000
11
79.8494935510
21
211.2142132107
31
0.0000000000
11
79.8547450093
21
211.2522730877
31
0.0000000000
11
79.8591970803
21
211.3606618606
31
0.0000000000
11
79.8621717920
21
211.5228752048
31
0.0000000000
11
79.8632163345
21
211.7142132107
31
0.0000000000
0
SPLINE
5
396
100
AcDbEntity
8
0
100
AcDbSpline
62
7
6
CONTINUOUS
70
0
71
3
72
11
73
7
74
5
42
0.0000001000
43
0.0000001000
44
0.0000000001
12
-0.5030715630
22
0.0000000000
32
0.0000000000
13
0.0000000000
23
0.5030715630
33
0.0000000000
40
0.0000000000
40
0.0000000000
40
0.0000000000
40
0.0000000000
40
0.0801950042
40
0.2968259406
40
0.6196236633
40
1.0000000000
40
1.0000000000
40
1.0000000000
40
1.0000000000
10
79.8494935510
20
211.2142132107
30
0.0000000000
10
79.8360456090
20
211.2142132107
30
0.0000000000
10
79.8375588187
20
211.2896323321
30
0.0000000000
10
79.8192283400
20
211.3700589079
30
0.0000000000
10
79.8173713483
20
211.5357924000
30
0.0000000000
10
79.8145253105
20
211.6504277046
30
0.0000000000
10
79.8145253105
20
211.7142132107
30
0.0000000000
11
79.8494935510
21
211.2142132107
31
0.0000000000
11
79.8361118449
21
211.2522730878
31
0.0000000000
11
79.8247671283
21
211.3606618606
31
0.0000000000
11
79.8171870018
21
211.5228752048
31
0.0000000000
11
79.8145253105
21
211.7142132107
31
0.0000000000
0
SPLINE
5
397
100
AcDbEntity
8
0
100
AcDbSpline
62
7
6
CONTINUOUS
70
0
71
3
72
14
73
10
74
8
42
0.0000001000
43
0.0000001000
44
0.0000000001
12
0.0045585371
22
0.7060815950
32
0.0000000000
13
-0.6283918873
23
0.3220180663
33
0.0000000000
40
0.0000000000
40
0.0000000000
40
0.0000000000
40
0.0000000000
40
0.1204540980
40
0.2418174370
40
0.3738287543
40
0.5136276296
40
0.6622402015
40
0.8230707820
40
1.0000000000
40
1.0000000000
40
1.0000000000
40
1.0000000000
10
79.8632163345
20
212.2142132107
30
0.0000000000
10
79.8633993660
20
212.2425633512
30
0.0000000000
10
79.8344675293
20
212.2973734904
30
0.0000000000
10
79.7707237707
20
212.3570139451
30
0.0000000000
10
79.6959016506
20
212.4121431316
30
0.0000000000
10
79.6129440948
20
212.4659850802
30
0.0000000000
10
79.5218401845
20
212.5197448945
30
0.0000000000
10
79.4217824748
20
212.5753625511
30
0.0000000000
10
79.3513652911
20
212.6122791720
30
0.0000000000
10
79.3143049960
20
212.6312706402
30
0.0000000000
11
79.8632163345
21
212.2142132107
31
0.0000000000
11
79.8315239259
21
212.2931401830
31
0.0000000000
11
79.7713891653
21
212.3541918617
31
0.0000000000
11
79.6969337979
21
212.4102722190
31
0.0000000000
11
79.6143121801
21
212.4642872407
31
0.0000000000
11
79.5241089738
21
212.5179033897
31
0.0000000000
11
79.4248829134
21
212.5731346254
31
0.0000000000
11
79.3143049960
21
212.6312706402
31
0.0000000000
0
SPLINE
5
398
100
AcDbEntity
8
0
100
AcDbSpline
62
7
6
CONTINUOUS
70
0
71
3
72
14
73
10
74
8
42
0.0000001000
43
0.0000001000
44
0.0000000001
12
-0.2698973747
22
0.5941521383
32
0.0000000000
13
-0.6350337929
23
0.1503111381
33
0.0000000000
40
0.0000000000
40
0.0000000000
40
0.0000000000
40
0.0000000000
40
0.0816523281
40
0.1959009204
40
0.3310987518
40
0.4787128376
40
0.6375942688
40
0.8102472929
40
1.0000000000
40
1.0000000000
40
1.0000000000
40
1.0000000000
10
79.8145253105
20
212.2142132107
30
0.0000000000
10
79.8071793941
20
212.2303845125
30
0.0000000000
10
79.7745284788
20
212.2617776348
30
0.0000000000
10
79.7063791101
20
212.2860193092
30
0.0000000000
10
79.6246755601
20
212.3137524822
30
0.0000000000
10
79.5322451445
20
212.3402003486
30
0.0000000000
10
79.4315480625
20
212.3670530605
30
0.0000000000
10
79.3215838425
20
212.3947613565
30
0.0000000000
10
79.2449457973
20
212.4132346103
30
0.0000000000
10
79.2047793368
20
212.4227419255
30
0.0000000000
11
79.8145253105
21
212.2142132107
31
0.0000000000
11
79.7786286723
21
212.2535920471
31
0.0000000000
11
79.7106940256
21
212.2843091709
31
0.0000000000
11
79.6270047258
21
212.3122410192
31
0.0000000000
11
79.5345393905
21
212.3392529784
31
0.0000000000
11
79.4343821946
21
212.3660612981
31
0.0000000000
11
79.3251479760
21
212.3936731626
31
0.0000000000
11
79.2047793368
21
212.4227419255
31
0.0000000000
0
SPLINE
5
399
100
AcDbEntity
8
0
100
AcDbSpline
62
7
6
CONTINUOUS
70
0
71
3
72
11
73
7
74
5
42
0.0000001000
43
0.0000001000
44
0.0000000001
12
-1.7759982788
22
0.9330507915
32
0.0000000000
13
-2.0061787513
23
-0.0006955961
33
0.0000000000
40
0.0000000000
40
0.0000000000
40
0.0000000000
40
0.0000000000
40
0.2746602276
40
0.5355968680
40
0.7757785664
40
1.0000000000
40
1.0000000000
40
1.0000000000
40
1.0000000000
10
79.3143049960
20
212.6312706402
30
0.0000000000
10
79.1517062988
20
212.7166946212
30
0.0000000000
10
78.8301327038
20
212.8751116685
30
0.0000000000
10
78.3456105394
20
213.0632104526
30
0.0000000000
10
77.8744004837
20
213.1836822480
30
0.0000000000
10
77.5634944419
20
213.2142651999
30
0.0000000000
10
77.4135516834
20
213.2142132107
30
0.0000000000
11
79.3143049960
21
212.6312706402
31
0.0000000000
11
78.8184900998
21
212.8716618304
31
0.0000000000
11
78.3292403854
21
213.0578656542
31
0.0000000000
11
77.8615683066
21
213.1738819914
31
0.0000000000
11
77.4135516834
21
213.2142132107
31
0.0000000000
0
SPLINE
5
39A
100
AcDbEntity
8
0
100
AcDbSpline
62
7
6
CONTINUOUS
70
0
71
3
72
11
73
7
74
5
42
0.0000001000
43
0.0000001000
44
0.0000000001
12
-1.7692757516
22
0.4189960813
32
0.0000000000
13
-1.8182118554
23
-0.0002234827
33
0.0000000000
40
0.0000000000
40
0.0000000000
40
0.0000000000
40
0.0000000000
40
0.2992566581
40
0.5679704333
40
0.7991340550
40
1.0000000000
40
1.0000000000
40
1.0000000000
40
1.0000000000
10
79.2047793368
20
212.4227419255
30
0.0000000000
10
79.0282901540
20
212.4645377145
30
0.0000000000
10
78.6927735634
20
212.5415842978
30
0.0000000000
10
78.2176221788
20
212.6361669350
30
0.0000000000
10
77.7971405189
20
212.6974372077
30
0.0000000000
10
77.5352906309
20
212.7142281740
30
0.0000000000
10
77.4135516834
20
212.7142132107
30
0.0000000000
11
79.2047793368
21
212.4227419255
31
0.0000000000
11
78.6741233426
21
212.5430003667
31
0.0000000000
11
78.1945056439
21
212.6361448114
31
0.0000000000
11
77.7782130968
21
212.6940787229
31
0.0000000000
11
77.4135516834
21
212.7142132107
31
0.0000000000
0
SPLINE
5
39B
100
AcDbEntity
8
0
100
AcDbSpline
62
7
6
CONTINUOUS
70
0
71
3
72
11
73
7
74
5
42
0.0000001000
43
0.0000001000
44
0.0000000001
12
-0.5007146245
22
0.0000000000
32
0.0000000000
13
0.0000001659
23
0.5007146245
33
0.0000000000
40
0.0000000000
40
0.0000000000
40
0.0000000000
40
0.0000000000
40
0.0770788929
40
0.2938135114
40
0.6178547327
40
1.0000000000
40
1.0000000000
40
1.0000000000
40
1.0000000000
10
68.6573509114
20
212.7142132107
30
0.0000000000
10
68.6444860684
20
212.7142132107
30
0.0000000000
10
68.6602724054
20
212.7921835729
30
0.0000000000
10
68.6379456294
20
212.8690907225
30
0.0000000000
10
68.6439437908
20
213.0363118044
30
0.0000000000
10
68.6406290412
20
213.1504313027
30
0.0000000000
10
68.6406290623
20
213.2142132107
30
0.0000000000
11
68.6573509114
21
212.7142132107
31
0.0000000000
11
68.6509516812
21
212.7522735248
31
0.0000000000
11
68.6455267049
21
212.8606600371
31
0.0000000000
11
68.6419018851
21
213.0228717200
31
0.0000000000
11
68.6406290623
21
213.2142132107
31
0.0000000000
0
SPLINE
5
39C
100
AcDbEntity
8
0
100
AcDbSpline
62
7
6
CONTINUOUS
70
0
71
3
72
17
73
13
74
11
42
0.0000001000
43
0.0000001000
44
0.0000000001
12
-2.7258096647
22
-0.0000671041
32
0.0000000000
13
-2.7258096654
23
0.0000221352
33
0.0000000000
40
0.0000000000
40
0.0000000000
40
0.0000000000
40
0.0000000000
40
0.1030862246
40
0.2143165704
40
0.3280636733
40
0.4402256984
40
0.5491688311
40
0.6539068398
40
0.7529292167
40
0.8440882472
40
0.9260785714
40
1.0000000000
40
1.0000000000
40
1.0000000000
40
1.0000000000
10
68.6406290624
20
213.2142132107
30
0.0000000000
10
68.5469645866
20
213.2142109048
30
0.0000000000
10
68.3522374361
20
213.2112472527
30
0.0000000000
10
68.0542979831
20
213.2021409288
30
0.0000000000
10
67.7481163380
20
213.1926869469
30
0.0000000000
10
67.4439108754
20
213.1869005991
30
0.0000000000
10
67.1478310682
20
213.1866229015
30
0.0000000000
10
66.8637364460
20
213.1913968430
30
0.0000000000
10
66.5958804669
20
213.1991017827
30
0.0000000000
10
66.3487093433
20
213.2069567424
30
0.0000000000
10
66.1242894595
20
213.2126586428
30
0.0000000000
10
65.9826267506
20
213.2142126653
30
0.0000000000
10
65.9154615025
20
213.2142132107
30
0.0000000000
11
68.6406290624
21
213.2142132107
31
0.0000000000
11
68.3596579853
21
213.2106691907
31
0.0000000000
11
68.0565836781
21
213.2021951727
31
0.0000000000
11
67.7466595338
21
213.1932588349
31
0.0000000000
11
67.4409763026
21
213.1877796903
31
0.0000000000
11
67.1440181767
21
213.1875146192
31
0.0000000000
11
66.8585586251
21
213.1920687234
31
0.0000000000
11
66.5887433693
21
213.1994482152
31
0.0000000000
11
66.3403742840
21
213.2069438436
31
0.0000000000
11
66.1169479687
21
213.2122795663
31
0.0000000000
11
65.9154615025
21
213.2142132107
31
0.0000000000
0
SPLINE
5
39D
100
AcDbEntity
8
0
100
AcDbSpline
62
7
6
CONTINUOUS
70
0
71
3
72
17
73
13
74
11
42
0.0000001000
43
0.0000001000
44
0.0000000001
12
-2.7162448604
22
-0.0000185087
32
0.0000000000
13
-2.7162448605
23
0.0000061564
33
0.0000000000
40
0.0000000000
40
0.0000000000
40
0.0000000000
40
0.0000000000
40
0.0994856131
40
0.2098027235
40
0.3250427521
40
0.4401933193
40
0.5524540641
40
0.6597746272
40
0.7598858077
40
0.8503246178
40
0.9298949207
40
1.0000000000
40
1.0000000000
40
1.0000000000
40
1.0000000000
10
68.6573509114
20
212.7142132107
30
0.0000000000
10
68.5672751496
20
212.7142125969
30
0.0000000000
10
68.3773174703
20
212.7126765685
30
0.0000000000
10
68.0830547929
20
212.7081187592
30
0.0000000000
10
67.7746081474
20
212.7034213547
30
0.0000000000
10
67.4643766254
20
212.7005542022
30
0.0000000000
10
67.1613011362
20
212.7004145209
30
0.0000000000
10
66.8718536328
20
212.7027811482
30
0.0000000000
10
66.6021838415
20
212.7066164865
30
0.0000000000
10
66.3576445040
20
212.7105450839
30
0.0000000000
10
66.1402598256
20
212.7134116897
30
0.0000000000
10
66.0047414305
20
212.7142130668
30
0.0000000000
10
65.9412672434
20
212.7142132107
30
0.0000000000
11
68.6573509114
21
212.7142132107
31
0.0000000000
11
68.3871294456
21
212.7124397566
31
0.0000000000
11
68.0875111508
21
212.7082004679
31
0.0000000000
11
67.7745229040
21
212.7037325227
31
0.0000000000
11
67.4617577601
21
212.7009935765
31
0.0000000000
11
67.1568301176
21
212.7008612810
31
0.0000000000
11
66.8653300839
21
212.7031384095
31
0.0000000000
11
66.5934286466
21
212.7068287587
31
0.0000000000
11
66.3478033033
21
212.7105778092
31
0.0000000000
11
66.1316873492
21
212.7132461626
31
0.0000000000
11
65.9412672434
21
212.7142132107
31
0.0000000000
0
SPLINE
5
39E
100
AcDbEntity
8
0
100
AcDbSpline
62
7
6
CONTINUOUS
70
0
71
3
72
11
73
7
74
5
42
0.0000001000
43
0.0000001000
44
0.0000000001
12
-0.5016896783
22
0.0000000000
32
0.0000000000
13
-0.0000000000
23
0.5016896783
33
0.0000000000
40
0.0000000000
40
0.0000000000
40
0.0000000000
40
0.0000000000
40
0.0783762718
40
0.2950625150
40
0.6185854062
40
1.0000000000
40
1.0000000000
40
1.0000000000
40
1.0000000000
10
65.9412672434
20
212.7142132107
30
0.0000000000
10
65.9281603878
20
212.7142132107
30
0.0000000000
10
65.9366436186
20
212.7910999986
30
0.0000000000
10
65.9165352410
20
212.8695095167
30
0.0000000000
10
65.9185102130
20
213.0360888712
30
0.0000000000
10
65.9154615025
20
213.1504292891
30
0.0000000000
10
65.9154615025
20
213.2142132107
30
0.0000000000
11
65.9412672434
21
212.7142132107
31
0.0000000000
11
65.9313918116
21
212.7522734630
31
0.0000000000
11
65.9230198269
21
212.8606598609
31
0.0000000000
11
65.9174258468
21
213.0228715287
31
0.0000000000
11
65.9154615025
21
213.2142132107
31
0.0000000000
0
SPLINE
5
39F
100
AcDbEntity
8
0
100
AcDbSpline
62
7
6
CONTINUOUS
70
0
71
3
72
16
73
12
74
10
42
0.0000001000
43
0.0000001000
44
0.0000000001
12
-3.3621307988
22
-0.0000043259
32
0.0000000000
13
-3.0894486321
23
-1.3263599278
33
0.0000000000
40
0.0000000000
40
0.0000000000
40
0.0000000000
40
0.0000000000
40
0.0697845506
40
0.1480046842
40
0.2351094910
40
0.3319586485
40
0.4403754726
40
0.5618325756
40
0.6974587438
40
0.8453261821
40
1.0000000000
40
1.0000000000
40
1.0000000000
40
1.0000000000
10
59.8074766822
20
212.7142132107
30
0.0000000000
10
59.7292684199
20
212.7142131100
30
0.0000000000
10
59.5633384673
20
212.7063630777
30
0.0000000000
10
59.3018128890
20
212.6722644268
30
0.0000000000
10
59.0137792955
20
212.6130881363
30
0.0000000000
10
58.6973476365
20
212.5273927533
30
0.0000000000
10
58.3490218683
20
212.4141279326
30
0.0000000000
10
57.9644848227
20
212.2727941551
30
0.0000000000
10
57.5427670978
20
212.1050210366
30
0.0000000000
10
57.0895415061
20
211.9159786839
30
0.0000000000
10
56.7778155225
20
211.7825975953
30
0.0000000000
10
56.6185299174
20
211.7142132107
30
0.0000000000
11
59.8074766822
21
212.7142132107
31
0.0000000000
11
59.5730838217
21
212.7037835620
31
0.0000000000
11
59.3122036300
21
212.6705671473
31
0.0000000000
11
59.0251586898
21
212.6125079862
31
0.0000000000
11
58.7106064680
21
212.5283356539
31
0.0000000000
11
58.3636419947
21
212.4166024025
31
0.0000000000
11
57.9800046900
21
212.2766883136
31
0.0000000000
11
57.5559719328
21
212.1089809448
31
0.0000000000
11
57.0968714297
21
211.9182336757
31
0.0000000000
11
56.6185299174
21
211.7142132107
31
0.0000000000
0
SPLINE
5
3A0
100
AcDbEntity
8
0
100
AcDbSpline
62
7
6
CONTINUOUS
70
0
71
3
72
11
73
7
74
5
42
0.0000001000
43
0.0000001000
44
0.0000000001
12
-0.5053051020
22
0.0000000000
32
0.0000000000
13
0.0000000953
23
0.5053051020
33
0.0000000000
40
0.0000000000
40
0.0000000000
40
0.0000000000
40
0.0000000000
40
0.0830898518
40
0.2996389339
40
0.6212706612
40
1.0000000000
40
1.0000000000
40
1.0000000000
40
1.0000000000
10
59.8074766822
20
212.7142132107
30
0.0000000000
10
59.7934814402
20
212.7142132107
30
0.0000000000
10
59.7869834355
20
212.7874095266
30
0.0000000000
10
59.7700873651
20
212.8708396477
30
0.0000000000
10
59.7638629154
20
213.0353476354
30
0.0000000000
10
59.7611565796
20
213.1504219216
30
0.0000000000
10
59.7611565916
20
213.2142132107
30
0.0000000000
11
59.8074766822
21
212.7142132107
31
0.0000000000
11
59.7897506959
21
212.7522735654
31
0.0000000000
11
59.7747233644
21
212.8606601427
31
0.0000000000
11
59.7646824579
21
213.0228718265
31
0.0000000000
11
59.7611565916
21
213.2142132107
31
0.0000000000
0
SPLINE
5
3A1
100
AcDbEntity
8
0
100
AcDbSpline
62
7
6
CONTINUOUS
70
0
71
3
72
16
73
12
74
10
42
0.0000001000
43
0.0000001000
44
0.0000000001
12
-3.5473616862
22
-0.0000085715
32
0.0000000000
13
-2.8098909428
23
-2.1652454415
33
0.0000000000
40
0.0000000000
40
0.0000000000
40
0.0000000000
40
0.0000000000
40
0.0802075632
40
0.1675337557
40
0.2618009641
40
0.3632202202
40
0.4729797265
40
0.5918875548
40
0.7206862155
40
0.8579110149
40
1.0000000000
40
1.0000000000
40
1.0000000000
40
1.0000000000
10
59.7611565916
20
213.2142132107
30
0.0000000000
10
59.6663148460
20
213.2142129815
30
0.0000000000
10
59.4680781643
20
213.2029186618
30
0.0000000000
10
59.1621163985
20
213.1523906815
30
0.0000000000
10
58.8386817674
20
213.0643395001
30
0.0000000000
10
58.5003330267
20
212.9365605254
30
0.0000000000
10
58.1481173107
20
212.7673628149
30
0.0000000000
10
57.7818440295
20
212.5557075561
30
0.0000000000
10
57.4026209437
20
212.3035775717
30
0.0000000000
10
57.0132599577
20
212.0183280836
30
0.0000000000
10
56.7516147682
20
211.8167659802
30
0.0000000000
10
56.6185299174
20
211.7142134711
30
0.0000000000
11
59.7611565916
21
213.2142132107
31
0.0000000000
11
59.4770613777
21
213.1985760832
31
0.0000000000
11
59.1713139219
21
213.1487699780
31
0.0000000000
11
58.8484495665
21
213.0616959289
31
0.0000000000
11
58.5115530924
21
212.9354589206
31
0.0000000000
11
58.1601128673
21
212.7678630298
31
0.0000000000
11
57.7942313418
21
212.5579735242
31
0.0000000000
11
57.4128626116
21
212.3063560978
31
0.0000000000
11
57.0190676712
21
212.0201985351
31
0.0000000000
11
56.6185299174
21
211.7142134711
31
0.0000000000
0
SPLINE
5
3A2
100
AcDbEntity
8
0
100
AcDbSpline
62
7
6
CONTINUOUS
70
0
71
3
72
10
73
6
74
4
42
0.0000001000
43
0.0000001000
44
0.0000000001
12
0.1689797784
22
-0.4117685603
32
0.0000000000
13
-0.4077976675
23
-0.1783495869
33
0.0000000000
40
0.0000000000
40
0.0000000000
40
0.0000000000
40
0.0000000000
40
0.5028408777
40
0.8580564981
40
1.0000000000
40
1.0000000000
40
1.0000000000
40
1.0000000000
10
85.5711608257
20
214.0379098204
30
0.0000000000
10
85.5994841391
20
213.9688917990
30
0.0000000000
10
85.6480030983
20
213.8414424608
30
0.0000000000
10
85.6774184144
20
213.7211372481
30
0.0000000000
10
85.6984489698
20
213.6202601593
30
0.0000000000
10
85.6791542268
20
213.6118216377
30
0.0000000000
11
85.5711608257
21
214.0379098204
31
0.0000000000
11
85.6483560660
21
213.8278332365
31
0.0000000000
11
85.6869623618
21
213.6745152962
31
0.0000000000
11
85.6791542268
21
213.6118216377
31
0.0000000000
0
SPLINE
5
3A3
100
AcDbEntity
8
0
100
AcDbSpline
62
7
6
CONTINUOUS
70
0
71
3
72
10
73
6
74
4
42
0.0000001000
43
0.0000001000
44
0.0000000001
12
-0.0239132163
22
0.0582715325
32
0.0000000000
13
0.0000000000
23
0.0629874068
33
0.0000000000
40
0.0000000000
40
0.0000000000
40
0.0000000000
40
0.0000000000
40
0.3215763704
40
0.6548406154
40
1.0000000000
40
1.0000000000
40
1.0000000000
40
1.0000000000
10
85.5711588800
20
214.0379098204
30
0.0000000000
10
85.5685955716
20
214.0441560698
30
0.0000000000
10
85.5641726459
20
214.0572234897
30
0.0000000000
10
85.5601746187
20
214.0778942150
30
0.0000000000
10
85.5593029944
20
214.0921571044
30
0.0000000000
10
85.5593029944
20
214.0994040026
30
0.0000000000
11
85.5711588800
21
214.0379098204
31
0.0000000000
11
85.5646868388
21
214.0571032648
31
0.0000000000
11
85.5606663630
21
214.0777060989
31
0.0000000000
11
85.5593029944
21
214.0994040026
31
0.0000000000
0
SPLINE
5
3A4
100
AcDbEntity
8
0
100
AcDbSpline
62
7
6
CONTINUOUS
70
0
71
3
72
10
73
6
74
4
42
0.0000001000
43
0.0000001000
44
0.0000000001
12
-0.0239132359
22
-0.0582715523
32
0.0000000000
13
0.0000000000
23
-0.0629874325
33
0.0000000000
40
0.0000000000
40
0.0000000000
40
0.0000000000
40
0.0000000000
40
0.3215763772
40
0.6548406185
40
1.0000000000
40
1.0000000000
40
1.0000000000
40
1.0000000000
10
85.5711588585
20
214.7905166353
30
0.0000000000
10
85.5685955479
20
214.7842703838
30
0.0000000000
10
85.5641726650
20
214.7712029433
30
0.0000000000
10
85.5601746149
20
214.7505322165
30
0.0000000000
10
85.5593029944
20
214.7362693199
30
0.0000000000
10
85.5593029944
20
214.7290224188
30
0.0000000000
11
85.5711588585
21
214.7905166353
31
0.0000000000
11
85.5646868431
21
214.7713231730
31
0.0000000000
11
85.5606663641
21
214.7507203311
31
0.0000000000
11
85.5593029944
21
214.7290224188
31
0.0000000000
0
SPLINE
5
3A5
100
AcDbEntity
8
0
100
AcDbSpline
62
7
6
CONTINUOUS
70
0
71
3
72
10
73
6
74
4
42
0.0000001000
43
0.0000001000
44
0.0000000001
12
0.1689798372
22
0.4117685065
32
0.0000000000
13
-0.4077976350
23
0.1783495926
33
0.0000000000
40
0.0000000000
40
0.0000000000
40
0.0000000000
40
0.0000000000
40
0.5028408889
40
0.8580565072
40
1.0000000000
40
1.0000000000
40
1.0000000000
40
1.0000000000
10
85.5711608008
20
214.7905166353
30
0.0000000000
10
85.5994841247
20
214.8595346493
30
0.0000000000
10
85.6480030962
20
214.9869839766
30
0.0000000000
10
85.6774184115
20
215.1072891807
30
0.0000000000
10
85.6984489720
20
215.2081662601
30
0.0000000000
10
85.6791542318
20
215.2166047814
30
0.0000000000
11
85.5711608008
21
214.7905166353
31
0.0000000000
11
85.6483560621
21
215.0005932021
31
0.0000000000
11
85.6869623621
21
215.1539111303
31
0.0000000000
11
85.6791542318
21
215.2166047814
31
0.0000000000
0
SPLINE
5
3A6
100
AcDbEntity
8
0
100
AcDbSpline
62
7
6
CONTINUOUS
70
0
71
3
72
13
73
9
74
7
42
0.0000001000
43
0.0000001000
44
0.0000000001
12
-0.0000150931
22
1.0279842129
32
0.0000000000
13
-1.0279841086
23
-0.0004632368
33
0.0000000000
40
0.0000000000
40
0.0000000000
40
0.0000000000
40
0.0000000000
40
0.2085086549
40
0.4283203831
40
0.6399530021
40
0.8193234963
40
0.9422537897
40
1.0000000000
40
1.0000000000
40
1.0000000000
40
1.0000000000
10
85.2066106354
20
216.6142132107
30
0.0000000000
10
85.2066095864
20
216.6856610792
30
0.0000000000
10
85.2044430664
20
216.8323481934
30
0.0000000000
10
85.1934902747
20
217.0518515494
30
0.0000000000
10
85.1753813685
20
217.2589207786
30
0.0000000000
10
85.1453714579
20
217.4372243747
30
0.0000000000
10
85.1191895660
20
217.5479214568
30
0.0000000000
10
85.0790903899
20
217.6142221274
30
0.0000000000
10
85.0593029944
20
217.6142132107
30
0.0000000000
11
85.2066106354
21
216.6142132107
31
0.0000000000
11
85.2032764346
21
216.8285308821
31
0.0000000000
11
85.1919468230
21
217.0542096608
31
0.0000000000
11
85.1711321713
21
217.2707666383
31
0.0000000000
11
85.1405511222
21
217.4526030619
31
0.0000000000
11
85.1019685976
21
217.5729395360
31
0.0000000000
11
85.0593029944
21
217.6142132107
31
0.0000000000
0
SPLINE
5
3A7
100
AcDbEntity
8
0
100
AcDbSpline
62
7
6
CONTINUOUS
70
0
71
3
72
10
73
6
74
4
42
0.0000001000
43
0.0000001000
44
0.0000000001
12
1.6510914458
22
0.5859245874
32
0.0000000000
13
1.6510914757
23
0.5859245033
33
0.0000000000
40
0.0000000000
40
0.0000000000
40
0.0000000000
40
0.0000000000
40
0.3361089131
40
0.6695328233
40
1.0000000000
40
1.0000000000
40
1.0000000000
40
1.0000000000
10
85.1555147942
20
103.6142132107
30
0.0000000000
10
85.3404969779
20
103.6798580361
30
0.0000000000
10
85.7089842110
20
103.8106216100
30
0.0000000000
10
86.2593454150
20
104.0059371644
30
0.0000000000
10
86.6247334559
20
104.1355824729
30
0.0000000000
10
86.8066106354
20
104.2001254117
30
0.0000000000
11
85.1555147942
21
103.6142132107
31
0.0000000000
11
85.7104613515
21
103.8111476698
31
0.0000000000
11
86.2609747403
21
104.0065088724
31
0.0000000000
11
86.8066106354
21
104.2001254117
31
0.0000000000
0
SPLINE
5
3A8
100
AcDbEntity
8
0
100
AcDbSpline
62
7
6
CONTINUOUS
70
0
71
3
72
8
73
4
74
2
42
0.0000001000
43
0.0000001000
44
0.0000000001
12
0.0541703702
22
0.0197161852
32
0.0000000000
13
0.0461364858
23
-0.0474183125
33
0.0000000000
40
0.0000000000
40
0.0000000000
40
0.0000000000
40
0.0000000000
40
1.0000000000
40
1.0000000000
40
1.0000000000
40
1.0000000000
10
84.8784744775
20
104.0840595211
30
0.0000000000
10
84.8965312676
20
104.0906315828
30
0.0000000000
10
84.9148187620
20
104.0744122062
30
0.0000000000
10
84.9301975906
20
104.0586061021
30
0.0000000000
11
84.8784744775
21
104.0840595211
31
0.0000000000
11
84.9301975906
21
104.0586061021
31
0.0000000000
0
SPLINE
5
3A9
100
AcDbEntity
8
0
100
AcDbSpline
62
7
6
CONTINUOUS
70
0
71
3
72
10
73
6
74
4
42
0.0000001000
43
0.0000001000
44
0.0000000001
12
0.4006428630
22
-0.4117740681
32
0.0000000000
13
0.1643622111
23
-0.4728451300
33
0.0000000000
40
0.0000000000
40
0.0000000000
40
0.0000000000
40
0.0000000000
40
0.2447112247
40
0.5959686442
40
1.0000000000
40
1.0000000000
40
1.0000000000
40
1.0000000000
10
84.9301975906
20
104.0586061021
30
0.0000000000
10
84.9628781925
20
104.0250175232
30
0.0000000000
10
85.0104796627
20
103.9477611045
30
0.0000000000
10
85.0884071784
20
103.7944192847
30
0.0000000000
10
85.1333788895
20
103.6778946303
30
0.0000000000
10
85.1555147185
20
103.6142132107
30
0.0000000000
11
84.9301975906
21
104.0586061021
31
0.0000000000
11
85.0017741299
21
103.9591904466
31
0.0000000000
11
85.0812912987
21
103.8023587584
31
0.0000000000
11
85.1555147185
21
103.6142132107
31
0.0000000000
0
SPLINE
5
3AA
100
AcDbEntity
8
0
100
AcDbSpline
62
7
6
CONTINUOUS
70
0
71
3
72
11
73
7
74
5
42
0.0000001000
43
0.0000001000
44
0.0000000001
12
0.5538573719
22
0.2015875974
32
0.0000000000
13
0.1851917944
23
-0.5595529887
33
0.0000000000
40
0.0000000000
40
0.0000000000
40
0.0000000000
40
0.0000000000
40
0.1212617808
40
0.3443285912
40
0.6558812237
40
1.0000000000
40
1.0000000000
40
1.0000000000
40
1.0000000000
10
86.4882929228
20
104.6699855177
30
0.0000000000
10
86.5106801665
20
104.6781338080
30
0.0000000000
10
86.5815283080
20
104.6384928102
30
0.0000000000
10
86.6533972502
20
104.5373911415
30
0.0000000000
10
86.7386936309
20
104.3842079692
30
0.0000000000
10
86.7853679775
20
104.2643234372
30
0.0000000000
10
86.8066106354
20
104.2001392073
30
0.0000000000
11
86.4882929228
21
104.6699855177
31
0.0000000000
11
86.5564737928
21
104.6485467952
31
0.0000000000
11
86.6425370349
21
104.5491531103
31
0.0000000000
11
86.7317010897
21
104.3886235645
31
0.0000000000
11
86.8066106354
21
104.2001392073
31
0.0000000000
0
SPLINE
5
3AB
100
AcDbEntity
8
0
100
AcDbSpline
62
7
6
CONTINUOUS
70
0
71
3
72
9
73
5
74
3
42
0.0000001000
43
0.0000001000
44
0.0000000001
12
0.0494800965
22
0.0350289946
32
0.0000000000
13
0.0494354978
23
0.0350919076
33
0.0000000000
40
0.0000000000
40
0.0000000000
40
0.0000000000
40
0.0000000000
40
0.5010228577
40
1.0000000000
40
1.0000000000
40
1.0000000000
40
1.0000000000
10
85.1060557034
20
103.5791545702
30
0.0000000000
10
85.1143192565
20
103.5850046792
30
0.0000000000
10
85.1308111536
20
103.5966830879
30
0.0000000000
10
85.1472923997
20
103.6083765241
30
0.0000000000
10
85.1555147942
20
103.6142132107
30
0.0000000000
11
85.1060557034
21
103.5791545702
31
0.0000000000
11
85.1308422177
21
103.5967107509
31
0.0000000000
11
85.1555147942
21
103.6142132107
31
0.0000000000
0
SPLINE
5
3AC
100
AcDbEntity
8
0
100
AcDbSpline
62
7
6
CONTINUOUS
70
0
71
3
72
9
73
5
74
3
42
0.0000001000
43
0.0000001000
44
0.0000000001
12
0.1022229285
22
0.0372064094
32
0.0000000000
13
0.0620354870
23
-0.0888138218
33
0.0000000000
40
0.0000000000
40
0.0000000000
40
0.0000000000
40
0.0000000000
40
0.5278850451
40
1.0000000000
40
1.0000000000
40
1.0000000000
40
1.0000000000
10
84.8303130661
20
104.0665302009
30
0.0000000000
10
84.8483003845
20
104.0730771032
30
0.0000000000
10
84.8814884836
20
104.0398065780
30
0.0000000000
10
84.9049128629
20
104.0097094433
30
0.0000000000
10
84.9146754900
20
103.9957326654
30
0.0000000000
11
84.8303130661
21
104.0665302009
31
0.0000000000
11
84.8806186031
21
104.0388353831
31
0.0000000000
11
84.9146754900
21
103.9957326654
31
0.0000000000
0
SPLINE
5
3AD
100
AcDbEntity
8
0
100
AcDbSpline
62
7
6
CONTINUOUS
70
0
71
3
72
10
73
6
74
4
42
0.0000001000
43
0.0000001000
44
0.0000000001
12
0.2638692002
22
-0.3777713895
32
0.0000000000
13
0.1497298733
23
-0.4378173281
33
0.0000000000
40
0.0000000000
40
0.0000000000
40
0.0000000000
40
0.0000000000
40
0.1616384355
40
0.5530265509
40
1.0000000000
40
1.0000000000
40
1.0000000000
40
1.0000000000
10
84.9146754900
20
103.9957326654
30
0.0000000000
10
84.9288926249
20
103.9753785400
30
0.0000000000
10
84.9681284804
20
103.9074265519
30
0.0000000000
10
85.0384022462
20
103.7639534290
30
0.0000000000
10
85.0837473473
20
103.6443854656
30
0.0000000000
10
85.1060557733
20
103.5791545585
30
0.0000000000
11
84.9146754900
21
103.9957326654
31
0.0000000000
11
84.9517964832
21
103.9346833380
31
0.0000000000
11
85.0315385638
21
103.7720841298
31
0.0000000000
11
85.1060557733
21
103.5791545585
31
0.0000000000
0
SPLINE
5
3AE
100
AcDbEntity
8
0
100
AcDbSpline
62
7
6
CONTINUOUS
70
0
71
3
72
11
73
7
74
5
42
0.0000001000
43
0.0000001000
44
0.0000000001
12
0.0000000000
22
0.3527214100
32
0.0000000000
13
-0.3527027691
23
-0.0036262566
33
0.0000000000
40
0.0000000000
40
0.0000000000
40
0.0000000000
40
0.0000000000
40
0.0736072539
40
0.2995723207
40
0.6277185077
40
1.0000000000
40
1.0000000000
40
1.0000000000
40
1.0000000000
10
87.1593029944
20
107.4282872140
30
0.0000000000
10
87.1593029944
20
107.4369414988
30
0.0000000000
10
87.1026976114
20
107.4174912518
30
0.0000000000
10
87.0487761753
20
107.4329846624
30
0.0000000000
10
86.9300483838
20
107.4272578898
30
0.0000000000
10
86.8503788731
20
107.4287372101
30
0.0000000000
10
86.8066106354
20
107.4282872140
30
0.0000000000
11
87.1593029944
21
107.4282872140
31
0.0000000000
11
87.1333500364
21
107.4290039982
31
0.0000000000
11
87.0536593614
21
107.4276185732
31
0.0000000000
11
86.9379212644
21
107.4288057722
31
0.0000000000
11
86.8066106354
21
107.4282872140
31
0.0000000000
0
SPLINE
5
3AF
100
AcDbEntity
8
0
100
AcDbSpline
62
7
6
CONTINUOUS
70
0
71
3
72
12
73
8
74
6
42
0.0000001000
43
0.0000001000
44
0.0000000001
12
0.6272793967
22
-0.5114778018
32
0.0000000000
13
0.6606617993
23
0.4675627980
33
0.0000000000
40
0.0000000000
40
0.0000000000
40
0.0000000000
40
0.0000000000
40
0.2454473879
40
0.4586753794
40
0.6502440492
40
0.8290832090
40
1.0000000000
40
1.0000000000
40
1.0000000000
40
1.0000000000
10
84.3586098305
20
103.6142132107
30
0.0000000000
10
84.4099311937
20
103.5723662472
30
0.0000000000
10
84.5148690201
20
103.5035596899
30
0.0000000000
10
84.6861862564
20
103.4543140168
30
0.0000000000
10
84.8459511256
20
103.4594534217
30
0.0000000000
10
84.9864230751
20
103.5044973799
30
0.0000000000
10
85.0684163051
20
103.5525164592
30
0.0000000000
10
85.1060557034
20
103.5791545702
30
0.0000000000
11
84.3586098305
21
103.6142132107
31
0.0000000000
11
84.5267955434
21
103.5084823165
31
0.0000000000
11
84.6930467837
21
103.4621690753
31
0.0000000000
11
84.8480244717
21
103.4669372496
31
0.0000000000
11
84.9861866638
21
103.5101021794
31
0.0000000000
11
85.1060557034
21
103.5791545702
31
0.0000000000
0
SPLINE
5
3B0
100
AcDbEntity
8
0
100
AcDbSpline
62
7
6
CONTINUOUS
70
0
71
3
72
11
73
7
74
5
42
0.0000001000
43
0.0000001000
44
0.0000000001
12
0.4440875424
22
-0.1863299524
32
0.0000000000
13
-0.1815415083
23
-0.4460664494
33
0.0000000000
40
0.0000000000
40
0.0000000000
40
0.0000000000
40
0.0000000000
40
0.0945788775
40
0.3085371083
40
0.6240884666
40
1.0000000000
40
1.0000000000
40
1.0000000000
40
1.0000000000
10
84.4659044923
20
104.0752993628
30
0.0000000000
10
84.4799049261
20
104.0694250702
30
0.0000000000
10
84.4804149263
20
104.0047102001
30
0.0000000000
10
84.4625177403
20
103.9174455481
30
0.0000000000
10
84.4201962484
20
103.7725423745
30
0.0000000000
10
84.3813572169
20
103.6701070518
30
0.0000000000
10
84.3586093679
20
103.6142132108
30
0.0000000000
11
84.4659044923
21
104.0752993628
31
0.0000000000
11
84.4793382556
21
104.0317768498
31
0.0000000000
11
84.4638693704
21
103.9299036302
31
0.0000000000
11
84.4216601030
21
103.7839155374
31
0.0000000000
11
84.3586093679
21
103.6142132108
31
0.0000000000
0
SPLINE
5
3B1
100
AcDbEntity
8
0
100
AcDbSpline
62
7
6
CONTINUOUS
70
0
71
3
72
11
73
7
74
5
42
0.0000001000
43
0.0000001000
44
0.0000000001
12
0.0000875939
22
-1.1798463633
32
0.0000000000
13
1.0920135072
23
-0.4467034237
33
0.0000000000
40
0.0000000000
40
0.0000000000
40
0.0000000000
40
0.0000000000
40
0.2473537498
40
0.4967672488
40
0.7468567526
40
1.0000000000
40
1.0000000000
40
1.0000000000
40
1.0000000000
10
83.7296875585
20
104.5363765112
30
0.0000000000
10
83.7296947807
20
104.4390967039
30
0.0000000000
10
83.7593827050
20
104.2424847843
30
0.0000000000
10
83.8892562793
20
103.9742806497
30
0.0000000000
10
84.0930534553
20
103.7539540780
30
0.0000000000
10
84.2664645487
20
103.6519065291
30
0.0000000000
10
84.3586098305
20
103.6142132107
30
0.0000000000
11
83.7296875585
21
104.5363765112
31
0.0000000000
11
83.7733164869
21
104.2478166987
31
0.0000000000
11
83.9012040445
21
103.9827895750
31
0.0000000000
11
84.1014013723
21
103.7660277750
31
0.0000000000
11
84.3586098305
21
103.6142132107
31
0.0000000000
0
SPLINE
5
3B2
100
AcDbEntity
8
0
100
AcDbSpline
62
7
6
CONTINUOUS
70
0
71
3
72
14
73
10
74
8
42
0.0000001000
43
0.0000001000
44
0.0000000001
12
-1.8307665238
22
0.6495948925
32
0.0000000000
13
-0.0002390390
23
-1.9425960805
33
0.0000000000
40
0.0000000000
40
0.0000000000
40
0.0000000000
40
0.0000000000
40
0.1416543358
40
0.2875578339
40
0.4340065673
40
0.5771855650
40
0.7190014839
40
0.8599143385
40
1.0000000000
40
1.0000000000
40
1.0000000000
40
1.0000000000
10
85.1061184747
20
108.0317425309
30
0.0000000000
10
85.0196731361
20
108.0624151752
30
0.0000000000
10
84.8350427731
20
108.1015720218
30
0.0000000000
10
84.5511843889
20
108.0852279768
30
0.0000000000
10
84.2808674146
20
107.9930579984
30
0.0000000000
10
84.0476191057
20
107.8331311931
30
0.0000000000
10
83.8684421967
20
107.6188445346
30
0.0000000000
10
83.7554822383
20
107.3657181541
30
0.0000000000
10
83.7296987205
20
107.1827598624
30
0.0000000000
10
83.7296875585
20
107.0920499101
30
0.0000000000
11
85.1061184747
21
108.0317425309
31
0.0000000000
11
84.8369351541
21
108.0888635346
31
0.0000000000
11
84.5539716786
21
108.0725809054
31
0.0000000000
11
84.2847648777
21
107.9805880897
31
0.0000000000
11
84.0555088952
21
107.8230984820
31
0.0000000000
11
83.8789837062
21
107.6115939278
31
0.0000000000
11
83.7676560508
21
107.3615180042
31
0.0000000000
11
83.7296875585
21
107.0920499101
31
0.0000000000
0
SPLINE
5
3B3
100
AcDbEntity
8
0
100
AcDbSpline
62
7
6
CONTINUOUS
70
0
71
3
72
11
73
7
74
5
42
0.0000001000
43
0.0000001000
44
0.0000000001
12
0.5237586582
22
-0.1906143829
32
0.0000000000
13
0.1831807576
23
0.5264045831
33
0.0000000000
40
0.0000000000
40
0.0000000000
40
0.0000000000
40
0.0000000000
40
0.1027712133
40
0.3221706689
40
0.6373429167
40
1.0000000000
40
1.0000000000
40
1.0000000000
40
1.0000000000
10
84.8303128414
20
107.5618956030
30
0.0000000000
10
84.8482552790
20
107.5553657126
30
0.0000000000
10
84.9049603559
20
107.6064337976
30
0.0000000000
10
84.9613825895
20
107.6983180454
30
0.0000000000
10
85.0390578436
20
107.8517052664
30
0.0000000000
10
85.0839746411
20
107.9681077473
30
0.0000000000
10
85.1061185742
20
108.0317425309
30
0.0000000000
11
84.8303128414
21
107.5618956030
31
0.0000000000
11
84.8815647029
21
107.5874764849
31
0.0000000000
11
84.9527280561
21
107.6869229475
31
0.0000000000
11
85.0319710816
21
107.8437005026
31
0.0000000000
11
85.1061185742
21
108.0317425309
31
0.0000000000
0
SPLINE
5
3B4
100
AcDbEntity
8
0
100
AcDbSpline
62
7
6
CONTINUOUS
70
0
71
3
72
9
73
5
74
3
42
0.0000001000
43
0.0000001000
44
0.0000000001
12
-1.7004655331
22
0.6034468981
32
0.0000000000
13
-1.7004659592
23
0.6034456974
33
0.0000000000
40
0.0000000000
40
0.0000000000
40
0.0000000000
40
0.0000000000
40
0.4967886347
40
1.0000000000
40
1.0000000000
40
1.0000000000
40
1.0000000000
10
86.8066106354
20
107.4283706776
30
0.0000000000
10
86.5250199852
20
107.5282991978
30
0.0000000000
10
85.9581586319
20
107.7293368152
30
0.0000000000
10
85.3913497403
20
107.9305222865
30
0.0000000000
10
85.1061184747
20
108.0317425309
30
0.0000000000
11
86.8066106354
21
107.4283706776
31
0.0000000000
11
85.9618123771
21
107.7280820949
31
0.0000000000
11
85.1061184747
21
108.0317425309
31
0.0000000000
0
SPLINE
5
3B5
100
AcDbEntity
8
0
100
AcDbSpline
62
7
6
CONTINUOUS
70
0
71
3
72
11
73
7
74
5
42
0.0000001000
43
0.0000001000
44
0.0000000001
12
0.5538850723
22
-0.2015976797
32
0.0000000000
13
0.1859262681
23
0.5593404336
33
0.0000000000
40
0.0000000000
40
0.0000000000
40
0.0000000000
40
0.0000000000
40
0.1204471414
40
0.3416208693
40
0.6499450198
40
1.0000000000
40
1.0000000000
40
1.0000000000
40
1.0000000000
10
86.4882929227
20
106.9584409037
30
0.0000000000
10
86.5105308806
20
106.9503469489
30
0.0000000000
10
86.5808975325
20
106.9893929706
30
0.0000000000
10
86.6523568555
20
107.0895151639
30
0.0000000000
10
86.7380936139
20
107.2426001322
30
0.0000000000
10
86.7849158301
20
107.3630205792
30
0.0000000000
10
86.8066106355
20
107.4282872140
30
0.0000000000
11
86.4882929227
21
106.9584409037
31
0.0000000000
11
86.5560718267
21
106.9795683747
31
0.0000000000
11
86.6416229951
21
107.0779377279
31
0.0000000000
11
86.7302196156
21
107.2366156307
31
0.0000000000
11
86.8066106355
21
107.4282872140
31
0.0000000000
0
SPLINE
5
3B6
100
AcDbEntity
8
0
100
AcDbSpline
62
7
6
CONTINUOUS
70
0
71
3
72
19
73
15
74
13
42
0.0000001000
43
0.0000001000
44
0.0000000001
12
-1.4077596439
22
-0.0018283317
32
0.0000000000
13
-0.0004186152
23
-1.4077295540
33
0.0000000000
40
0.0000000000
40
0.0000000000
40
0.0000000000
40
0.0000000000
40
0.0560936148
40
0.1200502308
40
0.1907144958
40
0.2677608634
40
0.3509831317
40
0.4401049114
40
0.5344014262
40
0.6320883424
40
0.7304351431
40
0.8264388294
40
0.9171647284
40
1.0000000000
40
1.0000000000
40
1.0000000000
40
1.0000000000
10
45.9967943655
20
217.6142126967
30
0.0000000000
10
45.9704722564
20
217.6141785108
30
0.0000000000
10
45.9140808446
20
217.6104556206
30
0.0000000000
10
45.8261245714
20
217.5924162976
30
0.0000000000
10
45.7324434862
20
217.5582963383
30
0.0000000000
10
45.6370138176
20
217.5060817167
30
0.0000000000
10
45.5436137771
20
217.4348514809
30
0.0000000000
10
45.4560181055
20
217.3448989453
30
0.0000000000
10
45.3779878700
20
217.2380234479
30
0.0000000000
10
45.3129565761
20
217.1178660852
30
0.0000000000
10
45.2633220722
20
216.9897676445
30
0.0000000000
10
45.2298369483
20
216.8599607918
30
0.0000000000
10
45.2115637488
20
216.7345746360
30
0.0000000000
10
45.2077984947
20
216.6530830973
30
0.0000000000
10
45.2077869359
20
216.6142132107
30
0.0000000000
11
45.9967943655
21
217.6142126967
31
0.0000000000
11
45.9179981355
21
217.6090331199
31
0.0000000000
11
45.8297834632
21
217.5910268774
31
0.0000000000
11
45.7362603493
21
217.5571308999
31
0.0000000000
11
45.6410001364
21
217.5052737710
31
0.0000000000
11
45.5476717096
21
217.4344573160
31
0.0000000000
11
45.4599236408
21
217.3447894308
31
0.0000000000
11
45.3814111819
21
217.2377531639
31
0.0000000000
11
45.3157345794
21
217.1169332791
31
0.0000000000
11
45.2655365270
21
216.9879085973
31
0.0000000000
11
45.2316687785
21
216.8570737777
31
0.0000000000
11
45.2132148661
21
216.7306964781
31
0.0000000000
11
45.2077869359
21
216.6142132107
31
0.0000000000
0
SPLINE
5
3B7
100
AcDbEntity
8
0
100
AcDbSpline
62
7
6
CONTINUOUS
70
0
71
3
72
14
73
10
74
8
42
0.0000001000
43
0.0000001000
44
0.0000000001
12
-0.0000143820
22
-1.0283487185
32
0.0000000000
13
-1.0283482253
23
0.0010072329
33
0.0000000000
40
0.0000000000
40
0.0000000000
40
0.0000000000
40
0.0000000000
40
0.1667740058
40
0.3437445381
40
0.5237194457
40
0.6954371362
40
0.8428214154
40
0.9474429760
40
1.0000000000
40
1.0000000000
40
1.0000000000
40
1.0000000000
10
86.8066106354
20
103.6142132107
30
0.0000000000
10
86.8066098359
20
103.5570459323
30
0.0000000000
10
86.8051574520
20
103.4391949911
30
0.0000000000
10
86.7983140630
20
103.2598589718
30
0.0000000000
10
86.7853250831
20
103.0787670293
30
0.0000000000
10
86.7669274635
20
102.9096748492
30
0.0000000000
10
86.7389805723
20
102.7637191497
30
0.0000000000
10
86.7143665574
20
102.6695984083
30
0.0000000000
10
86.6773186352
20
102.6141955650
30
0.0000000000
10
86.6593029944
20
102.6142132107
30
0.0000000000
11
86.8066106354
21
103.6142132107
31
0.0000000000
11
86.8044851202
21
103.4427245474
31
0.0000000000
11
86.7973440784
21
103.2608772857
31
0.0000000000
11
86.7839899445
21
103.0762827291
31
0.0000000000
11
86.7633421584
21
102.9009083675
31
0.0000000000
11
86.7348790750
21
102.7520425739
31
0.0000000000
11
86.6993726448
21
102.6504829740
31
0.0000000000
11
86.6593029944
21
102.6142132107
31
0.0000000000
0
SPLINE
5
3B8
100
AcDbEntity
8
0
100
AcDbSpline
62
7
6
CONTINUOUS
70
0
71
3
72
11
73
7
74
5
42
0.0000001000
43
0.0000001000
44
0.0000000001
12
0.5435010936
22
0.0000000000
32
0.0000000000
13
0.0000000000
23
-0.5435010936
33
0.0000000000
40
0.0000000000
40
0.0000000000
40
0.0000000000
40
0.0000000000
40
0.1239149253
40
0.3417971424
40
0.6465016213
40
1.0000000000
40
1.0000000000
40
1.0000000000
40
1.0000000000
10
86.6593029944
20
109.0142132107
30
0.0000000000
10
86.6817522936
20
109.0142132107
30
0.0000000000
10
86.7339874472
20
108.9638382879
30
0.0000000000
10
86.7699368775
20
108.8548488126
30
0.0000000000
10
86.8007734954
20
108.6974402383
30
0.0000000000
10
86.8066106354
20
108.5782554625
30
0.0000000000
10
86.8066106354
20
108.5142132107
30
0.0000000000
11
86.6593029944
21
109.0142132107
31
0.0000000000
11
86.7152594276
21
108.9767349920
31
0.0000000000
11
86.7632551429
21
108.8684782428
31
0.0000000000
11
86.7953419932
21
108.7060092165
31
0.0000000000
11
86.8066106354
21
108.5142132107
31
0.0000000000
0
SPLINE
5
3B9
100
AcDbEntity
8
0
100
AcDbSpline
62
7
6
CONTINUOUS
70
0
71
3
72
19
73
15
74
13
42
0.0000001000
43
0.0000001000
44
0.0000000001
12
0.0000129485
22
-1.4077364193
32
0.0000000000
13
1.4077671092
23
-0.0018049059
33
0.0000000000
40
0.0000000000
40
0.0000000000
40
0.0000000000
40
0.0000000000
40
0.0814910458
40
0.1701017236
40
0.2637595695
40
0.3600674372
40
0.4564800141
40
0.5505713349
40
0.6404363324
40
0.7249867963
40
0.8036813980
40
0.8761626398
40
0.9420103936
40
1.0000000000
40
1.0000000000
40
1.0000000000
40
1.0000000000
10
45.2077869359
20
103.6142132107
30
0.0000000000
10
45.2077872877
20
103.5759739063
30
0.0000000000
10
45.2114447182
20
103.4961080273
30
0.0000000000
10
45.2289772136
20
103.3733837848
30
0.0000000000
10
45.2609964629
20
103.2463711370
30
0.0000000000
10
45.3086041996
20
103.1203644191
30
0.0000000000
10
45.3715012296
20
103.0009614990
30
0.0000000000
10
45.4478813389
20
102.8933369467
30
0.0000000000
10
45.5347686277
20
102.8014883051
30
0.0000000000
10
45.6285301754
20
102.7278526009
30
0.0000000000
10
45.7252675959
20
102.6733163946
30
0.0000000000
10
45.8209806205
20
102.6373672165
30
0.0000000000
10
45.9114182853
20
102.6182163776
30
0.0000000000
10
45.9695933159
20
102.6142486000
30
0.0000000000
10
45.9968052694
20
102.6142137114
30
0.0000000000
11
45.2077869359
21
103.6142132107
31
0.0000000000
11
45.2130472727
21
103.4996159662
31
0.0000000000
11
45.2307296206
21
103.3761351114
31
0.0000000000
11
45.2630607708
21
103.2483151264
31
0.0000000000
11
45.3111402844
21
103.1215506308
31
0.0000000000
11
45.3746026797
21
103.0015781686
31
0.0000000000
11
45.4514952036
21
102.8937260793
31
0.0000000000
11
45.5386573088
21
102.8020386016
31
0.0000000000
11
45.6324485544
21
102.7287576525
31
0.0000000000
11
45.7290728189
21
102.6745705841
31
0.0000000000
11
45.8246521324
21
102.6388546115
31
0.0000000000
11
45.9153569629
21
102.6197435081
31
0.0000000000
11
45.9968052694
21
102.6142137114
31
0.0000000000
0
SPLINE
5
3BA
100
AcDbEntity
8
0
100
AcDbSpline
62
7
6
CONTINUOUS
70
0
71
3
72
11
73
7
74
5
42
0.0000001000
43
0.0000001000
44
0.0000000001
12
0.5434671137
22
0.0000000000
32
0.0000000000
13
-0.0000000000
23
0.5434671137
33
0.0000000000
40
0.0000000000
40
0.0000000000
40
0.0000000000
40
0.0000000000
40
0.1251551093
40
0.3431160588
40
0.6473199775
40
1.0000000000
40
1.0000000000
40
1.0000000000
40
1.0000000000
10
85.0593029944
20
211.2142132107
30
0.0000000000
10
85.0819755564
20
211.2142132107
30
0.0000000000
10
85.1342349840
20
211.2651318597
30
0.0000000000
10
85.1700869482
20
211.3741551535
30
0.0000000000
10
85.2007981452
20
211.5314022761
30
0.0000000000
10
85.2066106354
20
211.6503232127
30
0.0000000000
10
85.2066106354
20
211.7142132107
30
0.0000000000
11
85.0593029944
21
211.2142132107
31
0.0000000000
11
85.1156751881
21
211.2522734444
31
0.0000000000
11
85.1634652263
21
211.3606598201
31
0.0000000000
11
85.1953975089
21
211.5228714945
31
0.0000000000
11
85.2066106354
21
211.7142132107
31
0.0000000000
0
SPLINE
5
3BB
100
AcDbEntity
8
0
100
AcDbSpline
62
7
6
CONTINUOUS
70
0
71
3
72
13
73
9
74
7
42
0.0000001000
43
0.0000001000
44
0.0000000001
12
0.0001913725
22
-0.7438482297
32
0.0000000000
13
0.6514424450
23
-0.3590723691
33
0.0000000000
40
0.0000000000
40
0.0000000000
40
0.0000000000
40
0.0000000000
40
0.2146065485
40
0.4066569333
40
0.5783812062
40
0.7335583237
40
0.8747289452
40
1.0000000000
40
1.0000000000
40
1.0000000000
40
1.0000000000
10
85.2066106354
20
215.3998428120
30
0.0000000000
10
85.2066243253
20
215.3466312449
30
0.0000000000
10
85.2185861714
20
215.2453913570
30
0.0000000000
10
85.2665682455
20
215.1092217778
30
0.0000000000
10
85.3324536818
20
214.9978354141
30
0.0000000000
10
85.4083357591
20
214.9093294318
30
0.0000000000
10
85.4881166934
20
214.8412133495
30
0.0000000000
10
85.5439565645
20
214.8055104268
30
0.0000000000
10
85.5711588585
20
214.7905166353
30
0.0000000000
11
85.2066106354
21
215.3998428120
31
0.0000000000
11
85.2253138136
21
215.2413075458
31
0.0000000000
11
85.2727156158
21
215.1065447764
31
0.0000000000
11
85.3377259913
21
214.9965886883
31
0.0000000000
11
85.4128092027
21
214.9089177856
31
0.0000000000
11
85.4926474996
21
214.8407060146
31
0.0000000000
11
85.5711588585
21
214.7905166353
31
0.0000000000
0
SPLINE
5
3BC
100
AcDbEntity
8
0
100
AcDbSpline
62
7
6
CONTINUOUS
70
0
71
3
72
12
73
8
74
6
42
0.0000001000
43
0.0000001000
44
0.0000000001
12
2.6977720199
22
-0.0002864587
32
0.0000000000
13
2.6189336871
23
0.6474259000
33
0.0000000000
40
0.0000000000
40
0.0000000000
40
0.0000000000
40
0.0000000000
40
0.1457812429
40
0.3156523384
40
0.5134387475
40
0.7404841802
40
1.0000000000
40
1.0000000000
40
1.0000000000
40
1.0000000000
10
77.4135516834
20
107.5142132107
30
0.0000000000
10
77.5446465361
20
107.5141992906
30
0.0000000000
10
77.8284910224
20
107.5337350009
30
0.0000000000
10
78.2850889884
20
107.6038638298
30
0.0000000000
10
78.8089719887
20
107.7120576287
30
0.0000000000
10
79.4080452088
20
107.8529828906
30
0.0000000000
10
79.8327514202
20
107.9582074563
30
0.0000000000
10
80.0593029944
20
108.0142132107
30
0.0000000000
11
77.4135516834
21
107.5142132107
31
0.0000000000
11
77.8061596056
21
107.5372732367
31
0.0000000000
11
78.2596064694
21
107.6036097596
31
0.0000000000
11
78.7826887533
21
107.7089442815
31
0.0000000000
11
79.3793538664
21
107.8473913712
31
0.0000000000
11
80.0593029944
21
108.0142132107
31
0.0000000000
0
SPLINE
5
3BD
100
AcDbEntity
8
0
100
AcDbSpline
62
7
6
CONTINUOUS
70
0
71
3
72
12
73
8
74
6
42
0.0000001000
43
0.0000001000
44
0.0000000001
12
2.8597994627
22
-0.0008645619
32
0.0000000000
13
2.4764698580
23
1.4302275192
33
0.0000000000
40
0.0000000000
40
0.0000000000
40
0.0000000000
40
0.0000000000
40
0.1688043325
40
0.3510061996
40
0.5488903543
40
0.7633479736
40
1.0000000000
40
1.0000000000
40
1.0000000000
40
1.0000000000
10
77.4135516834
20
107.0142132107
30
0.0000000000
10
77.5744671964
20
107.0141645634
30
0.0000000000
10
77.9094610742
20
107.0494891912
30
0.0000000000
10
78.4158276651
20
107.1872583734
30
0.0000000000
10
78.9412217078
20
107.4026949130
30
0.0000000000
10
79.4914915941
20
107.6863730212
30
0.0000000000
10
79.8639491243
20
107.9013898813
30
0.0000000000
10
80.0593029944
20
108.0142119615
30
0.0000000000
11
77.4135516834
21
107.0142132107
31
0.0000000000
11
77.8940887940
21
107.0603470138
31
0.0000000000
11
78.3979684070
21
107.1930486322
31
0.0000000000
11
78.9231750146
21
107.4037879124
31
0.0000000000
11
79.4704065253
21
107.6807025077
31
0.0000000000
11
80.0593029944
21
108.0142119615
31
0.0000000000
0
SPLINE
5
3BE
100
AcDbEntity
8
0
100
AcDbSpline
62
7
6
CONTINUOUS
70
0
71
3
72
11
73
7
74
5
42
0.0000001000
43
0.0000001000
44
0.0000000001
12
0.0000000000
22
0.5556435948
32
0.0000000000
13
0.5556435948
23
0.0000000000
33
0.0000000000
40
0.0000000000
40
0.0000000000
40
0.0000000000
40
0.0000000000
40
0.3451565100
40
0.6446175672
40
0.8637515913
40
1.0000000000
40
1.0000000000
40
1.0000000000
40
1.0000000000
10
87.6882929228
20
266.3236041198
30
0.0000000000
10
87.6882929228
20
266.3875321211
30
0.0000000000
10
87.6953329753
20
266.5071006586
30
0.0000000000
10
87.7303698850
20
266.6643678588
30
0.0000000000
10
87.7749295321
20
266.7766459717
30
0.0000000000
10
87.8340678092
20
266.8236041198
30
0.0000000000
10
87.8593029944
20
266.8236041198
30
0.0000000000
11
87.6882929228
21
266.3236041198
31
0.0000000000
11
87.7013102894
21
266.5149458360
31
0.0000000000
11
87.7383806131
21
266.6771575104
31
0.0000000000
11
87.7938602732
21
266.7855438860
31
0.0000000000
11
87.8593029944
21
266.8236041198
31
0.0000000000
0
SPLINE
5
3BF
100
AcDbEntity
8
0
100
AcDbSpline
62
7
6
CONTINUOUS
70
0
71
3
72
9
73
5
74
3
42
0.0000001000
43
0.0000001000
44
0.0000000001
12
0.0495911577
22
-0.0093701588
32
0.0000000000
13
0.0493208052
23
-0.0107023812
33
0.0000000000
40
0.0000000000
40
0.0000000000
40
0.0000000000
40
0.0000000000
40
0.5004688192
40
1.0000000000
40
1.0000000000
40
1.0000000000
40
1.0000000000
10
85.1060557034
20
267.3787731720
30
0.0000000000
10
85.1143286461
20
267.3772100146
30
0.0000000000
10
85.1308380111
20
267.3739743558
30
0.0000000000
10
85.1473023675
20
267.3705170148
30
0.0000000000
10
85.1555147942
20
267.3687349571
30
0.0000000000
11
85.1060557034
21
267.3787731720
31
0.0000000000
11
85.1308422177
21
267.3739157974
31
0.0000000000
11
85.1555147942
21
267.3687349571
31
0.0000000000
0
SPLINE
5
3C0
100
AcDbEntity
8
0
100
AcDbSpline
62
7
6
CONTINUOUS
70
0
71
3
72
11
73
7
74
5
42
0.0000001000
43
0.0000001000
44
0.0000000001
12
0.0000000000
22
0.6016468973
32
0.0000000000
13
-0.6016468973
23
0.0000000000
33
0.0000000000
40
0.0000000000
40
0.0000000000
40
0.0000000000
40
0.0000000000
40
0.3195989538
40
0.6038602660
40
0.8288638079
40
1.0000000000
40
1.0000000000
40
1.0000000000
40
1.0000000000
10
80.5593029944
20
253.4236041198
30
0.0000000000
10
80.5593029944
20
253.4876993594
30
0.0000000000
10
80.5480708144
20
253.6093177688
30
0.0000000000
10
80.4976632825
20
253.7689559816
30
0.0000000000
10
80.4220656345
20
253.8862291597
30
0.0000000000
10
80.3436241808
20
253.9236041198
30
0.0000000000
10
80.3093029944
20
253.9236041198
30
0.0000000000
11
80.5593029944
21
253.4236041198
31
0.0000000000
11
80.5402728775
21
253.6149458360
31
0.0000000000
11
80.4860796897
21
253.7771575104
31
0.0000000000
11
80.4049738525
21
253.8855438860
31
0.0000000000
11
80.3093029944
21
253.9236041198
31
0.0000000000
0
SPLINE
5
3C1
100
AcDbEntity
8
0
100
AcDbSpline
62
7
6
CONTINUOUS
70
0
71
3
72
11
73
7
74
5
42
0.0000001000
43
0.0000001000
44
0.0000000001
12
0.6016468973
22
0.0000000000
32
0.0000000000
13
0.0000000000
23
0.6016468973
33
0.0000000000
40
0.0000000000
40
0.0000000000
40
0.0000000000
40
0.0000000000
40
0.1711361921
40
0.3961397340
40
0.6804010462
40
1.0000000000
40
1.0000000000
40
1.0000000000
40
1.0000000000
10
80.3093029944
20
249.9236041198
30
0.0000000000
10
80.3436241808
20
249.9236041198
30
0.0000000000
10
80.4220656345
20
249.9609790799
30
0.0000000000
10
80.4976632825
20
250.0782522580
30
0.0000000000
10
80.5480708144
20
250.2378904708
30
0.0000000000
10
80.5593029944
20
250.3595088802
30
0.0000000000
10
80.5593029944
20
250.4236041198
30
0.0000000000
11
80.3093029944
21
249.9236041198
31
0.0000000000
11
80.4049738525
21
249.9616643535
31
0.0000000000
11
80.4860796897
21
250.0700507292
31
0.0000000000
11
80.5402728775
21
250.2322624036
31
0.0000000000
11
80.5593029944
21
250.4236041198
31
0.0000000000
0
SPLINE
5
3C2
100
AcDbEntity
8
0
100
AcDbSpline
62
7
6
CONTINUOUS
70
0
71
3
72
11
73
7
74
5
42
0.0000001000
43
0.0000001000
44
0.0000000001
12
-0.6016468973
22
0.0000000000
32
0.0000000000
13
0.0000000000
23
-0.6016468973
33
0.0000000000
40
0.0000000000
40
0.0000000000
40
0.0000000000
40
0.0000000000
40
0.1711361921
40
0.3961397340
40
0.6804010462
40
1.0000000000
40
1.0000000000
40
1.0000000000
40
1.0000000000
10
69.8093029944
20
253.9236041198
30
0.0000000000
10
69.7749818081
20
253.9236041198
30
0.0000000000
10
69.6965403543
20
253.8862291597
30
0.0000000000
10
69.6209427064
20
253.7689559816
30
0.0000000000
10
69.5705351744
20
253.6093177688
30
0.0000000000
10
69.5593029944
20
253.4876993594
30
0.0000000000
10
69.5593029944
20
253.4236041198
30
0.0000000000
11
69.8093029944
21
253.9236041198
31
0.0000000000
11
69.7136321363
21
253.8855438860
31
0.0000000000
11
69.6325262991
21
253.7771575104
31
0.0000000000
11
69.5783331113
21
253.6149458360
31
0.0000000000
11
69.5593029944
21
253.4236041198
31
0.0000000000
0
SPLINE
5
3C3
100
AcDbEntity
8
0
100
AcDbSpline
62
7
6
CONTINUOUS
70
0
71
3
72
11
73
7
74
5
42
0.0000001000
43
0.0000001000
44
0.0000000001
12
0.0000000000
22
-0.6016468973
32
0.0000000000
13
0.6016468973
23
0.0000000000
33
0.0000000000
40
0.0000000000
40
0.0000000000
40
0.0000000000
40
0.0000000000
40
0.3195989538
40
0.6038602660
40
0.8288638079
40
1.0000000000
40
1.0000000000
40
1.0000000000
40
1.0000000000
10
69.5593029944
20
250.4236041198
30
0.0000000000
10
69.5593029944
20
250.3595088802
30
0.0000000000
10
69.5705351744
20
250.2378904708
30
0.0000000000
10
69.6209427064
20
250.0782522580
30
0.0000000000
10
69.6965403543
20
249.9609790799
30
0.0000000000
10
69.7749818081
20
249.9236041198
30
0.0000000000
10
69.8093029944
20
249.9236041198
30
0.0000000000
11
69.5593029944
21
250.4236041198
31
0.0000000000
11
69.5783331113
21
250.2322624036
31
0.0000000000
11
69.6325262991
21
250.0700507292
31
0.0000000000
11
69.7136321363
21
249.9616643535
31
0.0000000000
11
69.8093029944
21
249.9236041198
31
0.0000000000
0
SPLINE
5
3C4
100
AcDbEntity
8
0
100
AcDbSpline
62
7
6
CONTINUOUS
70
0
71
3
72
11
73
7
74
5
42
0.0000001000
43
0.0000001000
44
0.0000000001
12
-0.5556435948
22
0.0000000000
32
0.0000000000
13
0.0000000000
23
0.5556435948
33
0.0000000000
40
0.0000000000
40
0.0000000000
40
0.0000000000
40
0.0000000000
40
0.1362484087
40
0.3553824328
40
0.6548434900
40
1.0000000000
40
1.0000000000
40
1.0000000000
40
1.0000000000
10
87.8593029944
20
246.4236041198
30
0.0000000000
10
87.8340678092
20
246.4236041198
30
0.0000000000
10
87.7749295321
20
246.4705622679
30
0.0000000000
10
87.7303698850
20
246.5828403807
30
0.0000000000
10
87.6953329753
20
246.7401075810
30
0.0000000000
10
87.6882929228
20
246.8596761185
30
0.0000000000
10
87.6882929228
20
246.9236041198
30
0.0000000000
11
87.8593029944
21
246.4236041198
31
0.0000000000
11
87.7938602732
21
246.4616643535
31
0.0000000000
11
87.7383806131
21
246.5700507292
31
0.0000000000
11
87.7013102894
21
246.7322624036
31
0.0000000000
11
87.6882929228
21
246.9236041198
31
0.0000000000
0
SPLINE
5
3C5
100
AcDbEntity
8
0
100
AcDbSpline
62
7
6
CONTINUOUS
70
0
71
3
72
12
73
8
74
6
42
0.0000001000
43
0.0000001000
44
0.0000000001
12
0.7503793945
22
-0.1312443570
32
0.0000000000
13
0.7485242589
23
-0.1414416871
33
0.0000000000
40
0.0000000000
40
0.0000000000
40
0.0000000000
40
0.0000000000
40
0.2257408641
40
0.4494380637
40
0.6565930493
40
0.8403842899
40
1.0000000000
40
1.0000000000
40
1.0000000000
40
1.0000000000
10
84.3586098305
20
267.5247909928
30
0.0000000000
10
84.4150735949
20
267.5149152547
30
0.0000000000
10
84.5263086541
20
267.4890421177
30
0.0000000000
10
84.6887046475
20
267.4513775545
30
0.0000000000
10
84.8420520796
20
267.4220449497
30
0.0000000000
10
84.9801309173
20
267.4001990923
30
0.0000000000
10
85.0662302930
20
267.3862986105
30
0.0000000000
10
85.1060557034
20
267.3787731720
30
0.0000000000
11
84.3586098305
21
267.5247909928
31
0.0000000000
11
84.5267955434
21
267.4889476117
31
0.0000000000
11
84.6930467837
21
267.4515483289
31
0.0000000000
11
84.8480244717
21
267.4218129061
31
0.0000000000
11
84.9861866638
21
267.3991612368
31
0.0000000000
11
85.1060557034
21
267.3787731720
31
0.0000000000
0
SPLINE
5
3C6
100
AcDbEntity
8
0
100
AcDbSpline
62
7
6
CONTINUOUS
70
0
71
3
72
14
73
10
74
8
42
0.0000001000
43
0.0000001000
44
0.0000000001
12
-0.1434438673
22
-1.0022496907
32
0.0000000000
13
-0.1514017457
23
-1.0010784760
33
0.0000000000
40
0.0000000000
40
0.0000000000
40
0.0000000000
40
0.0000000000
40
0.0148135558
40
0.0645021530
40
0.1570064511
40
0.2991377350
40
0.4933708074
40
0.7331147733
40
1.0000000000
40
1.0000000000
40
1.0000000000
40
1.0000000000
10
86.8066106354
20
266.9359230333
30
0.0000000000
10
86.8059023308
20
266.9309740727
30
0.0000000000
10
86.8028173738
20
266.9094251009
30
0.0000000000
10
86.7952976299
20
266.8569736725
30
0.0000000000
10
86.7816114968
20
266.7619988296
30
0.0000000000
10
86.7608455511
20
266.6187583929
30
0.0000000000
10
86.7326991174
20
266.4263770233
30
0.0000000000
10
86.6981067443
20
266.1923878490
30
0.0000000000
10
86.6727719575
20
266.0232939862
30
0.0000000000
10
86.6593029944
20
265.9342363009
30
0.0000000000
11
86.8066106354
21
266.9359230333
31
0.0000000000
11
86.8044851202
21
266.9210762375
31
0.0000000000
11
86.7973440784
21
266.8712777924
31
0.0000000000
11
86.7839899445
21
266.7785775867
31
0.0000000000
11
86.7633421584
21
266.6361639931
31
0.0000000000
11
86.7348790750
21
266.4415809971
31
0.0000000000
11
86.6993726448
21
266.2014601428
31
0.0000000000
11
86.6593029944
21
265.9342363009
31
0.0000000000
0
SPLINE
5
3C7
100
AcDbEntity
8
0
100
AcDbSpline
62
7
6
CONTINUOUS
70
0
71
3
72
11
73
7
74
5
42
0.0000001000
43
0.0000001000
44
0.0000000001
12
0.0000000000
22
-0.5000000000
32
0.0000000000
13
-0.0000000000
23
-0.5000000000
33
0.0000000000
40
0.0000000000
40
0.0000000000
40
0.0000000000
40
0.0000000000
40
0.0659139139
40
0.2655420826
40
0.5882202146
40
1.0000000000
40
1.0000000000
40
1.0000000000
40
1.0000000000
10
75.0593029944
20
253.9236041198
30
0.0000000000
10
75.0593029944
20
253.9126184675
30
0.0000000000
10
75.0593029944
20
253.8683614537
30
0.0000000000
10
75.0593029944
20
253.7703247513
30
0.0000000000
10
75.0593029944
20
253.6146437369
30
0.0000000000
10
75.0593029944
20
253.4922340840
30
0.0000000000
10
75.0593029944
20
253.4236041198
30
0.0000000000
11
75.0593029944
21
253.9236041198
31
0.0000000000
11
75.0593029944
21
253.8906471628
31
0.0000000000
11
75.0593029944
21
253.7908330785
31
0.0000000000
11
75.0593029944
21
253.6294940125
31
0.0000000000
11
75.0593029944
21
253.4236041198
31
0.0000000000
0
SPLINE
5
3C8
100
AcDbEntity
8
0
100
AcDbSpline
62
7
6
CONTINUOUS
70
0
71
3
72
11
73
7
74
5
42
0.0000001000
43
0.0000001000
44
0.0000000001
12
0.0000000000
22
0.5000000000
32
0.0000000000
13
-0.0000000000
23
0.5000000000
33
0.0000000000
40
0.0000000000
40
0.0000000000
40
0.0000000000
40
0.0000000000
40
0.0659139139
40
0.2655420826
40
0.5882202146
40
1.0000000000
40
1.0000000000
40
1.0000000000
40
1.0000000000
10
75.0593029944
20
249.9236041198
30
0.0000000000
10
75.0593029944
20
249.9345897721
30
0.0000000000
10
75.0593029944
20
249.9788467859
30
0.0000000000
10
75.0593029944
20
250.0768834883
30
0.0000000000
10
75.0593029944
20
250.2325645027
30
0.0000000000
10
75.0593029944
20
250.3549741556
30
0.0000000000
10
75.0593029944
20
250.4236041198
30
0.0000000000
11
75.0593029944
21
249.9236041198
31
0.0000000000
11
75.0593029944
21
249.9565610767
31
0.0000000000
11
75.0593029944
21
250.0563751611
31
0.0000000000
11
75.0593029944
21
250.2177142271
31
0.0000000000
11
75.0593029944
21
250.4236041198
31
0.0000000000
0
SPLINE
5
3C9
100
AcDbEntity
8
0
100
AcDbSpline
62
7
6
CONTINUOUS
70
0
71
3
72
19
73
15
74
13
42
0.0000001000
43
0.0000001000
44
0.0000000001
12
0.7960972238
22
-0.8614281832
32
0.0000000000
13
0.7841542419
23
-0.8723138349
33
0.0000000000
40
0.0000000000
40
0.0000000000
40
0.0000000000
40
0.0000000000
40
0.0066086918
40
0.0288373315
40
0.0695226382
40
0.1300763337
40
0.2100668838
40
0.3070913489
40
0.4172301691
40
0.5359382894
40
0.6584427401
40
0.7798331698
40
0.8952270173
40
1.0000000000
40
1.0000000000
40
1.0000000000
40
1.0000000000
10
45.2077869359
20
265.1010016388
30
0.0000000000
10
45.2095406564
20
265.0991040010
30
0.0000000000
10
45.2171918729
20
265.0908224404
30
0.0000000000
10
45.2356257426
20
265.0708456110
30
0.0000000000
10
45.2683261075
20
265.0353339861
30
0.0000000000
10
45.3162892226
20
264.9831763139
30
0.0000000000
10
45.3791181169
20
264.9147632957
30
0.0000000000
10
45.4549768499
20
264.8319943195
30
0.0000000000
10
45.5409406657
20
264.7379527190
30
0.0000000000
10
45.6334748697
20
264.6364200057
30
0.0000000000
10
45.7288079593
20
264.5314862206
30
0.0000000000
10
45.8231060076
20
264.4273630866
30
0.0000000000
10
45.9125981387
20
264.3282410232
30
0.0000000000
10
45.9701972486
20
264.2642685421
30
0.0000000000
10
45.9975833082
20
264.2338035680
30
0.0000000000
11
45.2077869359
21
265.1010016388
31
0.0000000000
11
45.2130472727
21
265.0953079636
31
0.0000000000
11
45.2307296206
21
265.0761468330
31
0.0000000000
11
45.2630607708
21
265.0410455659
31
0.0000000000
11
45.3111402844
21
264.9887657178
31
0.0000000000
11
45.3746026797
21
264.9196589033
31
0.0000000000
11
45.4514952036
21
264.8357586738
31
0.0000000000
11
45.5386573088
21
264.7404048752
31
0.0000000000
11
45.6324485544
21
264.6374929568
31
0.0000000000
11
45.7290728189
21
264.5311384072
31
0.0000000000
11
45.8246521324
21
264.4256001903
31
0.0000000000
11
45.9153569629
21
264.3251371671
31
0.0000000000
11
45.9975833082
21
264.2338035680
31
0.0000000000
0
ENDSEC
0
SECTION
2
OBJECTS
0
DICTIONARY
5
C
100
AcDbDictionary
280
0
281
1
3
ACAD_GROUP
350
D
3
ACAD_MLINESTYLE
350
17
3
ACAD_LAYOUT
350
1A
3
ACAD_PLOTSETTINGS
350
19
3
ACAD_PLOTSTYLENAME
350
E
0
DICTIONARY
5
D
102
{ACAD_REACTORS
330
C
102
}
100
AcDbDictionary
280
0
281
1
0
ACDBDICTIONARYWDFLT
5
E
102
{ACAD_REACTORS
330
C
102
}
100
AcDbDictionary
281
1
3
Normal
350
F
100
AcDbDictionaryWithDefault
340
F
0
DICTIONARY
5
17
102
{ACAD_REACTORS
330
C
102
}
100
AcDbDictionary
280
0
281
1
3
Standard
350
18
0
DICTIONARY
5
19
102
{ACAD_REACTORS
330
C
102
}
100
AcDbDictionary
281
1
0
DICTIONARY
5
1A
102
{ACAD_REACTORS
330
C
102
}
100
AcDbDictionary
281
1
3
Layout1
350
1E
3
Model
350
22
0
ACDBPLACEHOLDER
5
F
102
{ACAD_REACTORS
330
E
102
}
0
MLINESTYLE
5
18
102
{ACAD_REACTORS
330
17
102
}
100
AcDbMlineStyle
2
STANDARD
70
0
3

62
256
51
90.0
52
90.0
71
2
49
0.5
62
256
6
BYLAYER
49
-0.5
62
256
6
BYLAYER
0
LAYOUT
5
1E
102
{ACAD_REACTORS
330
1A
102
}
100
AcDbPlotSettings
1

2

4

6

40
0.0
41
0.0
42
0.0
43
0.0
44
0.0
45
0.0
46
0.0
47
0.0
48
0.0
49
0.0
140
0.0
141
0.0
142
1.0
143
1.0
70
0
72
0
73
0
74
0
7

75
0
147
1.0
148
0.0
149
0.0
100
AcDbLayout
1
Layout1
70
0
71
0
10
0.0
20
0.0
11
0.0
21
0.0
12
0.0
22
0.0
32
0.0
14
0.0
24
0.0
34
0.0
15
0.0
25
0.0
35
0.0
146
0.0
13
0.0
23
0.0
33
0.0
16
0.0
26
0.0
36
0.0
17
0.0
27
0.0
37
0.0
76
0
330
1B
331
0
345
0
346
0
0
LAYOUT
5
22
102
{ACAD_REACTORS
330
1A
102
}
100
AcDbPlotSettings
1

2

4

6

40
0.0
41
0.0
42
0.0
43
0.0
44
0.0
45
0.0
46
0.0
47
0.0
48
0.0
49
0.0
140
0.0
141
0.0
142
1.0
143
1.0
70
0
72
0
73
0
74
0
7

75
0
147
1.0
148
0.0
149
0.0
100
AcDbLayout
1
Model
70
0
71
0
10
0.0
20
0.0
11
0.0
21
0.0
12
0.0
22
0.0
32
0.0
14
0.0
24
0.0
34
0.0
15
0.0
25
0.0
35
0.0
146
0.0
13
0.0
23
0.0
33
0.0
16
0.0
26
0.0
36
0.0
17
0.0
27
0.0
37
0.0
76
0
330
1F
331
0
345
0
346
0
0
ENDSEC
0
EOF
