999
DXF file: s0672-687412.dxf
999
Pro/ENGINEER 2005310 by Parametric Technology Corporation
0
SECTION
2
HEADER
9
$ACADVER
1
AC1015
9
$DWGCODEPAGE
3
ANSI_1252
9
$EXTMAX
10
210.0000000000
20
297.0000000000
30
0.0000000000
9
$EXTMIN
10
0.0000000000
20
0.0000000000
30
0.0000000000
9
$LIMMIN
10
0.0000000000
20
0.0000000000
9
$LIMMAX
10
210.0000000000
20
297.0000000000
9
$VIEWCTR
10
105.0000000000
20
148.5000000000
9
$VIEWSIZE
40
297.0000000000
9
$CLAYER
8
0
9
$LTSCALE
40
19.3600000000
9
$CELTYPE
6
BYLAYER
9
$DIMSCALE
40
1
9
$DIMASZ
40
3.5000000000
9
$DIMEXO
40
2.2000000000
9
$DIMDLI
40
13.3760000000
9
$DIMEXE
40
6.3360000000
9
$DIMCEN
40
3.1680000000
9
$DIMLFAC
40
1.0000000000
9
$DIMBLK
1
_FILLED
9
$DIMTXT
40
3.5000000000
9
$DIMTOL
70
1
9
$DIMLIM
70
0
9
$DIMTFAC
40
1.0000000000
9
$DIMTP
40
0.0010000000
9
$DIMTM
40
0.0010000000
9
$PDMODE
70
3
9
$PDSIZE
40
0.3125000000
9
$HANDSEED
5
39D
9
$MEASUREMENT
70
1
9
$INSUNITS
70
4
0
ENDSEC
0
SECTION
2
CLASSES
0
CLASS
1
ACDBDICTIONARYWDFLT
2
AcDbDictionaryWithDefault
3
AutoCAD 2000
90
0
280
0
281
0
0
CLASS
1
ACDBPLACEHOLDER
2
AcDbPlaceHolder
3
AutoCAD 2000
90
0
280
0
281
0
0
CLASS
1
LAYOUT
2
AcDbLayout
3
AutoCAD 2000
90
0
280
0
281
0
0
ENDSEC
0
SECTION
2
TABLES
0
TABLE
2
VPORT
5
8
100
AcDbSymbolTable
70
2
0
VPORT
5
1F4
100
AcDbSymbolTableRecord
100
AcDbViewportTableRecord
2
*ACTIVE
70
0
10
0.0
20
0.0
11
1.0
21
1.0
12
105.0000000000
22
148.5000000000
13
0.0
23
0.0
14
1.0
24
1.0
15
0.0
25
0.0
16
0.0
26
0.0
36
1.0
17
0.0
27
0.0
37
0.0
40
297.0000000000
41
0.7070707071
42
50.0
43
0.0
44
0.0
50
0.0
51
0.0
71
0
72
100
73
1
74
1
75
0
76
0
77
0
78
0
0
ENDTAB
0
TABLE
2
LTYPE
5
5
100
AcDbSymbolTable
70
6
0
LTYPE
5
14
100
AcDbSymbolTableRecord
100
AcDbLinetypeTableRecord
2
BYBLOCK
70
0
3

72
65
73
0
40
0.0
0
LTYPE
5
15
100
AcDbSymbolTableRecord
100
AcDbLinetypeTableRecord
2
BYLAYER
70
0
3

72
65
73
0
40
0.0
0
LTYPE
5
16
100
AcDbSymbolTableRecord
100
AcDbLinetypeTableRecord
2
CONTINUOUS
70
64
3
Solid line
72
65
73
0
40
0
0
LTYPE
5
1F5
100
AcDbSymbolTableRecord
100
AcDbLinetypeTableRecord
2
CENTER
70
64
3
____ _ ____ _ ____ _ ____ _ ____ _ ____ _ ____
72
65
73
4
40
0.6
49
0.375
74
0
49
-0.075
74
0
49
0.075
74
0
49
-0.075
74
0
0
LTYPE
5
1F6
100
AcDbSymbolTableRecord
100
AcDbLinetypeTableRecord
2
HIDDEN
70
64
3
- - - - - - - - - - - - - - - - - - - -
72
65
73
2
40
0.2
49
0.1
74
0
49
-0.1
74
0
0
LTYPE
5
1F7
100
AcDbSymbolTableRecord
100
AcDbLinetypeTableRecord
2
PHANTOM
70
64
3
_____ _ _ _____ _ _ _____ _ _ _____
72
65
73
6
40
0.8
49
0.45
74
0
49
-0.05
74
0
49
0.1
74
0
49
-0.05
74
0
49
0.1
74
0
49
-0.05
74
0
0
LTYPE
5
1F8
100
AcDbSymbolTableRecord
100
AcDbLinetypeTableRecord
2
DOT
70
64
3
. . . . . . . . . . . . . . . . . . . .
72
65
73
2
40
0.2
49
0.1
74
0
49
-0.1
74
0
0
LTYPE
5
1F9
100
AcDbSymbolTableRecord
100
AcDbLinetypeTableRecord
2
DASHED
70
64
3
- - - - - - - - - - - - - - - - - - - -
72
65
73
2
40
0.2
49
0.1
74
0
49
-0.1
74
0
0
ENDTAB
0
TABLE
2
LAYER
5
2
100
AcDbSymbolTable
70
36
0
LAYER
5
10
100
AcDbSymbolTableRecord
100
AcDbLayerTableRecord
2
0
70
0
62
7
6
CONTINUOUS
370
-3
390
F
0
LAYER
5
1FA
100
AcDbSymbolTableRecord
100
AcDbLayerTableRecord
2
DEFAULT_1
70
0
62
7
6
CENTER
370
-3
390
F
0
LAYER
5
1FB
100
AcDbSymbolTableRecord
100
AcDbLayerTableRecord
2
DEFAULT_2
70
0
62
8
6
HIDDEN
370
-3
390
F
0
LAYER
5
1FC
100
AcDbSymbolTableRecord
100
AcDbLayerTableRecord
2
DEFAULT_3
70
0
62
7
6
PHANTOM
370
-3
390
F
0
LAYER
5
1FD
100
AcDbSymbolTableRecord
100
AcDbLayerTableRecord
2
_2D_DELETED_OBJS
70
0
62
7
6
CONTINUOUS
370
-3
390
F
0
LAYER
5
1FE
100
AcDbSymbolTableRecord
100
AcDbLayerTableRecord
2
ASSI
70
0
62
7
6
CONTINUOUS
370
-3
390
F
0
LAYER
5
1FF
100
AcDbSymbolTableRecord
100
AcDbLayerTableRecord
2
PIANI
70
0
62
7
6
CONTINUOUS
370
-3
390
F
0
LAYER
5
200
100
AcDbSymbolTableRecord
100
AcDbLayerTableRecord
2
SURF_FILETTI
70
0
62
7
6
CONTINUOUS
370
-3
390
F
0
ENDTAB
0
TABLE
2
STYLE
5
3
100
AcDbSymbolTable
70
1
0
STYLE
5
11
100
AcDbSymbolTableRecord
100
AcDbTextStyleTableRecord
2
STANDARD
70
0
40
0.0
41
0.7143000000
50
0.0
71
0
42
0.2
3
txt
4

0
ENDTAB
0
TABLE
2
VIEW
5
6
100
AcDbSymbolTable
70
0
0
ENDTAB
0
TABLE
2
UCS
5
7
100
AcDbSymbolTable
70
0
0
ENDTAB
0
TABLE
2
APPID
5
9
100
AcDbSymbolTable
70
1
0
APPID
5
201
100
AcDbSymbolTableRecord
100
AcDbRegAppTableRecord
2
ACAD
70
0
0
ENDTAB
0
TABLE
2
BLOCK_RECORD
5
1
100
AcDbSymbolTable
70
0
0
BLOCK_RECORD
5
1F
100
AcDbSymbolTableRecord
100
AcDbBlockTableRecord
2
*MODEL_SPACE
0
BLOCK_RECORD
5
1B
100
AcDbSymbolTableRecord
100
AcDbBlockTableRecord
2
*PAPER_SPACE
0
ENDTAB
0
TABLE
2
DIMSTYLE
5
A
100
AcDbSymbolTable
70
1
100
AcDbDimStyleTable
71
0
0
DIMSTYLE
105
202
100
AcDbSymbolTableRecord
100
AcDbDimStyleTableRecord
2
STANDARD
70
0
3

4

40
1.0
41
3.5000000000
42
0.0625
43
0.38
44
0.18
45
0.0
46
0.0
47
0.0010000000
48
0.0010000000
140
3.5000000000
141
0.09
142
0.0
143
25.4
144
1.0000000000
145
0.0
146
1.0000000000
147
0.09
71
1
72
0
73
0
74
0
75
0
76
0
77
1
78
8
170
0
171
2
172
0
173
0
174
0
175
0
176
0
177
0
178
0
270
2
271
3
272
3
273
2
274
2
275
0
280
0
281
0
282
0
283
1
284
8
285
0
286
0
287
3
288
0
340
11
0
ENDTAB
0
ENDSEC
0
SECTION
2
BLOCKS
0
BLOCK
5
20
100
AcDbEntity
8
0
100
AcDbBlockBegin
2
*MODEL_SPACE
70
0
10
0.0
20
0.0
30
0.0
3
*MODEL_SPACE
1

0
ENDBLK
5
21
100
AcDbEntity
8
0
100
AcDbBlockEnd
0
BLOCK
5
1C
100
AcDbEntity
8
0
100
AcDbBlockBegin
2
*PAPER_SPACE
70
0
10
0.0
20
0.0
30
0.0
3
*PAPER_SPACE
1

0
ENDBLK
5
1D
100
AcDbEntity
8
0
100
AcDbBlockEnd
0
ENDSEC
0
SECTION
2
ENTITIES
0
LINE
5
203
100
AcDbEntity
8
0
100
AcDbLine
62
7
6
CONTINUOUS
10
66.0093029517
20
117.5642131711
11
68.9093029517
21
117.5642131711
0
LINE
5
204
100
AcDbEntity
8
0
100
AcDbLine
62
7
6
CONTINUOUS
10
78.6093029517
20
117.5642131711
11
81.5093029517
21
117.5642131711
0
LINE
5
205
100
AcDbEntity
8
0
100
AcDbLine
62
7
6
CONTINUOUS
10
86.6593029517
20
117.6642131711
11
45.9975832655
21
117.6642131711
0
LINE
5
206
100
AcDbEntity
8
0
100
AcDbLine
62
7
6
CONTINUOUS
10
87.1593029517
20
118.6642131711
11
85.4373073073
21
118.6642131711
0
LINE
5
207
100
AcDbEntity
8
0
100
AcDbLine
62
7
6
CONTINUOUS
10
84.1714806357
20
118.6642131711
11
44.8026182160
21
118.6642124952
0
LINE
5
208
100
AcDbEntity
8
0
100
AcDbLine
62
7
6
CONTINUOUS
10
87.1593029517
20
119.1501391677
11
86.8066105927
21
119.1501391677
0
LINE
5
209
100
AcDbEntity
8
0
100
AcDbLine
62
7
6
CONTINUOUS
10
84.1593029517
20
119.4863764717
11
83.7296875158
21
119.4863764711
0
LINE
5
20A
100
AcDbEntity
8
0
100
AcDbLine
62
7
6
CONTINUOUS
10
59.7611565489
20
122.0642131711
11
65.9154614598
21
122.0642131711
0
LINE
5
20B
100
AcDbEntity
8
0
100
AcDbLine
62
7
6
CONTINUOUS
10
68.6406290197
20
122.0642131711
11
77.4135516407
21
122.0642131711
0
LINE
5
20C
100
AcDbEntity
8
0
100
AcDbLine
62
7
6
CONTINUOUS
10
84.1593029517
20
122.2420498705
11
83.7296875158
21
122.2420498705
0
LINE
5
20D
100
AcDbEntity
8
0
100
AcDbLine
62
7
6
CONTINUOUS
10
65.9412672007
20
122.5642131711
11
59.8074766395
21
122.5642131711
0
LINE
5
20E
100
AcDbEntity
8
0
100
AcDbLine
62
7
6
CONTINUOUS
10
68.6573508687
20
122.5642131711
11
77.4135528837
21
122.5642131711
0
LINE
5
20F
100
AcDbEntity
8
0
100
AcDbLine
62
7
6
CONTINUOUS
10
63.9593029517
20
123.0642131711
11
70.9593029517
21
123.0642131711
0
LINE
5
210
100
AcDbEntity
8
0
100
AcDbLine
62
7
6
CONTINUOUS
10
76.5593029517
20
123.0642131711
11
80.0593110627
21
123.0642131711
0
LINE
5
211
100
AcDbEntity
8
0
100
AcDbLine
62
7
6
CONTINUOUS
10
59.9593029517
20
123.5642131711
11
56.6185298747
21
123.5642131711
0
LINE
5
212
100
AcDbEntity
8
0
100
AcDbLine
62
7
6
CONTINUOUS
10
63.9593029517
20
123.5642131711
11
70.9593029517
21
123.5642131711
0
LINE
5
213
100
AcDbEntity
8
0
100
AcDbLine
62
7
6
CONTINUOUS
10
76.5593029517
20
123.5642131711
11
87.1593029517
21
123.5642131711
0
LINE
5
214
100
AcDbEntity
8
0
100
AcDbLine
62
7
6
CONTINUOUS
10
64.4593029517
20
124.0642131711
11
70.4593029517
21
124.0642131711
0
LINE
5
215
100
AcDbEntity
8
0
100
AcDbLine
62
7
6
CONTINUOUS
10
77.0593029517
20
124.0642131711
11
86.6593029517
21
124.0642131711
0
LINE
5
216
100
AcDbEntity
8
0
100
AcDbLine
62
7
6
CONTINUOUS
10
63.7093029517
20
125.7642131711
11
71.2093029517
21
125.7642131711
0
LINE
5
217
100
AcDbEntity
8
0
100
AcDbLine
62
7
6
CONTINUOUS
10
76.3093029517
20
125.7642131711
11
83.8093029517
21
125.7642131711
0
LINE
5
218
100
AcDbEntity
8
0
100
AcDbLine
62
7
6
CONTINUOUS
10
61.9593029517
20
126.1142131711
11
72.9593029517
21
126.1142131711
0
LINE
5
219
100
AcDbEntity
8
0
100
AcDbLine
62
7
6
CONTINUOUS
10
74.5593029517
20
126.1142131711
11
85.5593029517
21
126.1142131711
0
LINE
5
21A
100
AcDbEntity
8
0
100
AcDbLine
62
7
6
CONTINUOUS
10
85.8277069804
20
200.2619042483
11
87.6882928801
21
200.9391021341
0
LINE
5
21B
100
AcDbEntity
8
0
100
AcDbLine
62
7
6
CONTINUOUS
10
85.9987170521
20
199.7920579379
11
87.8593029517
21
200.4692558237
0
LINE
5
21C
100
AcDbEntity
8
0
100
AcDbLine
62
7
6
CONTINUOUS
10
87.1593029517
20
130.3501391677
11
86.6593029517
21
130.3501391677
0
LINE
5
21D
100
AcDbEntity
8
0
100
AcDbLine
62
7
6
CONTINUOUS
10
86.4882928801
20
122.1084408641
11
84.8303130234
21
122.7118961809
0
LWPOLYLINE
5
21E
100
AcDbEntity
8
0
100
AcDbPolyline
62
7
6
CONTINUOUS
90
14
70
0
10
44.8026200408
20
118.6642124946
10
44.8036157650
20
118.6229063687
10
44.8205335601
20
118.4897344064
10
44.8584897930
20
118.3587925323
10
44.9169627670
20
118.2332942234
10
44.9949378235
20
118.1158150935
10
45.0918337322
20
118.0077698718
10
45.2050617582
20
117.9122511129
10
45.3328375902
20
117.8305690154
10
45.4732148516
20
117.7639314172
10
45.6248975380
20
117.7132314487
10
45.7863761546
20
117.6796893848
10
45.9561495996
20
117.6648045626
10
45.9971190459
20
117.6642133513
0
LINE
5
21F
100
AcDbEntity
8
0
100
AcDbLine
62
7
6
CONTINUOUS
10
61.9593029517
20
135.1142131711
11
72.9593029517
21
135.1142131711
0
LINE
5
220
100
AcDbEntity
8
0
100
AcDbLine
62
7
6
CONTINUOUS
10
74.5593029517
20
135.1142131711
11
85.5593029517
21
135.1142131711
0
LINE
5
221
100
AcDbEntity
8
0
100
AcDbLine
62
7
6
CONTINUOUS
10
63.7093029517
20
135.4642131711
11
71.2093029517
21
135.4642131711
0
LINE
5
222
100
AcDbEntity
8
0
100
AcDbLine
62
7
6
CONTINUOUS
10
76.3093029517
20
135.4642131711
11
83.8093029517
21
135.4642131711
0
LINE
5
223
100
AcDbEntity
8
0
100
AcDbLine
62
7
6
CONTINUOUS
10
61.9593029517
20
135.8142131711
11
72.9593029517
21
135.8142131711
0
LINE
5
224
100
AcDbEntity
8
0
100
AcDbLine
62
7
6
CONTINUOUS
10
74.5593029517
20
135.8142131711
11
85.5593029517
21
135.8142131711
0
LINE
5
225
100
AcDbEntity
8
0
100
AcDbLine
62
7
6
CONTINUOUS
10
44.8026182160
20
201.6642131711
11
44.8026182160
21
118.6642125144
0
LINE
5
226
100
AcDbEntity
8
0
100
AcDbLine
62
7
6
CONTINUOUS
10
45.2077868933
20
201.6642131711
11
45.2077868933
21
118.6642131711
0
LINE
5
227
100
AcDbEntity
8
0
100
AcDbLine
62
7
6
CONTINUOUS
10
85.8277069804
20
189.2795518735
11
86.4882928801
21
189.5199854781
0
LINE
5
228
100
AcDbEntity
8
0
100
AcDbLine
62
7
6
CONTINUOUS
10
85.9987170521
20
188.8097055631
11
86.6593029517
21
189.0501391677
0
LINE
5
229
100
AcDbEntity
8
0
100
AcDbLine
62
7
6
CONTINUOUS
10
61.9593029517
20
144.8142131711
11
72.9593029517
21
144.8142131711
0
LINE
5
22A
100
AcDbEntity
8
0
100
AcDbLine
62
7
6
CONTINUOUS
10
74.5593029517
20
144.8142131711
11
85.5593029517
21
144.8142131711
0
LINE
5
22B
100
AcDbEntity
8
0
100
AcDbLine
62
7
6
CONTINUOUS
10
63.7093029517
20
145.1642131711
11
71.2093029517
21
145.1642131711
0
LINE
5
22C
100
AcDbEntity
8
0
100
AcDbLine
62
7
6
CONTINUOUS
10
76.3093029517
20
145.1642131711
11
83.8093029517
21
145.1642131711
0
LINE
5
22D
100
AcDbEntity
8
0
100
AcDbLine
62
7
6
CONTINUOUS
10
61.9593029517
20
145.5142131711
11
72.9593029517
21
145.5142131711
0
LINE
5
22E
100
AcDbEntity
8
0
100
AcDbLine
62
7
6
CONTINUOUS
10
74.5593029517
20
145.5142131711
11
85.5593029517
21
145.5142131711
0
LINE
5
22F
100
AcDbEntity
8
0
100
AcDbLine
62
7
6
CONTINUOUS
10
56.6185129040
20
196.7642131711
11
56.6185298747
21
123.5642131711
0
LINE
5
230
100
AcDbEntity
8
0
100
AcDbLine
62
7
6
CONTINUOUS
10
59.9593029517
20
196.7642131711
11
59.9593029517
21
123.5642131711
0
LINE
5
231
100
AcDbEntity
8
0
100
AcDbLine
62
7
6
CONTINUOUS
10
79.2047814794
20
197.4727460463
11
79.3143049534
21
197.6812706008
0
LINE
5
232
100
AcDbEntity
8
0
100
AcDbLine
62
7
6
CONTINUOUS
10
87.1593029517
20
152.3782871745
11
86.6593029517
21
152.3782871745
0
LINE
5
233
100
AcDbEntity
8
0
100
AcDbLine
62
7
6
CONTINUOUS
10
61.9593029517
20
193.3142131711
11
61.9593029517
21
184.3142131711
0
LINE
5
234
100
AcDbEntity
8
0
100
AcDbLine
62
7
6
CONTINUOUS
10
61.9593029517
20
183.6142131711
11
61.9593029517
21
174.6142131711
0
LINE
5
235
100
AcDbEntity
8
0
100
AcDbLine
62
7
6
CONTINUOUS
10
61.9593029517
20
173.9142131711
11
61.9593029517
21
164.9142131711
0
LINE
5
236
100
AcDbEntity
8
0
100
AcDbLine
62
7
6
CONTINUOUS
10
61.9593029517
20
164.2142131711
11
61.9593029517
21
155.2142131711
0
LINE
5
237
100
AcDbEntity
8
0
100
AcDbLine
62
7
6
CONTINUOUS
10
61.9593029517
20
154.5142131711
11
61.9593029517
21
145.5142131711
0
LINE
5
238
100
AcDbEntity
8
0
100
AcDbLine
62
7
6
CONTINUOUS
10
61.9593029517
20
144.8142131711
11
61.9593029517
21
135.8142131711
0
LINE
5
239
100
AcDbEntity
8
0
100
AcDbLine
62
7
6
CONTINUOUS
10
61.9593029517
20
135.1142131711
11
61.9593029517
21
126.1142131711
0
LINE
5
23A
100
AcDbEntity
8
0
100
AcDbLine
62
7
6
CONTINUOUS
10
63.7093029517
20
193.6642131711
11
63.7093029517
21
193.3142131711
0
LINE
5
23B
100
AcDbEntity
8
0
100
AcDbLine
62
7
6
CONTINUOUS
10
63.7093029517
20
184.3142131711
11
63.7093029517
21
183.6142131711
0
LINE
5
23C
100
AcDbEntity
8
0
100
AcDbLine
62
7
6
CONTINUOUS
10
63.7093029517
20
174.6142131711
11
63.7093029517
21
173.9142131711
0
LINE
5
23D
100
AcDbEntity
8
0
100
AcDbLine
62
7
6
CONTINUOUS
10
63.7093029517
20
164.9142131711
11
63.7093029517
21
164.2142131711
0
LINE
5
23E
100
AcDbEntity
8
0
100
AcDbLine
62
7
6
CONTINUOUS
10
63.7093029517
20
155.2142131711
11
63.7093029517
21
154.5142131711
0
LINE
5
23F
100
AcDbEntity
8
0
100
AcDbLine
62
7
6
CONTINUOUS
10
63.7093029517
20
145.5142131711
11
63.7093029517
21
144.8142131711
0
LINE
5
240
100
AcDbEntity
8
0
100
AcDbLine
62
7
6
CONTINUOUS
10
63.7093029517
20
135.8142131711
11
63.7093029517
21
135.1142131711
0
LINE
5
241
100
AcDbEntity
8
0
100
AcDbLine
62
7
6
CONTINUOUS
10
63.7093029517
20
126.1142131711
11
63.7093029517
21
125.7642131711
0
LINE
5
242
100
AcDbEntity
8
0
100
AcDbLine
62
7
6
CONTINUOUS
10
61.9593029517
20
154.5142131711
11
72.9593029517
21
154.5142131711
0
LINE
5
243
100
AcDbEntity
8
0
100
AcDbLine
62
7
6
CONTINUOUS
10
74.5593029517
20
154.5142131711
11
85.5593029517
21
154.5142131711
0
LINE
5
244
100
AcDbEntity
8
0
100
AcDbLine
62
7
6
CONTINUOUS
10
63.7093029517
20
154.8642131711
11
71.2093029517
21
154.8642131711
0
LINE
5
245
100
AcDbEntity
8
0
100
AcDbLine
62
7
6
CONTINUOUS
10
76.3093029517
20
154.8642131711
11
83.8093029517
21
154.8642131711
0
LINE
5
246
100
AcDbEntity
8
0
100
AcDbLine
62
7
6
CONTINUOUS
10
61.9593029517
20
155.2142131711
11
72.9593029517
21
155.2142131711
0
LINE
5
247
100
AcDbEntity
8
0
100
AcDbLine
62
7
6
CONTINUOUS
10
74.5593029517
20
155.2142131711
11
85.5593029517
21
155.2142131711
0
LINE
5
248
100
AcDbEntity
8
0
100
AcDbLine
62
7
6
CONTINUOUS
10
65.2443029517
20
195.5642131711
11
65.2141299514
21
196.2676373074
0
LINE
5
249
100
AcDbEntity
8
0
100
AcDbLine
62
7
6
CONTINUOUS
10
63.9593029517
20
197.2642131711
11
63.9593029517
21
196.7642131711
0
LINE
5
24A
100
AcDbEntity
8
0
100
AcDbLine
62
7
6
CONTINUOUS
10
63.9593029517
20
123.0642131711
11
63.9593029517
21
123.5642131711
0
LINE
5
24B
100
AcDbEntity
8
0
100
AcDbLine
62
7
6
CONTINUOUS
10
64.5105236157
20
124.0642131711
11
64.5105236157
21
125.7642131711
0
LINE
5
24C
100
AcDbEntity
8
0
100
AcDbLine
62
7
6
CONTINUOUS
10
64.5105236157
20
193.6642131711
11
64.5105236157
21
196.2642131711
0
LINE
5
24D
100
AcDbEntity
8
0
100
AcDbLine
62
7
6
CONTINUOUS
10
64.9593029517
20
124.0642131711
11
64.9593029517
21
125.7642131711
0
LINE
5
24E
100
AcDbEntity
8
0
100
AcDbLine
62
7
6
CONTINUOUS
10
64.9593029517
20
193.6642131711
11
64.9593029517
21
195.5642131711
0
LINE
5
24F
100
AcDbEntity
8
0
100
AcDbLine
62
7
6
CONTINUOUS
10
85.7593029517
20
159.6642131711
11
87.1593029517
21
159.6642131711
0
LINE
5
250
100
AcDbEntity
8
0
100
AcDbLine
62
7
6
CONTINUOUS
10
85.7593029517
20
160.1642131711
11
86.6593029517
21
160.1642131711
0
LINE
5
251
100
AcDbEntity
8
0
100
AcDbLine
62
7
6
CONTINUOUS
10
86.4882928801
20
151.9084408641
11
85.8277069804
21
152.1488744687
0
LINE
5
252
100
AcDbEntity
8
0
100
AcDbLine
62
7
6
CONTINUOUS
10
86.6593029517
20
152.3782871745
11
85.9987170521
21
152.6187207791
0
LINE
5
253
100
AcDbEntity
8
0
100
AcDbLine
62
7
6
CONTINUOUS
10
69.9593029517
20
124.0642131711
11
69.9593029517
21
125.7642131711
0
LINE
5
254
100
AcDbEntity
8
0
100
AcDbLine
62
7
6
CONTINUOUS
10
69.9593029517
20
193.6642131711
11
69.9593029517
21
195.5642131711
0
LINE
5
255
100
AcDbEntity
8
0
100
AcDbLine
62
7
6
CONTINUOUS
10
69.6743029517
20
195.5642131711
11
69.7044759521
21
196.2676373074
0
LINE
5
256
100
AcDbEntity
8
0
100
AcDbLine
62
7
6
CONTINUOUS
10
70.9593029517
20
197.2642131711
11
70.9593029517
21
196.7642131711
0
LINE
5
257
100
AcDbEntity
8
0
100
AcDbLine
62
7
6
CONTINUOUS
10
70.9593029517
20
123.0642131711
11
70.9593029517
21
123.5642131711
0
LINE
5
258
100
AcDbEntity
8
0
100
AcDbLine
62
7
6
CONTINUOUS
10
71.2093029517
20
193.6642131711
11
71.2093029517
21
193.3142131711
0
LINE
5
259
100
AcDbEntity
8
0
100
AcDbLine
62
7
6
CONTINUOUS
10
71.2093029517
20
184.3142131711
11
71.2093029517
21
183.6142131711
0
LINE
5
25A
100
AcDbEntity
8
0
100
AcDbLine
62
7
6
CONTINUOUS
10
71.2093029517
20
174.6142131711
11
71.2093029517
21
173.9142131711
0
LINE
5
25B
100
AcDbEntity
8
0
100
AcDbLine
62
7
6
CONTINUOUS
10
71.2093029517
20
164.9142131711
11
71.2093029517
21
164.2142131711
0
LINE
5
25C
100
AcDbEntity
8
0
100
AcDbLine
62
7
6
CONTINUOUS
10
71.2093029517
20
155.2142131711
11
71.2093029517
21
154.5142131711
0
LINE
5
25D
100
AcDbEntity
8
0
100
AcDbLine
62
7
6
CONTINUOUS
10
71.2093029517
20
145.5142131711
11
71.2093029517
21
144.8142131711
0
LINE
5
25E
100
AcDbEntity
8
0
100
AcDbLine
62
7
6
CONTINUOUS
10
71.2093029517
20
135.8142131711
11
71.2093029517
21
135.1142131711
0
LINE
5
25F
100
AcDbEntity
8
0
100
AcDbLine
62
7
6
CONTINUOUS
10
71.2093029517
20
126.1142131711
11
71.2093029517
21
125.7642131711
0
LINE
5
260
100
AcDbEntity
8
0
100
AcDbLine
62
7
6
CONTINUOUS
10
72.0593029517
20
194.4642131711
11
72.0593029517
21
193.4642131711
0
LINE
5
261
100
AcDbEntity
8
0
100
AcDbLine
62
7
6
CONTINUOUS
10
72.0593029517
20
125.8642131711
11
72.0593029517
21
126.1142131711
0
LINE
5
262
100
AcDbEntity
8
0
100
AcDbLine
62
7
6
CONTINUOUS
10
72.9593029517
20
193.3142131711
11
72.9593029517
21
184.3142131711
0
LINE
5
263
100
AcDbEntity
8
0
100
AcDbLine
62
7
6
CONTINUOUS
10
72.9593029517
20
183.6142131711
11
72.9593029517
21
174.6142131711
0
LINE
5
264
100
AcDbEntity
8
0
100
AcDbLine
62
7
6
CONTINUOUS
10
72.9593029517
20
173.9142131711
11
72.9593029517
21
164.9142131711
0
LINE
5
265
100
AcDbEntity
8
0
100
AcDbLine
62
7
6
CONTINUOUS
10
72.9593029517
20
164.2142131711
11
72.9593029517
21
155.2142131711
0
LINE
5
266
100
AcDbEntity
8
0
100
AcDbLine
62
7
6
CONTINUOUS
10
72.9593029517
20
154.5142131711
11
72.9593029517
21
145.5142131711
0
LINE
5
267
100
AcDbEntity
8
0
100
AcDbLine
62
7
6
CONTINUOUS
10
72.9593029517
20
144.8142131711
11
72.9593029517
21
135.8142131711
0
LINE
5
268
100
AcDbEntity
8
0
100
AcDbLine
62
7
6
CONTINUOUS
10
72.9593029517
20
135.1142131711
11
72.9593029517
21
126.1142131711
0
LINE
5
269
100
AcDbEntity
8
0
100
AcDbLine
62
7
6
CONTINUOUS
10
85.8277069804
20
198.6665220939
11
85.9987170520
21
199.1363684043
0
LINE
5
26A
100
AcDbEntity
8
0
100
AcDbLine
62
7
6
CONTINUOUS
10
61.9593029517
20
164.2142131711
11
72.9593029517
21
164.2142131711
0
LINE
5
26B
100
AcDbEntity
8
0
100
AcDbLine
62
7
6
CONTINUOUS
10
74.5593029517
20
164.2142131711
11
85.5593029517
21
164.2142131711
0
LINE
5
26C
100
AcDbEntity
8
0
100
AcDbLine
62
7
6
CONTINUOUS
10
63.7093029517
20
164.5642131711
11
71.2093029517
21
164.5642131711
0
LINE
5
26D
100
AcDbEntity
8
0
100
AcDbLine
62
7
6
CONTINUOUS
10
76.3093029517
20
164.5642131711
11
83.8093029517
21
164.5642131711
0
LINE
5
26E
100
AcDbEntity
8
0
100
AcDbLine
62
7
6
CONTINUOUS
10
61.9593029517
20
164.9142131711
11
72.9593029517
21
164.9142131711
0
LINE
5
26F
100
AcDbEntity
8
0
100
AcDbLine
62
7
6
CONTINUOUS
10
74.5593029517
20
164.9142131711
11
85.5593029517
21
164.9142131711
0
LINE
5
270
100
AcDbEntity
8
0
100
AcDbLine
62
7
6
CONTINUOUS
10
73.6571837240
20
117.6642131711
11
73.6571837240
21
122.5642131711
0
LINE
5
271
100
AcDbEntity
8
0
100
AcDbLine
62
7
6
CONTINUOUS
10
73.6571837240
20
197.7642131711
11
73.6571837240
21
202.6642131711
0
LINE
5
272
100
AcDbEntity
8
0
100
AcDbLine
62
7
6
CONTINUOUS
10
74.5593029517
20
193.3142131711
11
74.5593029517
21
184.3142131711
0
LINE
5
273
100
AcDbEntity
8
0
100
AcDbLine
62
7
6
CONTINUOUS
10
74.5593029517
20
183.6142131711
11
74.5593029517
21
174.6142131711
0
LINE
5
274
100
AcDbEntity
8
0
100
AcDbLine
62
7
6
CONTINUOUS
10
74.5593029517
20
173.9142131711
11
74.5593029517
21
164.9142131711
0
LINE
5
275
100
AcDbEntity
8
0
100
AcDbLine
62
7
6
CONTINUOUS
10
74.5593029517
20
164.2142131711
11
74.5593029517
21
155.2142131711
0
LINE
5
276
100
AcDbEntity
8
0
100
AcDbLine
62
7
6
CONTINUOUS
10
74.5593029517
20
154.5142131711
11
74.5593029517
21
145.5142131711
0
LINE
5
277
100
AcDbEntity
8
0
100
AcDbLine
62
7
6
CONTINUOUS
10
74.5593029517
20
144.8142131711
11
74.5593029517
21
135.8142131711
0
LINE
5
278
100
AcDbEntity
8
0
100
AcDbLine
62
7
6
CONTINUOUS
10
74.5593029517
20
135.1142131711
11
74.5593029517
21
126.1142131711
0
LINE
5
279
100
AcDbEntity
8
0
100
AcDbLine
62
7
6
CONTINUOUS
10
76.3093029517
20
193.6642131711
11
76.3093029517
21
193.3142131711
0
LINE
5
27A
100
AcDbEntity
8
0
100
AcDbLine
62
7
6
CONTINUOUS
10
76.3093029517
20
184.3142131711
11
76.3093029517
21
183.6142131711
0
LINE
5
27B
100
AcDbEntity
8
0
100
AcDbLine
62
7
6
CONTINUOUS
10
76.3093029517
20
174.6142131711
11
76.3093029517
21
173.9142131711
0
LINE
5
27C
100
AcDbEntity
8
0
100
AcDbLine
62
7
6
CONTINUOUS
10
76.3093029517
20
164.9142131711
11
76.3093029517
21
164.2142131711
0
LINE
5
27D
100
AcDbEntity
8
0
100
AcDbLine
62
7
6
CONTINUOUS
10
76.3093029517
20
155.2142131711
11
76.3093029517
21
154.5142131711
0
LINE
5
27E
100
AcDbEntity
8
0
100
AcDbLine
62
7
6
CONTINUOUS
10
76.3093029517
20
145.5142131711
11
76.3093029517
21
144.8142131711
0
LINE
5
27F
100
AcDbEntity
8
0
100
AcDbLine
62
7
6
CONTINUOUS
10
76.3093029517
20
135.8142131711
11
76.3093029517
21
135.1142131711
0
LINE
5
280
100
AcDbEntity
8
0
100
AcDbLine
62
7
6
CONTINUOUS
10
76.3093029517
20
126.1142131711
11
76.3093029517
21
125.7642131711
0
LINE
5
281
100
AcDbEntity
8
0
100
AcDbLine
62
7
6
CONTINUOUS
10
76.5593029517
20
197.2642131711
11
76.5593029517
21
196.7642131711
0
LINE
5
282
100
AcDbEntity
8
0
100
AcDbLine
62
7
6
CONTINUOUS
10
76.5593029517
20
123.0642131711
11
76.5593029517
21
123.5642131711
0
LINE
5
283
100
AcDbEntity
8
0
100
AcDbLine
62
7
6
CONTINUOUS
10
87.6882928801
20
197.9893242081
11
87.8593029517
21
198.4591705185
0
LINE
5
284
100
AcDbEntity
8
0
100
AcDbLine
62
7
6
CONTINUOUS
10
87.1593029517
20
168.8782871745
11
86.6593029517
21
168.8782871745
0
LINE
5
285
100
AcDbEntity
8
0
100
AcDbLine
62
7
6
CONTINUOUS
10
85.8277069804
20
130.5795518735
11
85.9987170521
21
130.1097055631
0
LINE
5
286
100
AcDbEntity
8
0
100
AcDbLine
62
7
6
CONTINUOUS
10
86.4882928801
20
130.8199854781
11
86.6593029517
21
130.3501391677
0
LINE
5
287
100
AcDbEntity
8
0
100
AcDbLine
62
7
6
CONTINUOUS
10
77.8443029517
20
195.5642131711
11
77.8141299514
21
196.2676373074
0
LINE
5
288
100
AcDbEntity
8
0
100
AcDbLine
62
7
6
CONTINUOUS
10
77.4135516407
20
122.5642131711
11
77.4135516407
21
122.0642131711
0
LINE
5
289
100
AcDbEntity
8
0
100
AcDbLine
62
7
6
CONTINUOUS
10
77.4135516407
20
197.7642131711
11
77.4135516407
21
198.2642131711
0
LINE
5
28A
100
AcDbEntity
8
0
100
AcDbLine
62
7
6
CONTINUOUS
10
77.5593029517
20
124.0642131711
11
77.5593029517
21
125.7642131711
0
LINE
5
28B
100
AcDbEntity
8
0
100
AcDbLine
62
7
6
CONTINUOUS
10
77.5593029517
20
193.6642131711
11
77.5593029517
21
195.5642131711
0
LINE
5
28C
100
AcDbEntity
8
0
100
AcDbLine
62
7
6
CONTINUOUS
10
79.3143049533
20
202.6642131711
11
79.3143049533
21
197.6812706007
0
LINE
5
28D
100
AcDbEntity
8
0
100
AcDbLine
62
7
6
CONTINUOUS
10
79.8145252678
20
196.7642131711
11
79.8145252678
21
197.2642131711
0
LINE
5
28E
100
AcDbEntity
8
0
100
AcDbLine
62
7
6
CONTINUOUS
10
79.8632162918
20
196.7642131711
11
79.8632162917
21
197.2642131699
0
LINE
5
28F
100
AcDbEntity
8
0
100
AcDbLine
62
7
6
CONTINUOUS
10
80.0593029517
20
124.0642131711
11
80.0593110626
21
123.0642177849
0
LINE
5
290
100
AcDbEntity
8
0
100
AcDbLine
62
7
6
CONTINUOUS
10
80.9143049533
20
117.6642131711
11
80.9143049533
21
124.0642131711
0
LINE
5
291
100
AcDbEntity
8
0
100
AcDbLine
62
7
6
CONTINUOUS
10
82.5593029517
20
124.0642131711
11
82.5593029517
21
125.7642131711
0
LINE
5
292
100
AcDbEntity
8
0
100
AcDbLine
62
7
6
CONTINUOUS
10
82.5593029517
20
193.6642131711
11
82.5593029517
21
195.5642131711
0
LINE
5
293
100
AcDbEntity
8
0
100
AcDbLine
62
7
6
CONTINUOUS
10
82.2743029517
20
195.5642131711
11
82.3044759521
21
196.2676373074
0
LINE
5
294
100
AcDbEntity
8
0
100
AcDbLine
62
7
6
CONTINUOUS
10
85.8277069804
20
168.6488744687
11
85.9987170521
21
169.1187207791
0
LINE
5
295
100
AcDbEntity
8
0
100
AcDbLine
62
7
6
CONTINUOUS
10
86.4882928801
20
168.4084408641
11
86.6593029517
21
168.8782871745
0
LINE
5
296
100
AcDbEntity
8
0
100
AcDbLine
62
7
6
CONTINUOUS
10
61.9593029517
20
173.9142131711
11
72.9593029517
21
173.9142131711
0
LINE
5
297
100
AcDbEntity
8
0
100
AcDbLine
62
7
6
CONTINUOUS
10
74.5593029517
20
173.9142131711
11
85.5593029517
21
173.9142131711
0
LINE
5
298
100
AcDbEntity
8
0
100
AcDbLine
62
7
6
CONTINUOUS
10
63.7093029517
20
174.2642131711
11
71.2093029517
21
174.2642131711
0
LINE
5
299
100
AcDbEntity
8
0
100
AcDbLine
62
7
6
CONTINUOUS
10
76.3093029517
20
174.2642131711
11
83.8093029517
21
174.2642131711
0
LINE
5
29A
100
AcDbEntity
8
0
100
AcDbLine
62
7
6
CONTINUOUS
10
61.9593029517
20
174.6142131711
11
72.9593029517
21
174.6142131711
0
LINE
5
29B
100
AcDbEntity
8
0
100
AcDbLine
62
7
6
CONTINUOUS
10
74.5593029517
20
174.6142131711
11
85.5593029517
21
174.6142131711
0
LINE
5
29C
100
AcDbEntity
8
0
100
AcDbLine
62
7
6
CONTINUOUS
10
86.4882928801
20
168.4084408641
11
85.8277069804
21
168.6488744687
0
LINE
5
29D
100
AcDbEntity
8
0
100
AcDbLine
62
7
6
CONTINUOUS
10
86.6593029517
20
168.8782871745
11
85.9987170521
21
169.1187207791
0
LINE
5
29E
100
AcDbEntity
8
0
100
AcDbLine
62
7
6
CONTINUOUS
10
83.7296875158
20
122.2420498705
11
83.7296875158
21
119.4863764711
0
LINE
5
29F
100
AcDbEntity
8
0
100
AcDbLine
62
7
6
CONTINUOUS
10
83.8093029517
20
193.6642131711
11
83.8093029517
21
193.3142131711
0
LINE
5
2A0
100
AcDbEntity
8
0
100
AcDbLine
62
7
6
CONTINUOUS
10
83.8093029517
20
184.3142131711
11
83.8093029517
21
183.6142131711
0
LINE
5
2A1
100
AcDbEntity
8
0
100
AcDbLine
62
7
6
CONTINUOUS
10
83.8093029517
20
174.6142131711
11
83.8093029517
21
173.9142131711
0
LINE
5
2A2
100
AcDbEntity
8
0
100
AcDbLine
62
7
6
CONTINUOUS
10
83.8093029517
20
164.9142131711
11
83.8093029517
21
164.2142131711
0
LINE
5
2A3
100
AcDbEntity
8
0
100
AcDbLine
62
7
6
CONTINUOUS
10
83.8093029517
20
155.2142131711
11
83.8093029517
21
154.5142131711
0
LINE
5
2A4
100
AcDbEntity
8
0
100
AcDbLine
62
7
6
CONTINUOUS
10
83.8093029517
20
145.5142131711
11
83.8093029517
21
144.8142131711
0
LINE
5
2A5
100
AcDbEntity
8
0
100
AcDbLine
62
7
6
CONTINUOUS
10
83.8093029517
20
135.8142131711
11
83.8093029517
21
135.1142131711
0
LINE
5
2A6
100
AcDbEntity
8
0
100
AcDbLine
62
7
6
CONTINUOUS
10
83.8093029517
20
126.1142131711
11
83.8093029517
21
125.7642131711
0
LINE
5
2A7
100
AcDbEntity
8
0
100
AcDbLine
62
7
6
CONTINUOUS
10
84.1593029517
20
122.2420498705
11
84.1593029517
21
119.4863764717
0
LINE
5
2A8
100
AcDbEntity
8
0
100
AcDbLine
62
7
6
CONTINUOUS
10
85.0593029517
20
196.2642131711
11
85.0593029517
21
193.3142131711
0
LINE
5
2A9
100
AcDbEntity
8
0
100
AcDbLine
62
7
6
CONTINUOUS
10
85.0593029517
20
164.9142131711
11
85.0593029517
21
164.2142131711
0
LINE
5
2AA
100
AcDbEntity
8
0
100
AcDbLine
62
7
6
CONTINUOUS
10
85.0593029517
20
145.5142131711
11
85.0593029517
21
144.8142131711
0
LINE
5
2AB
100
AcDbEntity
8
0
100
AcDbLine
62
7
6
CONTINUOUS
10
85.0593029517
20
135.8142131711
11
85.0593029517
21
135.1142131711
0
LINE
5
2AC
100
AcDbEntity
8
0
100
AcDbLine
62
7
6
CONTINUOUS
10
85.2066105927
20
196.7642131711
11
85.2066105927
21
198.4785835697
0
LINE
5
2AD
100
AcDbEntity
8
0
100
AcDbLine
62
7
6
CONTINUOUS
10
85.2066105927
20
200.4498427724
11
85.2066105927
21
201.6642131711
0
LINE
5
2AE
100
AcDbEntity
8
0
100
AcDbLine
62
7
6
CONTINUOUS
10
85.5593029517
20
183.6142131711
11
85.5593029517
21
174.6142131711
0
LINE
5
2AF
100
AcDbEntity
8
0
100
AcDbLine
62
7
6
CONTINUOUS
10
85.5593029517
20
173.9142131711
11
85.5593029517
21
155.2142131711
0
LINE
5
2B0
100
AcDbEntity
8
0
100
AcDbLine
62
7
6
CONTINUOUS
10
85.5593029517
20
154.5142131711
11
85.5593029517
21
126.1142131711
0
LINE
5
2B1
100
AcDbEntity
8
0
100
AcDbLine
62
7
6
CONTINUOUS
10
85.5593029517
20
184.3142131711
11
85.5593029517
21
198.4785835697
0
LINE
5
2B2
100
AcDbEntity
8
0
100
AcDbLine
62
7
6
CONTINUOUS
10
85.5593029517
20
199.1495104748
11
85.5593029517
21
199.7789158674
0
LINE
5
2B3
100
AcDbEntity
8
0
100
AcDbLine
62
7
6
CONTINUOUS
10
85.5593029517
20
200.4498427724
11
85.5593029517
21
202.1642131711
0
LINE
5
2B4
100
AcDbEntity
8
0
100
AcDbLine
62
7
6
CONTINUOUS
10
85.7593029517
20
160.1642131711
11
85.7593029517
21
159.6642131711
0
LINE
5
2B5
100
AcDbEntity
8
0
100
AcDbLine
62
7
6
CONTINUOUS
10
86.6593029517
20
189.0501391677
11
86.6593029517
21
168.8782871745
0
LINE
5
2B6
100
AcDbEntity
8
0
100
AcDbLine
62
7
6
CONTINUOUS
10
86.6593029517
20
160.1642131711
11
86.6593029517
21
152.3782871745
0
LINE
5
2B7
100
AcDbEntity
8
0
100
AcDbLine
62
7
6
CONTINUOUS
10
86.6593029517
20
130.3501391677
11
86.6593029517
21
124.0642131711
0
LINE
5
2B8
100
AcDbEntity
8
0
100
AcDbLine
62
7
6
CONTINUOUS
10
86.8066105927
20
123.5642131711
11
86.8066105927
21
122.5782871745
0
LINE
5
2B9
100
AcDbEntity
8
0
100
AcDbLine
62
7
6
CONTINUOUS
10
86.8066105927
20
119.1501391677
11
86.8066105927
21
118.6642131695
0
LINE
5
2BA
100
AcDbEntity
8
0
100
AcDbLine
62
7
6
CONTINUOUS
10
87.1593029517
20
189.0501391677
11
87.1593029517
21
168.8782871745
0
LINE
5
2BB
100
AcDbEntity
8
0
100
AcDbLine
62
7
6
CONTINUOUS
10
87.1593029517
20
159.6642131711
11
87.1593029517
21
152.3782871745
0
LINE
5
2BC
100
AcDbEntity
8
0
100
AcDbLine
62
7
6
CONTINUOUS
10
87.1593029517
20
130.3501391677
11
87.1593029517
21
122.5782871745
0
LINE
5
2BD
100
AcDbEntity
8
0
100
AcDbLine
62
7
6
CONTINUOUS
10
87.1593029517
20
119.1501391677
11
87.1593029517
21
118.1642131711
0
LINE
5
2BE
100
AcDbEntity
8
0
100
AcDbLine
62
7
6
CONTINUOUS
10
87.8593029517
20
200.4692558237
11
87.8593029517
21
198.4591705185
0
LINE
5
2BF
100
AcDbEntity
8
0
100
AcDbLine
62
7
6
CONTINUOUS
10
88.3593029517
20
200.4692558237
11
88.3593029517
21
198.4591705185
0
LINE
5
2C0
100
AcDbEntity
8
0
100
AcDbLine
62
7
6
CONTINUOUS
10
85.8277069804
20
152.1488744687
11
85.9987170521
21
152.6187207791
0
LINE
5
2C1
100
AcDbEntity
8
0
100
AcDbLine
62
7
6
CONTINUOUS
10
86.4882928801
20
151.9084408641
11
86.6593029517
21
152.3782871745
0
LINE
5
2C2
100
AcDbEntity
8
0
100
AcDbLine
62
7
6
CONTINUOUS
10
61.9593029517
20
183.6142131711
11
72.9593029517
21
183.6142131711
0
LINE
5
2C3
100
AcDbEntity
8
0
100
AcDbLine
62
7
6
CONTINUOUS
10
74.5593029517
20
183.6142131711
11
85.5593029517
21
183.6142131711
0
LINE
5
2C4
100
AcDbEntity
8
0
100
AcDbLine
62
7
6
CONTINUOUS
10
63.7093029517
20
183.9642131711
11
71.2093029517
21
183.9642131711
0
LINE
5
2C5
100
AcDbEntity
8
0
100
AcDbLine
62
7
6
CONTINUOUS
10
76.3093029517
20
183.9642131711
11
83.8093029517
21
183.9642131711
0
LINE
5
2C6
100
AcDbEntity
8
0
100
AcDbLine
62
7
6
CONTINUOUS
10
61.9593029517
20
184.3142131711
11
72.9593029517
21
184.3142131711
0
LINE
5
2C7
100
AcDbEntity
8
0
100
AcDbLine
62
7
6
CONTINUOUS
10
74.5593029517
20
184.3142131711
11
85.5593029517
21
184.3142131711
0
LINE
5
2C8
100
AcDbEntity
8
0
100
AcDbLine
62
7
6
CONTINUOUS
10
87.1593029517
20
189.0501391677
11
86.6593029517
21
189.0501391677
0
LINE
5
2C9
100
AcDbEntity
8
0
100
AcDbLine
62
7
6
CONTINUOUS
10
85.8277069804
20
189.2795518735
11
85.9987170521
21
188.8097055631
0
LINE
5
2CA
100
AcDbEntity
8
0
100
AcDbLine
62
7
6
CONTINUOUS
10
86.4882928801
20
189.5199854781
11
86.6593029517
21
189.0501391677
0
LINE
5
2CB
100
AcDbEntity
8
0
100
AcDbLine
62
7
6
CONTINUOUS
10
85.8277069804
20
200.2619042483
11
85.9987170521
21
199.7920579379
0
LINE
5
2CC
100
AcDbEntity
8
0
100
AcDbLine
62
7
6
CONTINUOUS
10
85.8277069804
20
130.5795518735
11
86.4882928801
21
130.8199854781
0
LINE
5
2CD
100
AcDbEntity
8
0
100
AcDbLine
62
7
6
CONTINUOUS
10
85.9987170521
20
130.1097055631
11
86.6593029517
21
130.3501391677
0
LINE
5
2CE
100
AcDbEntity
8
0
100
AcDbLine
62
7
6
CONTINUOUS
10
61.9593029517
20
193.3142131711
11
72.9593029517
21
193.3142131711
0
LINE
5
2CF
100
AcDbEntity
8
0
100
AcDbLine
62
7
6
CONTINUOUS
10
74.5593029517
20
193.3142131711
11
85.5593029517
21
193.3142131711
0
LINE
5
2D0
100
AcDbEntity
8
0
100
AcDbLine
62
7
6
CONTINUOUS
10
63.7093029517
20
193.6642131711
11
71.2093029517
21
193.6642131711
0
LINE
5
2D1
100
AcDbEntity
8
0
100
AcDbLine
62
7
6
CONTINUOUS
10
76.3093029517
20
193.6642131711
11
83.8093029517
21
193.6642131711
0
LINE
5
2D2
100
AcDbEntity
8
0
100
AcDbLine
62
7
6
CONTINUOUS
10
64.9596901450
20
195.5642131711
11
69.9589157585
21
195.5642131711
0
LINE
5
2D3
100
AcDbEntity
8
0
100
AcDbLine
62
7
6
CONTINUOUS
10
77.5596901450
20
195.5642131711
11
82.5589157585
21
195.5642131711
0
LINE
5
2D4
100
AcDbEntity
8
0
100
AcDbLine
62
7
6
CONTINUOUS
10
87.6882928801
20
200.9391021341
11
87.8593029517
21
200.4692558237
0
LINE
5
2D5
100
AcDbEntity
8
0
100
AcDbLine
62
7
6
CONTINUOUS
10
85.0593029517
20
196.2642131711
11
77.0593029517
21
196.2642131711
0
LINE
5
2D6
100
AcDbEntity
8
0
100
AcDbLine
62
7
6
CONTINUOUS
10
70.4593029517
20
196.2642131711
11
64.4593029517
21
196.2642131711
0
LINE
5
2D7
100
AcDbEntity
8
0
100
AcDbLine
62
7
6
CONTINUOUS
10
70.9593029517
20
196.7642131711
11
63.9593029517
21
196.7642131711
0
LINE
5
2D8
100
AcDbEntity
8
0
100
AcDbLine
62
7
6
CONTINUOUS
10
56.6185129040
20
196.7642131711
11
59.9593029517
21
196.7642131711
0
LINE
5
2D9
100
AcDbEntity
8
0
100
AcDbLine
62
7
6
CONTINUOUS
10
76.5593029517
20
196.7642131711
11
85.5593029517
21
196.7642131711
0
LINE
5
2DA
100
AcDbEntity
8
0
100
AcDbLine
62
7
6
CONTINUOUS
10
70.9593029517
20
197.2642131711
11
63.9593029517
21
197.2642131711
0
LINE
5
2DB
100
AcDbEntity
8
0
100
AcDbLine
62
7
6
CONTINUOUS
10
76.5593029517
20
197.2642131711
11
79.8632162917
21
197.2642131699
0
LINE
5
2DC
100
AcDbEntity
8
0
100
AcDbLine
62
7
6
CONTINUOUS
10
77.4135516407
20
197.7642131711
11
68.6573508700
21
197.7642131711
0
LINE
5
2DD
100
AcDbEntity
8
0
100
AcDbLine
62
7
6
CONTINUOUS
10
65.9412673822
20
197.7642131711
11
59.8074763787
21
197.7642131711
0
LINE
5
2DE
100
AcDbEntity
8
0
100
AcDbLine
62
7
6
CONTINUOUS
10
77.4135516407
20
198.2642131711
11
68.6406290197
21
198.2642131711
0
LINE
5
2DF
100
AcDbEntity
8
0
100
AcDbLine
62
7
6
CONTINUOUS
10
65.9154614598
20
198.2642131711
11
59.7611565489
21
198.2642131711
0
LINE
5
2E0
100
AcDbEntity
8
0
100
AcDbLine
62
7
6
CONTINUOUS
10
88.3593029517
20
198.4591705185
11
87.8593029517
21
198.4591705185
0
LINE
5
2E1
100
AcDbEntity
8
0
100
AcDbLine
62
7
6
CONTINUOUS
10
85.2066105927
20
198.4785835697
11
85.5593029517
21
198.4785835698
0
LINE
5
2E2
100
AcDbEntity
8
0
100
AcDbLine
62
7
6
CONTINUOUS
10
85.2066105927
20
200.4498427724
11
85.5593029517
21
200.4498427724
0
LINE
5
2E3
100
AcDbEntity
8
0
100
AcDbLine
62
7
6
CONTINUOUS
10
88.3593029517
20
200.4692558237
11
87.8593029517
21
200.4692558237
0
LINE
5
2E4
100
AcDbEntity
8
0
100
AcDbLine
62
7
6
CONTINUOUS
10
44.8026182160
20
201.6642131711
11
85.5593029517
21
201.6642131711
0
LINE
5
2E5
100
AcDbEntity
8
0
100
AcDbLine
62
7
6
CONTINUOUS
10
84.8303130234
20
119.0165301613
11
86.4882928801
21
119.6199854781
0
LWPOLYLINE
5
2E6
100
AcDbEntity
8
0
100
AcDbPolyline
62
7
6
CONTINUOUS
90
14
70
0
10
45.9970869755
20
202.6642130403
10
45.9688862193
20
202.6639295582
10
45.7993961860
20
202.6505978099
10
45.6380347195
20
202.6186727275
10
45.4862664607
20
202.5696671009
10
45.3455409798
20
202.5047905764
10
45.2171415320
20
202.4249389336
10
45.1029680395
20
202.3312867666
10
45.0047596200
20
202.2250860858
10
44.9250795586
20
202.1092933318
10
44.8645249709
20
201.9852406067
10
44.8241680820
20
201.8553975986
10
44.8046346578
20
201.7228925308
10
44.8026182817
20
201.6642131712
0
LINE
5
2E7
100
AcDbEntity
8
0
100
AcDbLine
62
7
6
CONTINUOUS
10
45.9970945695
20
202.6642129773
11
85.0593029517
21
202.6642131711
0
LINE
5
2E8
100
AcDbEntity
8
0
100
AcDbLine
62
7
6
CONTINUOUS
10
87.6882928801
20
197.9893242081
11
85.8277069804
21
198.6665220939
0
LINE
5
2E9
100
AcDbEntity
8
0
100
AcDbLine
62
7
6
CONTINUOUS
10
87.8593029517
20
198.4591705185
11
85.9987170521
21
199.1363684043
0
LINE
5
2EA
100
AcDbEntity
8
0
100
AcDbLine
62
7
6
CONTINUOUS
10
45.9975832655
20
264.2338036167
11
45.7568746841
21
263.7955578194
0
LINE
5
2EB
100
AcDbEntity
8
0
100
AcDbLine
62
7
6
CONTINUOUS
10
66.2551056994
20
246.4236041684
11
87.8593029517
21
246.4236041684
0
LINE
5
2EC
100
AcDbEntity
8
0
100
AcDbLine
62
7
6
CONTINUOUS
10
71.8093029517
20
246.9236041684
11
66.2551056994
21
246.9236041684
0
LINE
5
2ED
100
AcDbEntity
8
0
100
AcDbLine
62
7
6
CONTINUOUS
10
78.3093029517
20
246.9236041684
11
88.3593029517
21
246.9236041684
0
LINE
5
2EE
100
AcDbEntity
8
0
100
AcDbLine
62
7
6
CONTINUOUS
10
69.8093029517
20
249.9236041684
11
80.3093029517
21
249.9236041684
0
LINE
5
2EF
100
AcDbEntity
8
0
100
AcDbLine
62
7
6
CONTINUOUS
10
69.3093029517
20
250.4236041684
11
80.8093029517
21
250.4236041684
0
LINE
5
2F0
100
AcDbEntity
8
0
100
AcDbLine
62
7
6
CONTINUOUS
10
69.3093029517
20
253.4236041684
11
80.8093029517
21
253.4236041684
0
LINE
5
2F1
100
AcDbEntity
8
0
100
AcDbLine
62
7
6
CONTINUOUS
10
80.3093029517
20
253.9236041684
11
69.8093029517
21
253.9236041684
0
LINE
5
2F2
100
AcDbEntity
8
0
100
AcDbLine
62
7
6
CONTINUOUS
10
66.2551056994
20
246.4236041684
11
66.2551056994
21
246.9236041684
0
LINE
5
2F3
100
AcDbEntity
8
0
100
AcDbLine
62
7
6
CONTINUOUS
10
69.3093029517
20
253.4236041684
11
69.3093029517
21
250.4236041684
0
LINE
5
2F4
100
AcDbEntity
8
0
100
AcDbLine
62
7
6
CONTINUOUS
10
69.5593029517
20
250.4236041684
11
69.5593029517
21
253.4236041684
0
LINE
5
2F5
100
AcDbEntity
8
0
100
AcDbLine
62
7
6
CONTINUOUS
10
71.8093029517
20
246.4236041684
11
71.8093029517
21
249.9236041684
0
LINE
5
2F6
100
AcDbEntity
8
0
100
AcDbLine
62
7
6
CONTINUOUS
10
73.6571837240
20
266.8236041684
11
73.6571837240
21
267.8236041684
0
LINE
5
2F7
100
AcDbEntity
8
0
100
AcDbLine
62
7
6
CONTINUOUS
10
65.8597595422
20
246.6174972982
11
66.2551056994
21
246.9236041684
0
LINE
5
2F8
100
AcDbEntity
8
0
100
AcDbLine
62
7
6
CONTINUOUS
10
87.1593029517
20
265.9342363495
11
86.6593029517
21
265.9342363495
0
LINE
5
2F9
100
AcDbEntity
8
0
100
AcDbLine
62
7
6
CONTINUOUS
10
75.0593029517
20
250.4236041684
11
75.0593029517
21
253.4236041684
0
LINE
5
2FA
100
AcDbEntity
8
0
100
AcDbLine
62
7
6
CONTINUOUS
10
88.3593029517
20
266.3236041684
11
87.1593029517
21
266.3236041684
0
LINE
5
2FB
100
AcDbEntity
8
0
100
AcDbLine
62
7
6
CONTINUOUS
10
87.8593029517
20
266.8236041684
11
86.9994751960
21
266.8236041684
0
LINE
5
2FC
100
AcDbEntity
8
0
100
AcDbLine
62
7
6
CONTINUOUS
10
80.9143049533
20
266.8236041684
11
73.6571837240
21
266.8236041684
0
LINE
5
2FD
100
AcDbEntity
8
0
100
AcDbLine
62
7
6
CONTINUOUS
10
80.9143049533
20
267.8236041684
11
73.6571837240
21
267.8236041684
0
LINE
5
2FE
100
AcDbEntity
8
0
100
AcDbLine
62
7
6
CONTINUOUS
10
78.3093029517
20
246.4236041684
11
78.3093029517
21
249.9236041684
0
LINE
5
2FF
100
AcDbEntity
8
0
100
AcDbLine
62
7
6
CONTINUOUS
10
85.0636590055
20
267.3722702573
11
85.0188616810
21
267.3778291841
0
LINE
5
300
100
AcDbEntity
8
0
100
AcDbLine
62
7
6
CONTINUOUS
10
85.1176618519
20
267.3651022735
11
85.0630882659
21
267.3723398122
0
LINE
5
301
100
AcDbEntity
8
0
100
AcDbLine
62
7
6
CONTINUOUS
10
85.0188616810
20
267.3778291841
11
84.8772119629
21
267.3969194839
0
LINE
5
302
100
AcDbEntity
8
0
100
AcDbLine
62
7
6
CONTINUOUS
10
84.1716234167
20
267.5565610145
11
84.1714794593
21
267.5565848247
0
LWPOLYLINE
5
303
100
AcDbEntity
8
0
100
AcDbPolyline
62
7
6
CONTINUOUS
90
6
70
0
10
84.8772119629
20
267.3969194839
10
84.7346998424
20
267.4220873668
10
84.5914041688
20
267.4550820034
10
84.4473994209
20
267.4930021583
10
84.3039417577
20
267.5295873622
10
84.1716234167
20
267.5565610145
0
LINE
5
304
100
AcDbEntity
8
0
100
AcDbLine
62
7
6
CONTINUOUS
10
80.5593029517
20
253.4236041684
11
80.5593029517
21
250.4236041684
0
LINE
5
305
100
AcDbEntity
8
0
100
AcDbLine
62
7
6
CONTINUOUS
10
80.8093029517
20
253.4236041684
11
80.8093029517
21
250.4236041684
0
LINE
5
306
100
AcDbEntity
8
0
100
AcDbLine
62
7
6
CONTINUOUS
10
80.9143049533
20
266.8236041684
11
80.9143049533
21
267.8236041684
0
LWPOLYLINE
5
307
100
AcDbEntity
8
0
100
AcDbPolyline
62
7
6
CONTINUOUS
90
4
70
0
10
85.4374860275
20
267.3054126777
10
85.3466382639
20
267.3253369707
10
85.2311262703
20
267.3472813700
10
85.1176618519
20
267.3651022735
0
LINE
5
308
100
AcDbEntity
8
0
100
AcDbLine
62
7
6
CONTINUOUS
10
86.8066105927
20
266.9359230819
11
85.4373073073
21
267.3054534057
0
LINE
5
309
100
AcDbEntity
8
0
100
AcDbLine
62
7
6
CONTINUOUS
10
86.6593029517
20
246.4236041684
11
86.6593029517
21
265.9342363495
0
LINE
5
30A
100
AcDbEntity
8
0
100
AcDbLine
62
7
6
CONTINUOUS
10
87.1593029517
20
266.4581151091
11
87.1593029517
21
246.9236041684
0
LINE
5
30B
100
AcDbEntity
8
0
100
AcDbLine
62
7
6
CONTINUOUS
10
87.6882928801
20
266.3236041684
11
87.6882928801
21
246.9236041684
0
LINE
5
30C
100
AcDbEntity
8
0
100
AcDbLine
62
7
6
CONTINUOUS
10
88.3593029517
20
266.3236041684
11
88.3593029517
21
246.9236041684
0
ARC
5
30D
100
AcDbEntity
8
0
100
AcDbCircle
62
7
6
CONTINUOUS
10
68.9093029517
20
118.5642131711
40
1.0000000000
100
AcDbArc
50
270.0000000000
51
295.5589783577
0
ARC
5
30E
100
AcDbEntity
8
0
100
AcDbCircle
62
7
6
CONTINUOUS
10
66.0093029517
20
118.5642131711
40
1.0000000000
100
AcDbArc
50
244.4410216423
51
270.0000000000
0
ARC
5
30F
100
AcDbEntity
8
0
100
AcDbCircle
62
7
6
CONTINUOUS
10
81.5093029517
20
118.5642131711
40
1.0000000000
100
AcDbArc
50
270.0000000000
51
295.5589783577
0
ARC
5
310
100
AcDbEntity
8
0
100
AcDbCircle
62
7
6
CONTINUOUS
10
78.6093029517
20
118.5642131711
40
1.0000000000
100
AcDbArc
50
244.4410216423
51
270.0000000000
0
ARC
5
311
100
AcDbEntity
8
0
100
AcDbCircle
62
7
6
CONTINUOUS
10
75.0593029517
20
125.8642131711
40
3.0000000000
100
AcDbArc
50
323.1301023542
51
326.5816498241
0
ARC
5
312
100
AcDbEntity
8
0
100
AcDbCircle
62
7
6
CONTINUOUS
10
75.0593029517
20
126.8642131711
40
3.0000000000
100
AcDbArc
50
99.5992796106
51
134.5427149667
0
ARC
5
313
100
AcDbEntity
8
0
100
AcDbCircle
62
7
6
CONTINUOUS
10
75.0593029517
20
125.8642131711
40
3.0000000000
100
AcDbArc
50
180.0000000000
51
300.0000000000
0
ARC
5
314
100
AcDbEntity
8
0
100
AcDbCircle
62
7
6
CONTINUOUS
10
75.0593029517
20
194.4642131711
40
3.0000000000
100
AcDbArc
50
60.0000000000
51
180.0000000000
0
ARC
5
315
100
AcDbEntity
8
0
100
AcDbCircle
62
7
6
CONTINUOUS
10
75.0593029517
20
193.4642131711
40
3.0000000000
100
AcDbArc
50
180.0000000000
51
182.8904278637
0
ARC
5
316
100
AcDbEntity
8
0
100
AcDbCircle
62
7
6
CONTINUOUS
10
75.0593029517
20
193.4642131711
40
3.0000000000
100
AcDbArc
50
225.4572850333
51
260.4007203894
0
ARC
5
317
100
AcDbEntity
8
0
100
AcDbCircle
62
7
6
CONTINUOUS
10
75.0593029517
20
194.4642131711
40
3.0000000000
100
AcDbArc
50
21.5518411803
51
36.8698976458
0
ARC
5
318
100
AcDbEntity
8
0
100
AcDbCircle
62
7
6
CONTINUOUS
10
70.4593029517
20
123.5642131711
40
0.5000000000
100
AcDbArc
50
0.0000000000
51
90.0000000000
0
ARC
5
319
100
AcDbEntity
8
0
100
AcDbCircle
62
7
6
CONTINUOUS
10
64.4593029517
20
123.5642131711
40
0.5000000000
100
AcDbArc
50
90.0000000000
51
180.0000000000
0
ARC
5
31A
100
AcDbEntity
8
0
100
AcDbCircle
62
7
6
CONTINUOUS
10
64.4593029517
20
196.7642131711
40
0.5000000000
100
AcDbArc
50
180.0000000000
51
270.0000000000
0
ARC
5
31B
100
AcDbEntity
8
0
100
AcDbCircle
62
7
6
CONTINUOUS
10
70.4593029517
20
196.7642131711
40
0.5000000000
100
AcDbArc
50
270.0000000000
51
360.0000000000
0
ARC
5
31C
100
AcDbEntity
8
0
100
AcDbCircle
62
7
6
CONTINUOUS
10
76.0593029517
20
123.0642131711
40
0.5000000000
100
AcDbArc
50
270.0000000000
51
360.0000000000
0
ARC
5
31D
100
AcDbEntity
8
0
100
AcDbCircle
62
7
6
CONTINUOUS
10
85.7593029517
20
130.7674903976
40
0.2000000000
100
AcDbArc
50
180.0000000000
51
290.0000000000
0
ARC
5
31E
100
AcDbEntity
8
0
100
AcDbCircle
62
7
6
CONTINUOUS
10
85.7593029517
20
151.9609359446
40
0.2000000000
100
AcDbArc
50
70.0000000000
51
180.0000000000
0
ARC
5
31F
100
AcDbEntity
8
0
100
AcDbCircle
62
7
6
CONTINUOUS
10
85.7593029517
20
160.3642131711
40
0.2000000000
100
AcDbArc
50
180.0000000000
51
270.0000000000
0
ARC
5
320
100
AcDbEntity
8
0
100
AcDbCircle
62
7
6
CONTINUOUS
10
85.7593029517
20
168.4609359446
40
0.2000000000
100
AcDbArc
50
70.0000000000
51
180.0000000000
0
ARC
5
321
100
AcDbEntity
8
0
100
AcDbCircle
62
7
6
CONTINUOUS
10
85.7593029517
20
189.4674903976
40
0.2000000000
100
AcDbArc
50
180.0000000000
51
290.0000000000
0
ARC
5
322
100
AcDbEntity
8
0
100
AcDbCircle
62
7
6
CONTINUOUS
10
86.6593029517
20
159.6642131711
40
0.5000000000
100
AcDbArc
50
0.0000000000
51
90.0000000000
0
ARC
5
323
100
AcDbEntity
8
0
100
AcDbCircle
62
7
6
CONTINUOUS
10
86.6593029517
20
130.3501391677
40
0.5000000000
100
AcDbArc
50
0.0000000000
51
110.0000000000
0
ARC
5
324
100
AcDbEntity
8
0
100
AcDbCircle
62
7
6
CONTINUOUS
10
84.6593029517
20
119.4863764717
40
0.5000000000
100
AcDbArc
50
180.0000000000
51
290.0000000000
0
ARC
5
325
100
AcDbEntity
8
0
100
AcDbCircle
62
7
6
CONTINUOUS
10
84.6593029517
20
122.2420498705
40
0.5000000000
100
AcDbArc
50
70.0000000000
51
180.0000000000
0
ARC
5
326
100
AcDbEntity
8
0
100
AcDbCircle
62
7
6
CONTINUOUS
10
60.9593029517
20
123.5642131711
40
1.0000000000
100
AcDbArc
50
180.0000000000
51
270.0000000000
0
ARC
5
327
100
AcDbEntity
8
0
100
AcDbCircle
62
7
6
CONTINUOUS
10
60.9593029517
20
196.7642131711
40
1.0000000000
100
AcDbArc
50
90.0000000000
51
180.0000000000
0
ARC
5
328
100
AcDbEntity
8
0
100
AcDbCircle
62
7
6
CONTINUOUS
10
86.6593029517
20
118.1642131711
40
0.5000000000
100
AcDbArc
50
270.0000000000
51
360.0000000000
0
ARC
5
329
100
AcDbEntity
8
0
100
AcDbCircle
62
7
6
CONTINUOUS
10
85.7593029517
20
198.4785835697
40
0.2000000000
100
AcDbArc
50
70.0000000000
51
180.0000000000
0
ARC
5
32A
100
AcDbEntity
8
0
100
AcDbCircle
62
7
6
CONTINUOUS
10
85.7593029517
20
200.4498427724
40
0.2000000000
100
AcDbArc
50
180.0000000000
51
290.0000000000
0
ARC
5
32B
100
AcDbEntity
8
0
100
AcDbCircle
62
7
6
CONTINUOUS
10
85.0593029517
20
202.1642131711
40
0.5000000000
100
AcDbArc
50
0.0000000000
51
90.0000000000
0
ARC
5
32C
100
AcDbEntity
8
0
100
AcDbCircle
62
7
6
CONTINUOUS
10
87.8593029517
20
200.4692558237
40
0.5000000000
100
AcDbArc
50
0.0000000000
51
110.0000000000
0
ARC
5
32D
100
AcDbEntity
8
0
100
AcDbCircle
62
7
6
CONTINUOUS
10
87.8593029517
20
198.4591705185
40
0.5000000000
100
AcDbArc
50
250.0000000000
51
360.0000000000
0
ARC
5
32E
100
AcDbEntity
8
0
100
AcDbCircle
62
7
6
CONTINUOUS
10
86.6593029517
20
189.0501391677
40
0.5000000000
100
AcDbArc
50
0.0000000000
51
110.0000000000
0
ARC
5
32F
100
AcDbEntity
8
0
100
AcDbCircle
62
7
6
CONTINUOUS
10
86.6593029517
20
168.8782871745
40
0.5000000000
100
AcDbArc
50
250.0000000000
51
360.0000000000
0
ARC
5
330
100
AcDbEntity
8
0
100
AcDbCircle
62
7
6
CONTINUOUS
10
86.6593029517
20
152.3782871745
40
0.5000000000
100
AcDbArc
50
250.0000000000
51
360.0000000000
0
ARC
5
331
100
AcDbEntity
8
0
100
AcDbCircle
62
7
6
CONTINUOUS
10
86.6593029517
20
119.1501391677
40
0.5000000000
100
AcDbArc
50
0.0000000000
51
110.0000000000
0
ARC
5
332
100
AcDbEntity
8
0
100
AcDbCircle
62
7
6
CONTINUOUS
10
86.6593029517
20
122.5782871745
40
0.5000000000
100
AcDbArc
50
250.0000000000
51
360.0000000000
0
ARC
5
333
100
AcDbEntity
8
0
100
AcDbCircle
62
7
6
CONTINUOUS
10
76.0593029517
20
197.2642131711
40
0.5000000000
100
AcDbArc
50
0.0000000000
51
90.0000000000
0
ARC
5
334
100
AcDbEntity
8
0
100
AcDbCircle
62
7
6
CONTINUOUS
10
71.4593029517
20
123.0642131711
40
0.5000000000
100
AcDbArc
50
180.0000000000
51
270.0000000000
0
ARC
5
335
100
AcDbEntity
8
0
100
AcDbCircle
62
7
6
CONTINUOUS
10
63.4593029517
20
123.0642131711
40
0.5000000000
100
AcDbArc
50
270.0000000000
51
360.0000000000
0
ARC
5
336
100
AcDbEntity
8
0
100
AcDbCircle
62
7
6
CONTINUOUS
10
63.4593029517
20
197.2642131711
40
0.5000000000
100
AcDbArc
50
0.0000000000
51
90.0000000000
0
ARC
5
337
100
AcDbEntity
8
0
100
AcDbCircle
62
7
6
CONTINUOUS
10
71.4593029517
20
197.2642131711
40
0.5000000000
100
AcDbArc
50
90.0000000000
51
180.0000000000
0
ARC
5
338
100
AcDbEntity
8
0
100
AcDbCircle
62
7
6
CONTINUOUS
10
85.0593029517
20
196.7642131711
40
0.5000000000
100
AcDbArc
50
270.0000000000
51
360.0000000000
0
ARC
5
339
100
AcDbEntity
8
0
100
AcDbCircle
62
7
6
CONTINUOUS
10
77.0593029517
20
196.7642131711
40
0.5000000000
100
AcDbArc
50
180.0000000000
51
270.0000000000
0
ARC
5
33A
100
AcDbEntity
8
0
100
AcDbCircle
62
7
6
CONTINUOUS
10
86.6593029517
20
123.5642131711
40
0.5000000000
100
AcDbArc
50
0.0000000000
51
90.0000000000
0
ARC
5
33B
100
AcDbEntity
8
0
100
AcDbCircle
62
7
6
CONTINUOUS
10
77.0593029517
20
123.5642131711
40
0.5000000000
100
AcDbArc
50
90.0000000000
51
180.0000000000
0
ARC
5
33C
100
AcDbEntity
8
0
100
AcDbCircle
62
7
6
CONTINUOUS
10
85.7593029517
20
130.7674903976
40
0.6999876177
100
AcDbArc
50
253.3569804452
51
290.0000000000
0
ARC
5
33D
100
AcDbEntity
8
0
100
AcDbCircle
62
7
6
CONTINUOUS
10
85.7593029517
20
151.9609359446
40
0.6999876177
100
AcDbArc
50
70.0000000000
51
106.6406812640
0
ARC
5
33E
100
AcDbEntity
8
0
100
AcDbCircle
62
7
6
CONTINUOUS
10
85.7593029517
20
160.3642131711
40
0.6999743903
100
AcDbArc
50
253.3603796975
51
270.0000000000
0
ARC
5
33F
100
AcDbEntity
8
0
100
AcDbCircle
62
7
6
CONTINUOUS
10
85.7593029517
20
168.4609359446
40
0.6999876177
100
AcDbArc
50
70.0000000000
51
106.6406812640
0
ARC
5
340
100
AcDbEntity
8
0
100
AcDbCircle
62
7
6
CONTINUOUS
10
85.7593029517
20
198.4785835697
40
0.7000000000
100
AcDbArc
50
70.0000000000
51
106.5990590745
0
ARC
5
341
100
AcDbEntity
8
0
100
AcDbCircle
62
7
6
CONTINUOUS
10
85.7593029517
20
200.4498427724
40
0.7000000000
100
AcDbArc
50
253.4009409255
51
290.0000000000
0
ARC
5
342
100
AcDbEntity
8
0
100
AcDbCircle
62
7
6
CONTINUOUS
10
85.7593029517
20
189.4674903976
40
0.6999876177
100
AcDbArc
50
253.3569804452
51
290.0000000000
0
CIRCLE
5
343
100
AcDbEntity
8
0
100
AcDbCircle
62
7
6
CONTINUOUS
10
67.4593029517
20
263.4236041684
40
2.4500000000
0
CIRCLE
5
344
100
AcDbEntity
8
0
100
AcDbCircle
62
7
6
CONTINUOUS
10
67.4593029517
20
263.4236041684
40
2.5000000000
0
CIRCLE
5
345
100
AcDbEntity
8
0
100
AcDbCircle
62
7
6
CONTINUOUS
10
67.4593029517
20
263.4236041684
40
1.4500000000
0
CIRCLE
5
346
100
AcDbEntity
8
0
100
AcDbCircle
62
7
6
CONTINUOUS
10
80.0593029517
20
263.4236041684
40
2.4500000000
0
CIRCLE
5
347
100
AcDbEntity
8
0
100
AcDbCircle
62
7
6
CONTINUOUS
10
80.0593029517
20
263.4236041684
40
2.5000000000
0
CIRCLE
5
348
100
AcDbEntity
8
0
100
AcDbCircle
62
7
6
CONTINUOUS
10
80.0593029517
20
263.4236041684
40
1.4500000000
0
ARC
5
349
100
AcDbEntity
8
0
100
AcDbCircle
62
7
6
CONTINUOUS
10
67.4593029517
20
263.4236041684
40
5.5000000000
100
AcDbArc
50
52.6464298080
51
132.2196788524
0
ARC
5
34A
100
AcDbEntity
8
0
100
AcDbCircle
62
7
6
CONTINUOUS
10
80.0593029517
20
263.4236041684
40
5.5000000000
100
AcDbArc
50
50.1045048845
51
126.8473899311
0
CIRCLE
5
34B
100
AcDbEntity
8
0
100
AcDbCircle
62
7
6
CONTINUOUS
10
80.0593029517
20
263.4236041684
40
2.5500000000
0
CIRCLE
5
34C
100
AcDbEntity
8
0
100
AcDbCircle
62
7
6
CONTINUOUS
10
67.4593029517
20
263.4236041684
40
2.5500000000
0
ARC
5
34D
100
AcDbEntity
8
0
100
AcDbCircle
62
7
6
CONTINUOUS
10
66.2551384655
20
246.9236041684
40
0.5000000000
100
AcDbArc
50
217.7474449392
51
269.9962452789
0
ARC
5
34E
100
AcDbEntity
8
0
100
AcDbCircle
62
7
6
CONTINUOUS
10
73.6571837240
20
117.8236041684
40
150.0000000000
100
AcDbArc
50
90.0000000000
51
100.9330972384
0
ARC
5
34F
100
AcDbEntity
8
0
100
AcDbCircle
62
7
6
CONTINUOUS
10
86.6593029517
20
246.9236041684
40
0.5000000000
100
AcDbArc
50
270.0000000000
51
360.0000000000
0
ARC
5
350
100
AcDbEntity
8
0
100
AcDbCircle
62
7
6
CONTINUOUS
10
87.8593029517
20
246.9236041684
40
0.5000000000
100
AcDbArc
50
270.0000000000
51
360.0000000000
0
ARC
5
351
100
AcDbEntity
8
0
100
AcDbCircle
62
7
6
CONTINUOUS
10
87.8593029517
20
266.3236041684
40
0.5000000000
100
AcDbArc
50
0.0000000000
51
90.0000000000
0
ARC
5
352
100
AcDbEntity
8
0
100
AcDbCircle
62
7
6
CONTINUOUS
10
80.3093029517
20
253.4236041684
40
0.5000000000
100
AcDbArc
50
0.0000000000
51
90.0000000000
0
ARC
5
353
100
AcDbEntity
8
0
100
AcDbCircle
62
7
6
CONTINUOUS
10
80.3093029517
20
250.4236041684
40
0.5000000000
100
AcDbArc
50
270.0000000000
51
360.0000000000
0
ARC
5
354
100
AcDbEntity
8
0
100
AcDbCircle
62
7
6
CONTINUOUS
10
69.8093029517
20
250.4236041684
40
0.5000000000
100
AcDbArc
50
180.0000000000
51
270.0000000000
0
ARC
5
355
100
AcDbEntity
8
0
100
AcDbCircle
62
7
6
CONTINUOUS
10
69.8093029517
20
253.4236041684
40
0.5000000000
100
AcDbArc
50
90.0000000000
51
180.0000000000
0
ARC
5
356
100
AcDbEntity
8
0
100
AcDbCircle
62
7
6
CONTINUOUS
10
45.3026184027
20
264.6100769325
40
0.5000000000
100
AcDbArc
50
100.9331161395
51
241.9132819120
0
ARC
5
357
100
AcDbEntity
8
0
100
AcDbCircle
62
7
6
CONTINUOUS
10
14.4647591086
20
206.8236041684
40
65.0000000000
100
AcDbArc
50
37.7497435119
51
61.9133059888
0
ARC
5
358
100
AcDbEntity
8
0
100
AcDbCircle
62
7
6
CONTINUOUS
10
86.6593029517
20
266.4581087070
40
0.5000000000
100
AcDbArc
50
0.0007336280
51
72.8657467004
0
ARC
5
359
100
AcDbEntity
8
0
100
AcDbCircle
62
7
6
CONTINUOUS
10
80.9143049533
20
247.8236041684
40
20.0000000000
100
AcDbArc
50
72.8655305650
51
90.0000000000
0
ARC
5
35A
100
AcDbEntity
8
0
100
AcDbCircle
62
7
6
CONTINUOUS
10
73.6571837240
20
117.8236041684
40
149.0000000000
100
AcDbArc
50
90.0000000000
51
100.6981508338
0
ARC
5
35B
100
AcDbEntity
8
0
100
AcDbCircle
62
7
6
CONTINUOUS
10
80.9143049533
20
247.8236041684
40
19.0000000000
100
AcDbArc
50
72.4000946751
51
90.0000000000
0
ARC
5
35C
100
AcDbEntity
8
0
100
AcDbCircle
62
7
6
CONTINUOUS
10
14.4647591086
20
206.8236041684
40
65.5000000000
100
AcDbArc
50
37.7497435119
51
61.2219998879
0
SPLINE
5
35D
100
AcDbEntity
8
0
100
AcDbSpline
62
7
6
CONTINUOUS
70
0
71
3
72
12
73
8
74
6
42
0.0000001000
43
0.0000001000
44
0.0000000001
12
2.8596799411
22
-0.0006270771
32
0.0000000000
13
2.4764058765
23
1.4300991902
33
0.0000000000
40
0.0000000000
40
0.0000000000
40
0.0000000000
40
0.0000000000
40
0.1773895623
40
0.3689034408
40
0.5763861215
40
0.7919707535
40
1.0000000000
40
1.0000000000
40
1.0000000000
40
1.0000000000
10
77.4135516407
20
122.0642131711
30
0.0000000000
10
77.5826440983
20
122.0641760921
30
0.0000000000
10
77.9347144567
20
122.1031562560
30
0.0000000000
10
78.4648985671
20
122.2535639823
30
0.0000000000
10
79.0052134780
20
122.4828583486
30
0.0000000000
10
79.5378654351
20
122.7631638700
30
0.0000000000
10
79.8875894464
20
122.9650502992
30
0.0000000000
10
80.0593110626
20
123.0642177849
30
0.0000000000
11
77.4135516407
21
122.0642131711
31
0.0000000000
11
77.9182894299
21
122.1149094200
31
0.0000000000
11
78.4464700856
21
122.2597054224
31
0.0000000000
11
78.9945139668
21
122.4870668707
31
0.0000000000
11
79.5422193751
21
122.7700771385
31
0.0000000000
11
80.0593110626
21
123.0642177849
31
0.0000000000
0
SPLINE
5
35E
100
AcDbEntity
8
0
100
AcDbSpline
62
7
6
CONTINUOUS
70
0
71
3
72
16
73
12
74
10
42
0.0000001000
43
0.0000001000
44
0.0000000001
12
2.7258035815
22
-0.0000006510
32
0.0000000000
13
2.7258035815
23
-0.0000111550
33
0.0000000000
40
0.0000000000
40
0.0000000000
40
0.0000000000
40
0.0000000000
40
0.0832267157
40
0.1731015719
40
0.2699814600
40
0.3746754538
40
0.4884046661
40
0.6116501119
40
0.7419694020
40
0.8734815044
40
1.0000000000
40
1.0000000000
40
1.0000000000
40
1.0000000000
10
65.9154614598
20
122.0642131711
30
0.0000000000
10
65.9910813530
20
122.0642131530
30
0.0000000000
10
66.1483621196
20
122.0661557747
30
0.0000000000
10
66.3935790913
20
122.0728245725
30
0.0000000000
10
66.6582534493
20
122.0813075007
30
0.0000000000
10
66.9446418306
20
122.0889078773
30
0.0000000000
10
67.2550787550
20
122.0925428369
30
0.0000000000
10
67.5888140235
20
122.0896296275
30
0.0000000000
10
67.9385782699
20
122.0801744181
30
0.0000000000
10
68.2912350512
20
122.0685772348
30
0.0000000000
10
68.5256741636
20
122.0642136415
30
0.0000000000
10
68.6406290197
20
122.0642131711
30
0.0000000000
11
65.9154614598
21
122.0642131711
31
0.0000000000
11
66.1423083663
21
122.0666205110
31
0.0000000000
11
66.3872105568
21
122.0728420714
31
0.0000000000
11
66.6511647420
21
122.0808472014
31
0.0000000000
11
66.9364499908
21
122.0880143306
31
0.0000000000
11
67.2464346893
21
122.0914280030
31
0.0000000000
11
67.5823664089
21
122.0886899842
31
0.0000000000
11
67.9374814186
21
122.0798593737
31
0.0000000000
11
68.2958019139
21
122.0692962380
31
0.0000000000
11
68.6406290197
21
122.0642131711
31
0.0000000000
0
SPLINE
5
35F
100
AcDbEntity
8
0
100
AcDbSpline
62
7
6
CONTINUOUS
70
0
71
3
72
16
73
12
74
10
42
0.0000001000
43
0.0000001000
44
0.0000000001
12
2.7162433357
22
-0.0000001534
32
0.0000000000
13
2.7162433357
23
-0.0000041594
33
0.0000000000
40
0.0000000000
40
0.0000000000
40
0.0000000000
40
0.0000000000
40
0.0790436747
40
0.1665804066
40
0.2631207206
40
0.3694190595
40
0.4862993293
40
0.6132645657
40
0.7462171777
40
0.8775250230
40
1.0000000000
40
1.0000000000
40
1.0000000000
40
1.0000000000
10
65.9412672007
20
122.5642131711
30
0.0000000000
10
66.0128344855
20
122.5642131671
30
0.0000000000
10
66.1636586989
20
122.5652167313
30
0.0000000000
10
66.4018687997
20
122.5685652268
30
0.0000000000
10
66.6647446781
20
122.5728011749
30
0.0000000000
10
66.9541993756
20
122.5765794261
30
0.0000000000
10
67.2712238998
20
122.5783766969
30
0.0000000000
10
67.6123851222
20
122.5769350752
30
0.0000000000
10
67.9665786008
20
122.5722590932
30
0.0000000000
10
68.3166844961
20
122.5664839320
30
0.0000000000
10
68.5464602553
20
122.5642133409
30
0.0000000000
10
68.6573508687
20
122.5642131711
30
0.0000000000
11
65.9412672007
21
122.5642131711
31
0.0000000000
11
66.1559656807
21
122.5654169197
31
0.0000000000
11
66.3937163893
21
122.5685281467
31
0.0000000000
11
66.6559128127
21
122.5725315312
31
0.0000000000
11
66.9446227173
21
122.5761159464
31
0.0000000000
11
67.2620933818
21
122.5778230237
31
0.0000000000
11
67.6069591417
21
122.5764539966
31
0.0000000000
11
67.9680638119
21
122.5720400374
31
0.0000000000
11
68.3246887678
21
122.5667587209
31
0.0000000000
11
68.6573508687
21
122.5642131711
31
0.0000000000
0
SPLINE
5
360
100
AcDbEntity
8
0
100
AcDbSpline
62
7
6
CONTINUOUS
70
0
71
3
72
15
73
11
74
9
42
0.0000001000
43
0.0000001000
44
0.0000000001
12
2.8096348043
22
-2.1650447677
32
0.0000000000
13
3.5470363051
23
0.0001737637
33
0.0000000000
40
0.0000000000
40
0.0000000000
40
0.0000000000
40
0.0000000000
40
0.1252033949
40
0.2665165368
40
0.4130741713
40
0.5530605459
40
0.6802435943
40
0.7955363847
40
0.9019388477
40
1.0000000000
40
1.0000000000
40
1.0000000000
40
1.0000000000
10
56.6185298747
20
123.5642131711
30
0.0000000000
10
56.7357884801
20
123.4738561861
30
0.0000000000
10
56.9854180780
20
123.2815465897
30
0.0000000000
10
57.3783486921
20
122.9913495958
30
0.0000000000
10
57.7991779563
20
122.7100577828
30
0.0000000000
10
58.2252472038
20
122.4685400021
30
0.0000000000
10
58.6384881215
20
122.2830308026
30
0.0000000000
10
59.0315820756
20
122.1551225344
30
0.0000000000
10
59.4032357520
20
122.0810715836
30
0.0000000000
10
59.6452143931
20
122.0642074913
30
0.0000000000
10
59.7611565489
20
122.0642131711
30
0.0000000000
11
56.6185298747
21
123.5642131711
31
0.0000000000
11
56.9711876164
21
123.2942905811
31
0.0000000000
11
57.3756032967
21
122.9981616436
31
0.0000000000
11
57.8091087081
21
122.7112607147
31
0.0000000000
11
58.2421470398
21
122.4683069102
31
0.0000000000
11
58.6544213448
21
122.2851628147
31
0.0000000000
11
59.0437315977
21
122.1599599414
31
0.0000000000
11
59.4141035213
21
122.0873960905
31
0.0000000000
11
59.7611565489
21
122.0642131711
31
0.0000000000
0
SPLINE
5
361
100
AcDbEntity
8
0
100
AcDbSpline
62
7
6
CONTINUOUS
70
0
71
3
72
15
73
11
74
9
42
0.0000001000
43
0.0000001000
44
0.0000000001
12
3.0892108418
22
-1.3265982756
32
0.0000000000
13
3.3620063363
23
0.0000680955
33
0.0000000000
40
0.0000000000
40
0.0000000000
40
0.0000000000
40
0.0000000000
40
0.1363758290
40
0.2888460490
40
0.4431215182
40
0.5855082286
40
0.7099094491
40
0.8181805305
40
0.9144014741
40
1.0000000000
40
1.0000000000
40
1.0000000000
40
1.0000000000
10
56.6185301507
20
123.5642131711
30
0.0000000000
10
56.7589613805
20
123.5039078579
30
0.0000000000
10
57.0565507323
20
123.3765366915
30
0.0000000000
10
57.5146250513
20
123.1847503186
30
0.0000000000
10
57.9821392834
20
122.9981685168
30
0.0000000000
10
58.4257059383
20
122.8368420292
30
0.0000000000
10
58.8273643657
20
122.7122586767
30
0.0000000000
10
59.1860806869
20
122.6261151329
30
0.0000000000
10
59.5076959060
20
122.5760354988
30
0.0000000000
10
59.7115490440
20
122.5642112281
30
0.0000000000
10
59.8074766395
20
122.5642131711
30
0.0000000000
11
56.6185301507
21
123.5642131711
31
0.0000000000
11
57.0401928842
21
123.3841590426
31
0.0000000000
11
57.5133032732
21
123.1868488474
31
0.0000000000
11
57.9955188003
21
122.9958199230
31
0.0000000000
11
58.4459807503
21
122.8338244595
31
0.0000000000
11
58.8459525194
21
122.7115732812
31
0.0000000000
11
59.2002550558
21
122.6280772817
31
0.0000000000
11
59.5201098329
21
122.5796809013
31
0.0000000000
11
59.8074766395
21
122.5642131711
31
0.0000000000
0
SPLINE
5
362
100
AcDbEntity
8
0
100
AcDbSpline
62
7
6
CONTINUOUS
70
0
71
3
72
11
73
7
74
5
42
0.0000001000
43
0.0000001000
44
0.0000000001
12
0.5004821073
22
0.0000000000
32
0.0000000000
13
0.0000000000
23
0.5004821073
33
0.0000000000
40
0.0000000000
40
0.0000000000
40
0.0000000000
40
0.0000000000
40
0.0767669082
40
0.2935182511
40
0.6176869179
40
1.0000000000
40
1.0000000000
40
1.0000000000
40
1.0000000000
10
79.8494935084
20
196.2642131711
30
0.0000000000
10
79.8623003297
20
196.2642131711
30
0.0000000000
10
79.8440292613
20
196.3424488392
30
0.0000000000
10
79.8671669729
20
196.4189880357
30
0.0000000000
10
79.8598028223
20
196.5863682091
30
0.0000000000
10
79.8632162918
20
196.7004328854
30
0.0000000000
10
79.8632162918
20
196.7642131711
30
0.0000000000
11
79.8494935084
21
196.2642131711
31
0.0000000000
11
79.8547449666
21
196.3022730481
31
0.0000000000
11
79.8591970376
21
196.4106618210
31
0.0000000000
11
79.8621717493
21
196.5728751653
31
0.0000000000
11
79.8632162918
21
196.7642131711
31
0.0000000000
0
SPLINE
5
363
100
AcDbEntity
8
0
100
AcDbSpline
62
7
6
CONTINUOUS
70
0
71
3
72
11
73
7
74
5
42
0.0000001000
43
0.0000001000
44
0.0000000001
12
-0.5030715630
22
0.0000000000
32
0.0000000000
13
0.0000000000
23
0.5030715630
33
0.0000000000
40
0.0000000000
40
0.0000000000
40
0.0000000000
40
0.0000000000
40
0.0801950042
40
0.2968259406
40
0.6196236633
40
1.0000000000
40
1.0000000000
40
1.0000000000
40
1.0000000000
10
79.8494935084
20
196.2642131711
30
0.0000000000
10
79.8360455663
20
196.2642131711
30
0.0000000000
10
79.8375587760
20
196.3396322925
30
0.0000000000
10
79.8192282973
20
196.4200588683
30
0.0000000000
10
79.8173713056
20
196.5857923604
30
0.0000000000
10
79.8145252678
20
196.7004276650
30
0.0000000000
10
79.8145252678
20
196.7642131711
30
0.0000000000
11
79.8494935084
21
196.2642131711
31
0.0000000000
11
79.8361118023
21
196.3022730482
31
0.0000000000
11
79.8247670856
21
196.4106618210
31
0.0000000000
11
79.8171869591
21
196.5728751653
31
0.0000000000
11
79.8145252678
21
196.7642131711
31
0.0000000000
0
SPLINE
5
364
100
AcDbEntity
8
0
100
AcDbSpline
62
7
6
CONTINUOUS
70
0
71
3
72
16
73
12
74
10
42
0.0000001000
43
0.0000001000
44
0.0000000001
12
-0.0141033100
22
0.7067308631
32
0.0000000000
13
-0.6291862484
23
0.3221677840
33
0.0000000000
40
0.0000000000
40
0.0000000000
40
0.0000000000
40
0.0000000000
40
0.0910339546
40
0.1760582135
40
0.2686906475
40
0.3723548523
40
0.4846082075
40
0.6023012494
40
0.7253885688
40
0.8568791368
40
1.0000000000
40
1.0000000000
40
1.0000000000
40
1.0000000000
10
79.8632162918
20
197.2642131711
30
0.0000000000
10
79.8627883318
20
197.2856586729
30
0.0000000000
10
79.8467478533
20
197.3262878924
30
0.0000000000
10
79.8068390509
20
197.3756902027
30
0.0000000000
10
79.7548265810
20
197.4172613794
30
0.0000000000
10
79.6974345104
20
197.4618332742
30
0.0000000000
10
79.6309310499
20
197.5039227916
30
0.0000000000
10
79.5601502747
20
197.5475869937
30
0.0000000000
10
79.4838892715
20
197.5909694398
30
0.0000000000
10
79.4016856977
20
197.6359537998
30
0.0000000000
10
79.3443215130
20
197.6659009569
30
0.0000000000
10
79.3143049533
20
197.6812706007
30
0.0000000000
11
79.8632162918
21
197.2642131711
31
0.0000000000
11
79.8434974363
21
197.3254667506
31
0.0000000000
11
79.8064897187
21
197.3728227096
31
0.0000000000
11
79.7568172873
21
197.4154862730
31
0.0000000000
11
79.6983682653
21
197.4596821039
31
0.0000000000
11
79.6319524911
21
197.5031005560
31
0.0000000000
11
79.5609809355
21
197.5465085913
31
0.0000000000
11
79.4855009306
21
197.5897864626
31
0.0000000000
11
79.4039515151
21
197.6343827323
31
0.0000000000
11
79.3143049533
21
197.6812706007
31
0.0000000000
0
SPLINE
5
365
100
AcDbEntity
8
0
100
AcDbSpline
62
7
6
CONTINUOUS
70
0
71
3
72
16
73
12
74
10
42
0.0000001000
43
0.0000001000
44
0.0000000001
12
-0.2211991582
22
0.6147994747
32
0.0000000000
13
-0.6358155385
23
0.1504860883
33
0.0000000000
40
0.0000000000
40
0.0000000000
40
0.0000000000
40
0.0000000000
40
0.0580091248
40
0.1321524114
40
0.2229842114
40
0.3296621892
40
0.4479201179
40
0.5734181081
40
0.7053838733
40
0.8465584916
40
1.0000000000
40
1.0000000000
40
1.0000000000
40
1.0000000000
10
79.8145252678
20
197.2642131711
30
0.0000000000
10
79.8102480779
20
197.2761011643
30
0.0000000000
10
79.7913968833
20
197.3000793081
30
0.0000000000
10
79.7466315685
20
197.3204338780
30
0.0000000000
10
79.6915821412
20
197.3416245868
30
0.0000000000
10
79.6261180667
20
197.3629970636
30
0.0000000000
10
79.5528551420
20
197.3843304583
30
0.0000000000
10
79.4739061067
20
197.4058874617
30
0.0000000000
10
79.3898518009
20
197.4276304585
30
0.0000000000
10
79.2996898432
20
197.4500537188
30
0.0000000000
10
79.2372994592
20
197.4650449484
30
0.0000000000
10
79.2047792941
20
197.4727418859
30
0.0000000000
11
79.8145252678
21
197.2642131711
31
0.0000000000
11
79.7922187439
21
197.2948560757
31
0.0000000000
11
79.7499188842
21
197.3184681293
31
0.0000000000
11
79.6945981841
21
197.3399572950
31
0.0000000000
11
79.6284304404
21
197.3618688929
31
0.0000000000
11
79.5543077923
21
197.3836887760
31
0.0000000000
11
79.4752206751
21
197.4053431470
31
0.0000000000
11
79.3917612864
21
197.4270020519
31
0.0000000000
11
79.3022548727
21
197.4492951922
31
0.0000000000
11
79.2047792941
21
197.4727418859
31
0.0000000000
0
SPLINE
5
366
100
AcDbEntity
8
0
100
AcDbSpline
62
7
6
CONTINUOUS
70
0
71
3
72
12
73
8
74
6
42
0.0000001000
43
0.0000001000
44
0.0000000001
12
-1.7765380200
22
0.9330854842
32
0.0000000000
13
-2.0066728326
23
0.0000244065
33
0.0000000000
40
0.0000000000
40
0.0000000000
40
0.0000000000
40
0.0000000000
40
0.2373588782
40
0.4533846844
40
0.6503983090
40
0.8317664063
40
1.0000000000
40
1.0000000000
40
1.0000000000
40
1.0000000000
10
79.3143049533
20
197.6812706007
30
0.0000000000
10
79.1737459295
20
197.7550959753
30
0.0000000000
10
78.9019926184
20
197.8901484372
30
0.0000000000
10
78.4994723004
20
198.0563563502
30
0.0000000000
10
78.1193840439
20
198.1752061079
30
0.0000000000
10
77.7601216073
20
198.2469713482
30
0.0000000000
10
77.5260815680
20
198.2642118024
30
0.0000000000
10
77.4135516407
20
198.2642131711
30
0.0000000000
11
79.3143049533
21
197.6812706007
31
0.0000000000
11
78.8867833312
21
197.8912431909
31
0.0000000000
11
78.4853832790
21
198.0549327754
31
0.0000000000
11
78.1075528544
21
198.1712916117
31
0.0000000000
11
77.7503411918
21
198.2409826059
31
0.0000000000
11
77.4135516407
21
198.2642131711
31
0.0000000000
0
SPLINE
5
367
100
AcDbEntity
8
0
100
AcDbSpline
62
7
6
CONTINUOUS
70
0
71
3
72
12
73
8
74
6
42
0.0000001000
43
0.0000001000
44
0.0000000001
12
-1.7694064982
22
0.4189257896
32
0.0000000000
13
-1.8183229012
23
0.0000140080
33
0.0000000000
40
0.0000000000
40
0.0000000000
40
0.0000000000
40
0.0000000000
40
0.2593836015
40
0.4849187420
40
0.6802728928
40
0.8506017838
40
1.0000000000
40
1.0000000000
40
1.0000000000
40
1.0000000000
10
79.2047792941
20
197.4727418859
30
0.0000000000
10
79.0517942841
20
197.5089627126
30
0.0000000000
10
78.7653773627
20
197.5749923682
30
0.0000000000
10
78.3615387782
20
197.6584416941
30
0.0000000000
10
78.0081332922
20
197.7184094401
30
0.0000000000
10
77.6979200264
20
197.7548972265
30
0.0000000000
10
77.5041030399
20
197.7642124735
30
0.0000000000
10
77.4135516407
20
197.7642131711
30
0.0000000000
11
79.2047792941
21
197.4727418859
31
0.0000000000
11
78.7449695683
21
197.5777288863
31
0.0000000000
11
78.3431246258
21
197.6595771259
31
0.0000000000
11
77.9927043325
21
197.7177551521
31
0.0000000000
11
77.6849573119
21
197.7525957343
31
0.0000000000
11
77.4135516407
21
197.7642131711
31
0.0000000000
0
SPLINE
5
368
100
AcDbEntity
8
0
100
AcDbSpline
62
7
6
CONTINUOUS
70
0
71
3
72
11
73
7
74
5
42
0.0000001000
43
0.0000001000
44
0.0000000001
12
-0.5007146677
22
0.0000000000
32
0.0000000000
13
0.0000010525
23
0.5007146677
33
0.0000000000
40
0.0000000000
40
0.0000000000
40
0.0000000000
40
0.0000000000
40
0.0770796354
40
0.2938153748
40
0.6178566392
40
1.0000000000
40
1.0000000000
40
1.0000000000
40
1.0000000000
10
68.6573508687
20
197.7642131711
30
0.0000000000
10
68.6444859007
20
197.7642131711
30
0.0000000000
10
68.6602718294
20
197.8421839657
30
0.0000000000
10
68.6379453257
20
197.9190914382
30
0.0000000000
10
68.6439433976
20
198.0863123364
30
0.0000000000
10
68.6406288855
20
198.2004315758
30
0.0000000000
10
68.6406290196
20
198.2642131711
30
0.0000000000
11
68.6573508687
21
197.7642131711
31
0.0000000000
11
68.6509513492
21
197.8022738170
31
0.0000000000
11
68.6455262774
21
197.9106608958
31
0.0000000000
11
68.6419015668
21
198.0728726168
31
0.0000000000
11
68.6406290196
21
198.2642131711
31
0.0000000000
0
SPLINE
5
369
100
AcDbEntity
8
0
100
AcDbSpline
62
7
6
CONTINUOUS
70
0
71
3
72
16
73
12
74
10
42
0.0000001000
43
0.0000001000
44
0.0000000001
12
-2.7258035565
22
-0.0000288510
32
0.0000000000
13
-2.7258035565
23
-0.0000314643
33
0.0000000000
40
0.0000000000
40
0.0000000000
40
0.0000000000
40
0.0000000000
40
0.1195257973
40
0.2471395994
40
0.3789285862
40
0.5087898088
40
0.6293891073
40
0.7357879191
40
0.8317800928
40
0.9196122620
40
1.0000000000
40
1.0000000000
40
1.0000000000
40
1.0000000000
10
68.6406290197
20
198.2642131711
30
0.0000000000
10
68.5320277385
20
198.2642120216
30
0.0000000000
10
68.3074818184
20
198.2602605467
30
0.0000000000
10
67.9633739951
20
198.2490905015
30
0.0000000000
10
67.6098190684
20
198.2391552355
30
0.0000000000
10
67.2624957721
20
198.2357414198
30
0.0000000000
10
66.9382549350
20
198.2395919037
30
0.0000000000
10
66.6448890308
20
198.2475352858
30
0.0000000000
10
66.3813276045
20
198.2559804205
30
0.0000000000
10
66.1413472643
20
198.2623889434
30
0.0000000000
10
65.9885018539
20
198.2642140142
30
0.0000000000
10
65.9154614598
20
198.2642131711
30
0.0000000000
11
68.6406290197
21
198.2642131711
31
0.0000000000
11
68.3148576947
21
198.2596100973
31
0.0000000000
11
67.9671556039
21
198.2494618570
31
0.0000000000
11
67.6080439399
21
198.2402074328
31
0.0000000000
11
67.2540824117
21
198.2369865367
31
0.0000000000
11
66.9253726015
21
198.2406295310
31
0.0000000000
11
66.6354451138
21
198.2480432338
31
0.0000000000
11
66.3739095558
21
198.2559750761
31
0.0000000000
11
66.1345710030
21
198.2619547208
31
0.0000000000
11
65.9154614598
21
198.2642131711
31
0.0000000000
0
SPLINE
5
36A
100
AcDbEntity
8
0
100
AcDbSpline
62
7
6
CONTINUOUS
70
0
71
3
72
16
73
12
74
10
42
0.0000001000
43
0.0000001000
44
0.0000000001
12
-2.7162433407
22
-0.0000088062
32
0.0000000000
13
-2.7162433407
23
-0.0000086359
33
0.0000000000
40
0.0000000000
40
0.0000000000
40
0.0000000000
40
0.0000000000
40
0.1156158945
40
0.2428133594
40
0.3770886715
40
0.5108133622
40
0.6347511603
40
0.7427011074
40
0.8382400503
40
0.9236904229
40
1.0000000000
40
1.0000000000
40
1.0000000000
40
1.0000000000
10
68.6573508687
20
197.7642131711
30
0.0000000000
10
68.5526705676
20
197.7642128317
30
0.0000000000
10
68.3328259812
20
197.7621570363
30
0.0000000000
10
67.9914518103
20
197.7565829384
30
0.0000000000
10
67.6336656414
20
197.7516654310
30
0.0000000000
10
67.2787968418
20
197.7499792117
30
0.0000000000
10
66.9477664259
20
197.7518823140
30
0.0000000000
10
66.6513347486
20
197.7558326917
30
0.0000000000
10
66.3897590808
20
197.7600525245
30
0.0000000000
10
66.1568187560
20
197.7632715705
30
0.0000000000
10
66.0103589942
20
197.7642133908
30
0.0000000000
10
65.9412672007
20
197.7642131711
30
0.0000000000
11
68.6573508687
21
197.7642131711
31
0.0000000000
11
68.3433184300
21
197.7619074276
31
0.0000000000
11
67.9978564400
21
197.7568322787
31
0.0000000000
11
67.6331613563
21
197.7522062636
31
0.0000000000
11
67.2699361206
21
197.7505969460
31
0.0000000000
11
66.9332958378
21
197.7524199296
31
0.0000000000
11
66.6401009585
21
197.7561278672
31
0.0000000000
11
66.3806242551
21
197.7600942765
31
0.0000000000
11
66.1485395055
21
197.7630840106
31
0.0000000000
11
65.9412672007
21
197.7642131711
31
0.0000000000
0
SPLINE
5
36B
100
AcDbEntity
8
0
100
AcDbSpline
62
7
6
CONTINUOUS
70
0
71
3
72
11
73
7
74
5
42
0.0000001000
43
0.0000001000
44
0.0000000001
12
-0.5016896783
22
0.0000000000
32
0.0000000000
13
0.0000000000
23
0.5016896783
33
0.0000000000
40
0.0000000000
40
0.0000000000
40
0.0000000000
40
0.0000000000
40
0.0783762711
40
0.2950625133
40
0.6185854048
40
1.0000000000
40
1.0000000000
40
1.0000000000
40
1.0000000000
10
65.9412672007
20
197.7642131711
30
0.0000000000
10
65.9281603453
20
197.7642131711
30
0.0000000000
10
65.9366435758
20
197.8410999586
30
0.0000000000
10
65.9165351984
20
197.9195094765
30
0.0000000000
10
65.9185101703
20
198.0860888311
30
0.0000000000
10
65.9154614598
20
198.2004292492
30
0.0000000000
10
65.9154614598
20
198.2642131711
30
0.0000000000
11
65.9412672007
21
197.7642131711
31
0.0000000000
11
65.9313917689
21
197.8022734230
31
0.0000000000
11
65.9230197842
21
197.9106598205
31
0.0000000000
11
65.9174258041
21
198.0728714884
31
0.0000000000
11
65.9154614598
21
198.2642131711
31
0.0000000000
0
SPLINE
5
36C
100
AcDbEntity
8
0
100
AcDbSpline
62
7
6
CONTINUOUS
70
0
71
3
72
15
73
11
74
9
42
0.0000001000
43
0.0000001000
44
0.0000000001
12
-3.3620117565
22
0.0000737795
32
0.0000000000
13
-3.0892287410
23
-1.3265703306
33
0.0000000000
40
0.0000000000
40
0.0000000000
40
0.0000000000
40
0.0000000000
40
0.0853807586
40
0.1817512246
40
0.2898248959
40
0.4111242359
40
0.5478204680
40
0.6992973655
40
0.8566286195
40
1.0000000000
40
1.0000000000
40
1.0000000000
40
1.0000000000
10
59.8074766395
20
197.7642131711
30
0.0000000000
10
59.7117929348
20
197.7642152709
30
0.0000000000
10
59.5080164207
20
197.7524250661
30
0.0000000000
10
59.1866867591
20
197.7024297903
30
0.0000000000
10
58.8313957493
20
197.6171558203
30
0.0000000000
10
58.4392547745
20
197.4959439240
30
0.0000000000
10
58.0075999015
20
197.3398904321
30
0.0000000000
10
57.5435500775
20
197.1555879969
30
0.0000000000
10
57.0759787327
20
196.9601927397
30
0.0000000000
10
56.7661657914
20
196.8276105776
30
0.0000000000
10
56.6185301284
20
196.7642131711
30
0.0000000000
11
59.8074766395
21
197.7642131711
31
0.0000000000
11
59.5208385016
21
197.7488209626
31
0.0000000000
11
59.2004795824
21
197.7003928555
31
0.0000000000
11
58.8468134014
21
197.6170874674
31
0.0000000000
11
58.4567204747
21
197.4981910949
31
0.0000000000
11
58.0239947411
21
197.3434105631
31
0.0000000000
11
57.5502120066
21
197.1566408917
31
0.0000000000
11
57.0618517449
21
196.9534369166
31
0.0000000000
11
56.6185301284
21
196.7642131711
31
0.0000000000
0
SPLINE
5
36D
100
AcDbEntity
8
0
100
AcDbSpline
62
7
6
CONTINUOUS
70
0
71
3
72
11
73
7
74
5
42
0.0000001000
43
0.0000001000
44
0.0000000001
12
-0.5053051207
22
0.0000000000
32
0.0000000000
13
0.0000001959
23
0.5053051207
33
0.0000000000
40
0.0000000000
40
0.0000000000
40
0.0000000000
40
0.0000000000
40
0.0830893372
40
0.2996374715
40
0.6212690970
40
1.0000000000
40
1.0000000000
40
1.0000000000
40
1.0000000000
10
59.8074766395
20
197.7642131711
30
0.0000000000
10
59.7934814837
20
197.7642131711
30
0.0000000000
10
59.7869833428
20
197.8374090446
30
0.0000000000
10
59.7700873615
20
197.9208390186
30
0.0000000000
10
59.7638628453
20
198.0853470886
30
0.0000000000
10
59.7611565242
20
198.2004216162
30
0.0000000000
10
59.7611565489
20
198.2642131711
30
0.0000000000
11
59.8074766395
21
197.7642131711
31
0.0000000000
11
59.7897506842
21
197.8022732551
31
0.0000000000
11
59.7747233513
21
197.9106593528
31
0.0000000000
11
59.7646824162
21
198.0728709893
31
0.0000000000
11
59.7611565489
21
198.2642131711
31
0.0000000000
0
SPLINE
5
36E
100
AcDbEntity
8
0
100
AcDbSpline
62
7
6
CONTINUOUS
70
0
71
3
72
15
73
11
74
9
42
0.0000001000
43
0.0000001000
44
0.0000000001
12
-3.5470780747
22
0.0001861976
32
0.0000000000
13
-2.8096221521
23
-2.1651296186
33
0.0000000000
40
0.0000000000
40
0.0000000000
40
0.0000000000
40
0.0000000000
40
0.0978407480
40
0.2044018376
40
0.3194667373
40
0.4436287472
40
0.5782097596
40
0.7223438100
40
0.8683676488
40
1.0000000000
40
1.0000000000
40
1.0000000000
40
1.0000000000
10
59.7611565489
20
198.2642131711
30
0.0000000000
10
59.6454736249
20
198.2642192437
30
0.0000000000
10
59.4035665293
20
198.2473968792
30
0.0000000000
10
59.0322296208
20
198.1734687544
30
0.0000000000
10
58.6425924970
20
198.0467631073
30
0.0000000000
10
58.2384476194
20
197.8660913003
30
0.0000000000
10
57.8226557249
20
197.6325477512
30
0.0000000000
10
57.4036721108
20
197.3551070412
30
0.0000000000
10
57.0018618256
20
197.0595460172
30
0.0000000000
10
56.7417919606
20
196.8592005564
30
0.0000000000
10
56.6185129040
20
196.7642001889
30
0.0000000000
11
59.7611565489
21
198.2642131711
31
0.0000000000
11
59.4148762082
21
198.2411312278
31
0.0000000000
11
59.0439358826
21
198.1685189900
31
0.0000000000
11
58.6553698402
21
198.0436266158
31
0.0000000000
11
58.2526376293
21
197.8653857713
31
0.0000000000
11
57.8354787076
21
197.6333083291
31
0.0000000000
11
57.4079576701
21
197.3529386411
31
0.0000000000
11
56.9893784205
21
197.0478618348
31
0.0000000000
11
56.6185129040
21
196.7642001889
31
0.0000000000
0
SPLINE
5
36F
100
AcDbEntity
8
0
100
AcDbSpline
62
7
6
CONTINUOUS
70
0
71
3
72
20
73
16
74
14
42
0.0000001000
43
0.0000001000
44
0.0000000001
12
-0.0002086178
22
-0.7446431185
32
0.0000000000
13
0.6520937882
23
-0.3595373538
33
0.0000000000
40
0.0000000000
40
0.0000000000
40
0.0000000000
40
0.0000000000
40
0.1263472633
40
0.2409547476
40
0.3450376947
40
0.4396998374
40
0.5260625746
40
0.6049622871
40
0.6770152923
40
0.7428727142
40
0.8031799756
40
0.8584775554
40
0.9092733879
40
0.9561024193
40
1.0000000000
40
1.0000000000
40
1.0000000000
40
1.0000000000
10
85.2066105927
20
200.4498427724
30
0.0000000000
10
85.2066018066
20
200.4184815657
30
0.0000000000
10
85.2107982393
20
200.3585878194
30
0.0000000000
10
85.2279171954
20
200.2744682104
30
0.0000000000
10
85.2522772562
20
200.2004238982
30
0.0000000000
10
85.2816658560
20
200.1359089188
30
0.0000000000
10
85.3140049796
20
200.0799787025
30
0.0000000000
10
85.3478618506
20
200.0316923424
30
0.0000000000
10
85.3822199306
20
199.9902030337
30
0.0000000000
10
85.4163405901
20
199.9547007610
30
0.0000000000
10
85.4496495682
20
199.9243377003
30
0.0000000000
10
85.4818061091
20
199.8983809923
30
0.0000000000
10
85.5126188275
20
199.8761837794
30
0.0000000000
10
85.5421397907
20
199.8571214476
30
0.0000000000
10
85.5616030901
20
199.8457757481
30
0.0000000000
10
85.5711448700
20
199.8405148081
30
0.0000000000
11
85.2066105927
21
200.4498427724
31
0.0000000000
11
85.2131359245
21
200.3559857092
31
0.0000000000
11
85.2301286189
21
200.2723528788
31
0.0000000000
11
85.2543908054
21
200.1987436566
31
0.0000000000
11
85.2835776244
21
200.1345805718
31
0.0000000000
11
85.3157571015
21
200.0789012865
31
0.0000000000
11
85.3494904170
21
200.0307985190
31
0.0000000000
11
85.3837162246
21
199.9894787679
31
0.0000000000
11
85.4176886165
21
199.9541117571
31
0.0000000000
11
85.4508739565
21
199.9238560669
31
0.0000000000
11
85.4829136925
21
199.8979910775
31
0.0000000000
11
85.5136058443
21
199.8758844057
31
0.0000000000
11
85.5428946437
21
199.8569596309
31
0.0000000000
11
85.5711448700
21
199.8405148081
31
0.0000000000
0
SPLINE
5
370
100
AcDbEntity
8
0
100
AcDbSpline
62
7
6
CONTINUOUS
70
0
71
3
72
11
73
7
74
5
42
0.0000001000
43
0.0000001000
44
0.0000000001
12
-0.6504107407
22
-0.3586094452
32
0.0000000000
13
0.0002080255
23
-0.7427212281
33
0.0000000000
40
0.0000000000
40
0.0000000000
40
0.0000000000
40
0.0000000000
40
0.2523762745
40
0.5070210543
40
0.7574354344
40
1.0000000000
40
1.0000000000
40
1.0000000000
40
1.0000000000
10
85.5711448703
20
199.0879115423
30
0.0000000000
10
85.5164287905
20
199.0577433703
30
0.0000000000
10
85.4139075782
20
198.9824150553
30
0.0000000000
10
85.2960048193
20
198.8337361031
30
0.0000000000
10
85.2230003341
20
198.6612717017
30
0.0000000000
10
85.2065937728
20
198.5386361871
30
0.0000000000
10
85.2066105927
20
198.4785835697
30
0.0000000000
11
85.5711448703
21
199.0879115423
31
0.0000000000
11
85.4202131226
21
198.9767570576
31
0.0000000000
11
85.3027943781
21
198.8284903055
31
0.0000000000
11
85.2304215088
21
198.6571609885
31
0.0000000000
11
85.2066105927
21
198.4785835697
31
0.0000000000
0
SPLINE
5
371
100
AcDbEntity
8
0
100
AcDbSpline
62
7
6
CONTINUOUS
70
0
71
3
72
11
73
7
74
5
42
0.0000001000
43
0.0000001000
44
0.0000000001
12
0.1693545124
22
-0.4127264664
32
0.0000000000
13
-0.4087049051
23
-0.1788417946
33
0.0000000000
40
0.0000000000
40
0.0000000000
40
0.0000000000
40
0.0000000000
40
0.3859024990
40
0.7035064082
40
0.9120791689
40
1.0000000000
40
1.0000000000
40
1.0000000000
40
1.0000000000
10
85.5711455557
20
199.0879115421
30
0.0000000000
10
85.5929303322
20
199.0348208171
30
0.0000000000
10
85.6300385879
20
198.9386341328
30
0.0000000000
10
85.6714648970
20
198.8036083128
30
0.0000000000
10
85.6892045684
20
198.7250379724
30
0.0000000000
10
85.6911385778
20
198.6670657484
30
0.0000000000
10
85.6791606862
20
198.6618244420
30
0.0000000000
11
85.5711455557
21
199.0879115421
31
0.0000000000
11
85.6320899702
21
198.9269003860
31
0.0000000000
11
85.6732476880
21
198.7913199731
31
0.0000000000
11
85.6894084958
21
198.6996854117
31
0.0000000000
11
85.6791606862
21
198.6618244420
31
0.0000000000
0
SPLINE
5
372
100
AcDbEntity
8
0
100
AcDbSpline
62
7
6
CONTINUOUS
70
0
71
3
72
10
73
6
74
4
42
0.0000001000
43
0.0000001000
44
0.0000000001
12
-0.0239086707
22
0.0582667744
32
0.0000000000
13
0.0000000000
23
0.0629812793
33
0.0000000000
40
0.0000000000
40
0.0000000000
40
0.0000000000
40
0.0000000000
40
0.3214752640
40
0.6546164166
40
1.0000000000
40
1.0000000000
40
1.0000000000
40
1.0000000000
10
85.5711448703
20
199.0879115423
30
0.0000000000
10
85.5685828549
20
199.0941553178
30
0.0000000000
10
85.5641793158
20
199.1072228321
30
0.0000000000
10
85.5601734149
20
199.1278888297
30
0.0000000000
10
85.5593029517
20
199.1421530630
30
0.0000000000
10
85.5593029517
20
199.1494039630
30
0.0000000000
11
85.5711448703
21
199.0879115423
31
0.0000000000
11
85.5646873637
21
199.1071010841
31
0.0000000000
11
85.5606678489
21
199.1276941263
31
0.0000000000
11
85.5593029517
21
199.1494039630
31
0.0000000000
0
SPLINE
5
373
100
AcDbEntity
8
0
100
AcDbSpline
62
7
6
CONTINUOUS
70
0
71
3
72
10
73
6
74
4
42
0.0000001000
43
0.0000001000
44
0.0000000001
12
-0.0239086764
22
-0.0582667803
32
0.0000000000
13
0.0000000000
23
-0.0629812869
33
0.0000000000
40
0.0000000000
40
0.0000000000
40
0.0000000000
40
0.0000000000
40
0.3214752642
40
0.6546164165
40
1.0000000000
40
1.0000000000
40
1.0000000000
40
1.0000000000
10
85.5711448700
20
199.8405148081
30
0.0000000000
10
85.5685828539
20
199.8342710319
30
0.0000000000
10
85.5641793186
20
199.8212035145
30
0.0000000000
10
85.5601734146
20
199.8005375152
30
0.0000000000
10
85.5593029517
20
199.7862732800
30
0.0000000000
10
85.5593029517
20
199.7790223792
30
0.0000000000
11
85.5711448700
21
199.8405148081
31
0.0000000000
11
85.5646873650
21
199.8213252631
31
0.0000000000
11
85.5606678493
21
199.8007322185
31
0.0000000000
11
85.5593029517
21
199.7790223792
31
0.0000000000
0
SPLINE
5
374
100
AcDbEntity
8
0
100
AcDbSpline
62
7
6
CONTINUOUS
70
0
71
3
72
11
73
7
74
5
42
0.0000001000
43
0.0000001000
44
0.0000000001
12
0.1693545262
22
0.4127264425
32
0.0000000000
13
-0.4087048815
23
0.1788418065
33
0.0000000000
40
0.0000000000
40
0.0000000000
40
0.0000000000
40
0.0000000000
40
0.3859025102
40
0.7035064252
40
0.9120791887
40
1.0000000000
40
1.0000000000
40
1.0000000000
40
1.0000000000
10
85.5711455549
20
199.8405148083
30
0.0000000000
10
85.5929303339
20
199.8936055317
30
0.0000000000
10
85.6300385889
20
199.9897922131
30
0.0000000000
10
85.6714649052
20
200.1248180341
30
0.0000000000
10
85.6892045561
20
200.2033883650
30
0.0000000000
10
85.6911385889
20
200.2613605883
30
0.0000000000
10
85.6791607007
20
200.2666018938
30
0.0000000000
11
85.5711455549
21
199.8405148083
31
0.0000000000
11
85.6320899732
21
200.0015259613
31
0.0000000000
11
85.6732476894
21
200.1371063718
31
0.0000000000
11
85.6894084963
21
200.2287409310
31
0.0000000000
11
85.6791607007
21
200.2666018938
31
0.0000000000
0
SPLINE
5
375
100
AcDbEntity
8
0
100
AcDbSpline
62
7
6
CONTINUOUS
70
0
71
3
72
12
73
8
74
6
42
0.0000001000
43
0.0000001000
44
0.0000000001
12
-0.0000429250
22
1.0273608632
32
0.0000000000
13
-1.0273608354
23
0.0002425814
33
0.0000000000
40
0.0000000000
40
0.0000000000
40
0.0000000000
40
0.0000000000
40
0.2813553379
40
0.5573526799
40
0.7831974509
40
0.9322982023
40
1.0000000000
40
1.0000000000
40
1.0000000000
40
1.0000000000
10
85.2066105927
20
201.6642131711
30
0.0000000000
10
85.2066065670
20
201.7605643254
30
0.0000000000
10
85.2024654272
20
201.9520514259
30
0.0000000000
10
85.1860182150
20
202.2173247434
30
0.0000000000
10
85.1541718463
20
202.4453031723
30
0.0000000000
10
85.1256151619
20
202.5795906735
30
0.0000000000
10
85.0824876769
20
202.6642076967
30
0.0000000000
10
85.0593029517
20
202.6642131711
30
0.0000000000
11
85.2066105927
21
201.6642131711
31
0.0000000000
11
85.2004982599
21
201.9532020011
31
0.0000000000
11
85.1807265241
21
202.2360606918
31
0.0000000000
11
85.1482964787
21
202.4658072161
31
0.0000000000
11
85.1065811928
21
202.6131979625
31
0.0000000000
11
85.0593029517
21
202.6642131711
31
0.0000000000
0
SPLINE
5
376
100
AcDbEntity
8
0
100
AcDbSpline
62
7
6
CONTINUOUS
70
0
71
3
72
11
73
7
74
5
42
0.0000001000
43
0.0000001000
44
0.0000000001
12
-0.5007146165
22
0.0000000000
32
0.0000000000
13
0.0000000000
23
-0.5007146165
33
0.0000000000
40
0.0000000000
40
0.0000000000
40
0.0000000000
40
0.0000000000
40
0.0770787309
40
0.2938130949
40
0.6178543003
40
1.0000000000
40
1.0000000000
40
1.0000000000
40
1.0000000000
10
68.6573508687
20
122.5642131711
30
0.0000000000
10
68.6444860530
20
122.5642131711
30
0.0000000000
10
68.6602724602
20
122.4862429086
30
0.0000000000
10
68.6379456368
20
122.4093358284
30
0.0000000000
10
68.6439438145
20
122.2421147073
30
0.0000000000
10
68.6406290197
20
122.1279951502
30
0.0000000000
10
68.6406290197
20
122.0642131711
30
0.0000000000
11
68.6573508687
21
122.5642131711
31
0.0000000000
11
68.6509516936
21
122.5261529306
31
0.0000000000
11
68.6455267354
21
122.4177665467
31
0.0000000000
11
68.6419018945
21
122.2555548748
31
0.0000000000
11
68.6406290197
21
122.0642131711
31
0.0000000000
0
SPLINE
5
377
100
AcDbEntity
8
0
100
AcDbSpline
62
7
6
CONTINUOUS
70
0
71
3
72
11
73
7
74
5
42
0.0000001000
43
0.0000001000
44
0.0000000001
12
0.5435010936
22
0.0000000000
32
0.0000000000
13
-0.0000000000
23
-0.5435010936
33
0.0000000000
40
0.0000000000
40
0.0000000000
40
0.0000000000
40
0.0000000000
40
0.1239149253
40
0.3417971424
40
0.6465016213
40
1.0000000000
40
1.0000000000
40
1.0000000000
40
1.0000000000
10
86.6593029517
20
124.0642131711
30
0.0000000000
10
86.6817522509
20
124.0642131711
30
0.0000000000
10
86.7339874045
20
124.0138382483
30
0.0000000000
10
86.7699368348
20
123.9048487730
30
0.0000000000
10
86.8007734527
20
123.7474401988
30
0.0000000000
10
86.8066105927
20
123.6282554229
30
0.0000000000
10
86.8066105927
20
123.5642131711
30
0.0000000000
11
86.6593029517
21
124.0642131711
31
0.0000000000
11
86.7152593849
21
124.0267349525
31
0.0000000000
11
86.7632551002
21
123.9184782033
31
0.0000000000
11
86.7953419505
21
123.7560091769
31
0.0000000000
11
86.8066105927
21
123.5642131711
31
0.0000000000
0
SPLINE
5
378
100
AcDbEntity
8
0
100
AcDbSpline
62
7
6
CONTINUOUS
70
0
71
3
72
10
73
6
74
4
42
0.0000001000
43
0.0000001000
44
0.0000000001
12
1.3693009126
22
0.4859252358
32
0.0000000000
13
1.3693009353
23
0.4859251720
33
0.0000000000
40
0.0000000000
40
0.0000000000
40
0.0000000000
40
0.0000000000
40
0.3348161807
40
0.6681898687
40
1.0000000000
40
1.0000000000
40
1.0000000000
40
1.0000000000
10
85.4373073073
20
118.6642131711
30
0.0000000000
10
85.5901286746
20
118.7184450483
30
0.0000000000
10
85.8951133252
20
118.8266742580
30
0.0000000000
10
86.3515455587
20
118.9886532932
30
0.0000000000
10
86.6551612850
20
119.0963867554
30
0.0000000000
10
86.8066105927
20
119.1501317205
30
0.0000000000
11
85.4373073073
21
118.6642131711
31
0.0000000000
11
85.8957714127
21
118.8269087929
31
0.0000000000
11
86.3522603190
21
118.9889034493
31
0.0000000000
11
86.8066105927
21
119.1501317205
31
0.0000000000
0
SPLINE
5
379
100
AcDbEntity
8
0
100
AcDbSpline
62
7
6
CONTINUOUS
70
0
71
3
72
11
73
7
74
5
42
0.0000001000
43
0.0000001000
44
0.0000000001
12
0.5293476765
22
0.1926656365
32
0.0000000000
13
0.1838881027
23
-0.5324604923
33
0.0000000000
40
0.0000000000
40
0.0000000000
40
0.0000000000
40
0.0000000000
40
0.1061150288
40
0.3258074041
40
0.6397056694
40
1.0000000000
40
1.0000000000
40
1.0000000000
40
1.0000000000
10
85.1532221768
20
119.1340594815
30
0.0000000000
10
85.1719460914
20
119.1408743880
30
0.0000000000
10
85.2315602962
20
119.0923267895
30
0.0000000000
10
85.2905969090
20
118.9985014739
30
0.0000000000
10
85.3699336669
20
118.8453739430
30
0.0000000000
10
85.4152226466
20
118.7281606700
30
0.0000000000
10
85.4373072602
20
118.6642131711
30
0.0000000000
11
85.1532221768
21
119.1340594815
31
0.0000000000
11
85.2076443553
21
119.1093314031
31
0.0000000000
11
85.2815834230
21
119.0100902001
31
0.0000000000
11
85.3626619237
21
118.8529489353
31
0.0000000000
11
85.4373072602
21
118.6642131711
31
0.0000000000
0
SPLINE
5
37A
100
AcDbEntity
8
0
100
AcDbSpline
62
7
6
CONTINUOUS
70
0
71
3
72
12
73
8
74
6
42
0.0000001000
43
0.0000001000
44
0.0000000001
12
0.5550899176
22
0.2020362074
32
0.0000000000
13
0.1912806077
23
-0.5588874438
33
0.0000000000
40
0.0000000000
40
0.0000000000
40
0.0000000000
40
0.0000000000
40
0.0909542694
40
0.2440152381
40
0.4620991079
40
0.7246538790
40
1.0000000000
40
1.0000000000
40
1.0000000000
40
1.0000000000
10
86.4882928801
20
119.6199854781
30
0.0000000000
10
86.5051221460
20
119.6261108300
30
0.0000000000
10
86.5570776734
20
119.6067833227
30
0.0000000000
10
86.6161733570
20
119.5390245970
30
0.0000000000
10
86.6865185821
20
119.4347582040
30
0.0000000000
10
86.7511101533
20
119.3004577215
30
0.0000000000
10
86.7890544683
20
119.2014349976
30
0.0000000000
10
86.8066105927
20
119.1501391677
30
0.0000000000
11
86.4882928801
21
119.6199854781
31
0.0000000000
11
86.5409711203
21
119.6094166480
31
0.0000000000
11
86.6067924932
21
119.5474289451
31
0.0000000000
11
86.6790520732
21
119.4407776264
31
0.0000000000
11
86.7481078858
21
119.3019046128
31
0.0000000000
11
86.8066105927
21
119.1501391677
31
0.0000000000
0
SPLINE
5
37B
100
AcDbEntity
8
0
100
AcDbSpline
62
7
6
CONTINUOUS
70
0
71
3
72
9
73
5
74
3
42
0.0000001000
43
0.0000001000
44
0.0000000001
12
0.3349319815
22
0.2338042765
32
0.0000000000
13
0.3331078676
23
0.2363958978
33
0.0000000000
40
0.0000000000
40
0.0000000000
40
0.0000000000
40
0.0000000000
40
0.4942504158
40
1.0000000000
40
1.0000000000
40
1.0000000000
40
1.0000000000
10
85.1032554228
20
118.4291545307
30
0.0000000000
10
85.1584355132
20
118.4676738176
30
0.0000000000
10
85.2699517465
20
118.5457918630
30
0.0000000000
10
85.3811509188
20
118.6243607954
30
0.0000000000
10
85.4373073073
20
118.6642131711
30
0.0000000000
11
85.1032554228
21
118.4291545307
31
0.0000000000
11
85.2685919498
21
118.5450037147
31
0.0000000000
11
85.4373073073
21
118.6642131711
31
0.0000000000
0
SPLINE
5
37C
100
AcDbEntity
8
0
100
AcDbSpline
62
7
6
CONTINUOUS
70
0
71
3
72
12
73
8
74
6
42
0.0000001000
43
0.0000001000
44
0.0000000001
12
0.6142109304
22
0.2235724322
32
0.0000000000
13
0.2017526108
23
-0.6217198594
33
0.0000000000
40
0.0000000000
40
0.0000000000
40
0.0000000000
40
0.0000000000
40
0.0618087050
40
0.2150425049
40
0.4438461030
40
0.7178642109
40
1.0000000000
40
1.0000000000
40
1.0000000000
40
1.0000000000
10
84.8303130234
20
119.0165301613
30
0.0000000000
10
84.8429675508
20
119.0211364021
30
0.0000000000
10
84.8782014662
20
118.9665203519
30
0.0000000000
10
84.9199278810
20
118.8963554441
30
0.0000000000
10
84.9816252523
20
118.7589965683
30
0.0000000000
10
85.0439512465
20
118.6026411296
30
0.0000000000
10
85.0842821923
20
118.4876235928
30
0.0000000000
10
85.1032560696
20
118.4291537851
30
0.0000000000
11
84.8303130234
21
119.0165301613
31
0.0000000000
11
84.8619811524
21
118.9914439046
31
0.0000000000
11
84.9128254506
21
118.9051496363
31
0.0000000000
11
84.9758486557
21
118.7695231711
31
0.0000000000
11
85.0423774476
21
118.6032294333
31
0.0000000000
11
85.1032560696
21
118.4291537851
31
0.0000000000
0
SPLINE
5
37D
100
AcDbEntity
8
0
100
AcDbSpline
62
7
6
CONTINUOUS
70
0
71
3
72
12
73
8
74
6
42
0.0000001000
43
0.0000001000
44
0.0000000001
12
0.6425845112
22
-0.8678557402
32
0.0000000000
13
0.8850863641
23
0.6186360544
33
0.0000000000
40
0.0000000000
40
0.0000000000
40
0.0000000000
40
0.0000000000
40
0.2564256397
40
0.4695657943
40
0.6519688792
40
0.8267070660
40
1.0000000000
40
1.0000000000
40
1.0000000000
40
1.0000000000
10
84.1714806357
20
118.6642131711
30
0.0000000000
10
84.2264056838
20
118.5900330167
30
0.0000000000
10
84.3399902795
20
118.4623867568
30
0.0000000000
10
84.5426899992
20
118.3358579018
30
0.0000000000
10
84.7492334507
20
118.2961377245
30
0.0000000000
10
84.9404886412
20
118.3330540838
30
0.0000000000
10
85.0521290185
20
118.3934194450
30
0.0000000000
10
85.1032554228
20
118.4291545307
30
0.0000000000
11
84.1714806357
21
118.6642131711
31
0.0000000000
11
84.3601244792
21
118.4615099242
31
0.0000000000
11
84.5581351865
21
118.3441827261
31
0.0000000000
11
84.7518590893
21
118.3085759246
31
0.0000000000
11
84.9375192045
21
118.3422657743
31
0.0000000000
11
85.1032554228
21
118.4291545307
31
0.0000000000
0
SPLINE
5
37E
100
AcDbEntity
8
0
100
AcDbSpline
62
7
6
CONTINUOUS
70
0
71
3
72
11
73
7
74
5
42
0.0000001000
43
0.0000001000
44
0.0000000001
12
0.3818479458
22
-0.2647012898
32
0.0000000000
13
-0.2596256438
23
-0.3853169496
33
0.0000000000
40
0.0000000000
40
0.0000000000
40
0.0000000000
40
0.0000000000
40
0.0894749634
40
0.3024204646
40
0.6194949133
40
1.0000000000
40
1.0000000000
40
1.0000000000
40
1.0000000000
10
84.3746893596
20
119.0753125335
30
0.0000000000
10
84.3860779699
20
119.0674178208
30
0.0000000000
10
84.3677976824
20
119.0070701244
30
0.0000000000
10
84.3341270063
20
118.9311504589
30
0.0000000000
10
84.2618565190
20
118.8024475147
30
0.0000000000
10
84.2044090854
20
118.7130848589
30
0.0000000000
10
84.1714794593
20
118.6642131725
30
0.0000000000
11
84.3746893596
21
119.0753125335
31
0.0000000000
11
84.3754223989
21
119.0337468618
31
0.0000000000
11
84.3376459783
21
118.9423031809
31
0.0000000000
11
84.2664616454
21
118.8133225363
31
0.0000000000
11
84.1714794593
21
118.6642131725
31
0.0000000000
0
SPLINE
5
37F
100
AcDbEntity
8
0
100
AcDbSpline
62
7
6
CONTINUOUS
70
0
71
3
72
11
73
7
74
5
42
0.0000001000
43
0.0000001000
44
0.0000000001
12
-0.0003010508
22
-0.9691899028
32
0.0000000000
13
0.8033225973
23
-0.5422194785
33
0.0000000000
40
0.0000000000
40
0.0000000000
40
0.0000000000
40
0.0000000000
40
0.2479900596
40
0.4968321789
40
0.7472508983
40
1.0000000000
40
1.0000000000
40
1.0000000000
40
1.0000000000
10
83.7296875158
20
119.4863764717
30
0.0000000000
10
83.7296626299
20
119.4062599844
30
0.0000000000
10
83.7496877987
20
119.2450515628
30
0.0000000000
10
83.8380191139
20
119.0178605490
30
0.0000000000
10
83.9794553207
20
118.8174736979
30
0.0000000000
10
84.1038009474
20
118.7098949998
30
0.0000000000
10
84.1714806357
20
118.6642131711
30
0.0000000000
11
83.7296875158
21
119.4863764717
31
0.0000000000
11
83.7592964345
21
119.2478577486
31
0.0000000000
11
83.8464984945
21
119.0229993110
31
0.0000000000
11
83.9863761458
21
118.8246583485
31
0.0000000000
11
84.1714806357
21
118.6642131711
31
0.0000000000
0
SPLINE
5
380
100
AcDbEntity
8
0
100
AcDbSpline
62
7
6
CONTINUOUS
70
0
71
3
72
14
73
10
74
8
42
0.0000001000
43
0.0000001000
44
0.0000000001
12
-1.8304614367
22
0.6504330791
32
0.0000000000
13
0.0001472530
23
-1.9425890558
33
0.0000000000
40
0.0000000000
40
0.0000000000
40
0.0000000000
40
0.0000000000
40
0.1478494383
40
0.2941668313
40
0.4383325083
40
0.5802433166
40
0.7207053843
40
0.8607572543
40
1.0000000000
40
1.0000000000
40
1.0000000000
40
1.0000000000
10
85.1061184320
20
123.1817424913
30
0.0000000000
10
85.0159075336
20
123.2137978798
30
0.0000000000
10
84.8265405945
20
123.2527982408
30
0.0000000000
10
84.5400852251
20
123.2327935085
30
0.0000000000
10
84.2727767880
20
123.1385871393
30
0.0000000000
10
84.0433443874
20
122.9788802863
30
0.0000000000
10
83.8666765643
20
122.7655760471
30
0.0000000000
10
83.7551181094
20
122.5140616412
30
0.0000000000
10
83.7296806812
20
122.3322136819
30
0.0000000000
10
83.7296875158
20
122.2420498705
30
0.0000000000
11
85.1061184320
21
123.1817424913
31
0.0000000000
11
84.8248282283
21
123.2397580782
31
0.0000000000
11
84.5412811054
21
123.2200016016
31
0.0000000000
11
84.2772175749
21
123.1267220838
31
0.0000000000
11
84.0510999539
21
122.9690287503
31
0.0000000000
11
83.8772276585
21
122.7587407428
31
0.0000000000
11
83.7671714741
21
122.5099315033
31
0.0000000000
11
83.7296875158
21
122.2420498705
31
0.0000000000
0
SPLINE
5
381
100
AcDbEntity
8
0
100
AcDbSpline
62
7
6
CONTINUOUS
70
0
71
3
72
11
73
7
74
5
42
0.0000001000
43
0.0000001000
44
0.0000000001
12
0.5237563101
22
-0.1906343933
32
0.0000000000
13
0.1831796224
23
0.5264098880
33
0.0000000000
40
0.0000000000
40
0.0000000000
40
0.0000000000
40
0.0000000000
40
0.1027693732
40
0.3221692642
40
0.6373428445
40
1.0000000000
40
1.0000000000
40
1.0000000000
40
1.0000000000
10
84.8303107693
20
122.7118899978
30
0.0000000000
10
84.8482528052
20
122.7053595388
30
0.0000000000
10
84.9049585824
20
122.7564290413
30
0.0000000000
10
84.9613799161
20
122.8483137512
30
0.0000000000
10
85.0390555948
20
123.0017032459
30
0.0000000000
10
85.0839722418
20
123.1181070552
30
0.0000000000
10
85.1061160421
20
123.1817424928
30
0.0000000000
11
84.8303107693
21
122.7118899978
31
0.0000000000
11
84.8815621337
21
122.7374706463
31
0.0000000000
11
84.9527255904
21
122.8369185844
31
0.0000000000
11
85.0319688129
21
122.9936985096
31
0.0000000000
11
85.1061160421
21
123.1817424928
31
0.0000000000
0
SPLINE
5
382
100
AcDbEntity
8
0
100
AcDbSpline
62
7
6
CONTINUOUS
70
0
71
3
72
11
73
7
74
5
42
0.0000001000
43
0.0000001000
44
0.0000000001
12
0.0000000000
22
0.3527214100
32
0.0000000000
13
-0.3527027691
23
-0.0036262566
33
0.0000000000
40
0.0000000000
40
0.0000000000
40
0.0000000000
40
0.0000000000
40
0.0736072539
40
0.2995723207
40
0.6277185077
40
1.0000000000
40
1.0000000000
40
1.0000000000
40
1.0000000000
10
87.1593029517
20
122.5782871745
30
0.0000000000
10
87.1593029517
20
122.5869414593
30
0.0000000000
10
87.1026975687
20
122.5674912122
30
0.0000000000
10
87.0487761327
20
122.5829846228
30
0.0000000000
10
86.9300483411
20
122.5772578502
30
0.0000000000
10
86.8503788305
20
122.5787371705
30
0.0000000000
10
86.8066105927
20
122.5782871745
30
0.0000000000
11
87.1593029517
21
122.5782871745
31
0.0000000000
11
87.1333499937
21
122.5790039586
31
0.0000000000
11
87.0536593187
21
122.5776185337
31
0.0000000000
11
86.9379212217
21
122.5788057326
31
0.0000000000
11
86.8066105927
21
122.5782871745
31
0.0000000000
0
SPLINE
5
383
100
AcDbEntity
8
0
100
AcDbSpline
62
7
6
CONTINUOUS
70
0
71
3
72
9
73
5
74
3
42
0.0000001000
43
0.0000001000
44
0.0000000001
12
-1.7004666566
22
0.6034470873
32
0.0000000000
13
-1.7004669696
23
0.6034462053
33
0.0000000000
40
0.0000000000
40
0.0000000000
40
0.0000000000
40
0.0000000000
40
0.4967718054
40
1.0000000000
40
1.0000000000
40
1.0000000000
40
1.0000000000
10
86.8066105927
20
122.5783672821
30
0.0000000000
10
86.5250292957
20
122.6782924485
30
0.0000000000
10
85.9581690886
20
122.8793344153
30
0.0000000000
10
85.3913594064
20
123.0805187765
30
0.0000000000
10
85.1061184320
20
123.1817424913
30
0.0000000000
11
86.8066105927
21
122.5783672821
31
0.0000000000
11
85.9618414274
21
122.8780715505
31
0.0000000000
11
85.1061184320
21
123.1817424913
31
0.0000000000
0
SPLINE
5
384
100
AcDbEntity
8
0
100
AcDbSpline
62
7
6
CONTINUOUS
70
0
71
3
72
12
73
8
74
6
42
0.0000001000
43
0.0000001000
44
0.0000000001
12
0.5551070477
22
-0.2020424423
32
0.0000000000
13
0.1863366896
23
0.5605743671
33
0.0000000000
40
0.0000000000
40
0.0000000000
40
0.0000000000
40
0.0000000000
40
0.0903836967
40
0.2422430714
40
0.4577205274
40
0.7188929582
40
1.0000000000
40
1.0000000000
40
1.0000000000
40
1.0000000000
10
86.4882928800
20
122.1084408641
30
0.0000000000
10
86.5050170890
20
122.1023537498
30
0.0000000000
10
86.5565875464
20
122.1214105771
30
0.0000000000
10
86.6155097133
20
122.1882298011
30
0.0000000000
10
86.6849226297
20
122.2918768439
30
0.0000000000
10
86.7506511006
20
122.4259500159
30
0.0000000000
10
86.7891504076
20
122.5257600404
30
0.0000000000
10
86.8066105928
20
122.5782871745
30
0.0000000000
11
86.4882928800
21
122.1084408641
31
0.0000000000
11
86.5406620932
21
122.1188444524
31
0.0000000000
11
86.6061720079
21
122.1801308838
31
0.0000000000
11
86.6775674574
21
122.2855126674
31
0.0000000000
11
86.7469413942
21
122.4233187660
31
0.0000000000
11
86.8066105928
21
122.5782871745
31
0.0000000000
0
SPLINE
5
385
100
AcDbEntity
8
0
100
AcDbSpline
62
7
6
CONTINUOUS
70
0
71
3
72
13
73
9
74
7
42
0.0000001000
43
0.0000001000
44
0.0000000001
12
-0.0000306804
22
-1.0281078072
32
0.0000000000
13
-1.0281073933
23
0.0009231074
33
0.0000000000
40
0.0000000000
40
0.0000000000
40
0.0000000000
40
0.0000000000
40
0.2155714461
40
0.4413006281
40
0.6533689343
40
0.8273290539
40
0.9443239603
40
1.0000000000
40
1.0000000000
40
1.0000000000
40
1.0000000000
10
86.8066105927
20
118.6642131711
30
0.0000000000
10
86.8066083881
20
118.5903362755
30
0.0000000000
10
86.8043148241
20
118.4391823146
30
0.0000000000
10
86.7927278023
20
118.2150781307
30
0.0000000000
10
86.7739589705
20
118.0076577596
30
0.0000000000
10
86.7436462767
20
117.8334831345
30
0.0000000000
10
86.7176098351
20
117.7265910921
30
0.0000000000
10
86.6783832678
20
117.6641960394
30
0.0000000000
10
86.6593029517
20
117.6642131711
30
0.0000000000
11
86.8066105927
21
118.6642131711
31
0.0000000000
11
86.8030474124
21
118.4426111289
31
0.0000000000
11
86.7909788095
21
118.2108512103
31
0.0000000000
11
86.7693435875
21
117.9938982258
31
0.0000000000
11
86.7386687628
21
117.8176986493
31
0.0000000000
11
86.7009498521
21
117.7034822997
31
0.0000000000
11
86.6593029517
21
117.6642131711
31
0.0000000000
0
SPLINE
5
386
100
AcDbEntity
8
0
100
AcDbSpline
62
7
6
CONTINUOUS
70
0
71
3
72
11
73
7
74
5
42
0.0000001000
43
0.0000001000
44
0.0000000001
12
-0.5053050930
22
0.0000000000
32
0.0000000000
13
-0.0000000000
23
-0.5053050930
33
0.0000000000
40
0.0000000000
40
0.0000000000
40
0.0000000000
40
0.0000000000
40
0.0830895569
40
0.2996382045
40
0.6212699346
40
1.0000000000
40
1.0000000000
40
1.0000000000
40
1.0000000000
10
59.8074766395
20
122.5642131711
30
0.0000000000
10
59.7934814474
20
122.5642131711
30
0.0000000000
10
59.7869834502
20
122.4910170449
30
0.0000000000
10
59.7700873852
20
122.4075870234
30
0.0000000000
10
59.7638629093
20
122.2430789794
30
0.0000000000
10
59.7611565489
20
122.1280045814
30
0.0000000000
10
59.7611565489
20
122.0642131711
30
0.0000000000
11
59.8074766395
21
122.5642131711
31
0.0000000000
11
59.7897507120
21
122.5261529542
31
0.0000000000
11
59.7747233928
21
122.4177665988
31
0.0000000000
11
59.7646824571
21
122.2555549184
31
0.0000000000
11
59.7611565489
21
122.0642131711
31
0.0000000000
0
SPLINE
5
387
100
AcDbEntity
8
0
100
AcDbSpline
62
7
6
CONTINUOUS
70
0
71
3
72
20
73
16
74
14
42
0.0000001000
43
0.0000001000
44
0.0000000001
12
-0.0002088055
22
-1.4081523518
32
0.0000000000
13
1.4081711751
23
-0.0010847274
33
0.0000000000
40
0.0000000000
40
0.0000000000
40
0.0000000000
40
0.0000000000
40
0.0670635064
40
0.1393444502
40
0.2164485727
40
0.2977212873
40
0.3822163288
40
0.4687303621
40
0.5558519883
40
0.6417873041
40
0.7245659964
40
0.8027608405
40
0.8754033540
40
0.9416130063
40
1.0000000000
40
1.0000000000
40
1.0000000000
40
1.0000000000
10
45.2077868933
20
118.6642131711
30
0.0000000000
10
45.2077822255
20
118.6327346263
30
0.0000000000
10
45.2102633022
20
118.5673030322
30
0.0000000000
10
45.2220514828
20
118.4662824413
30
0.0000000000
10
45.2437643793
20
118.3600665987
30
0.0000000000
10
45.2769436950
20
118.2508130703
30
0.0000000000
10
45.3227945207
20
118.1413887393
30
0.0000000000
10
45.3819012667
20
118.0353056149
30
0.0000000000
10
45.4539118024
20
117.9366138996
30
0.0000000000
10
45.5371892092
20
117.8495628844
30
0.0000000000
10
45.6287431311
20
117.7778181986
30
0.0000000000
10
45.7245811401
20
117.7236565552
30
0.0000000000
10
45.8202822382
20
117.6875537395
30
0.0000000000
10
45.9111577179
20
117.6682265181
30
0.0000000000
10
45.9697091029
20
117.6642344631
30
0.0000000000
10
45.9971153967
20
117.6642133518
30
0.0000000000
11
45.2077868933
21
118.6642131711
31
0.0000000000
11
45.2113535363
21
118.5698449123
31
0.0000000000
11
45.2231763073
21
118.4687513115
31
0.0000000000
11
45.2449664718
21
118.3623860033
31
0.0000000000
11
45.2783018372
21
118.2529041958
31
0.0000000000
11
45.3243995991
21
118.1432151483
31
0.0000000000
11
45.3838502405
21
118.0368810643
31
0.0000000000
11
45.4563501098
21
117.9379150095
31
0.0000000000
11
45.5401991022
21
117.8506638146
31
0.0000000000
11
45.6321215666
21
117.7789863256
31
0.0000000000
11
45.7281028233
21
117.7250246113
31
0.0000000000
11
45.8238716533
21
117.6890812023
31
0.0000000000
11
45.9150852425
21
117.6697802850
31
0.0000000000
11
45.9971153967
21
117.6642133518
31
0.0000000000
0
SPLINE
5
388
100
AcDbEntity
8
0
100
AcDbSpline
62
7
6
CONTINUOUS
70
0
71
3
72
20
73
16
74
14
42
0.0000001000
43
0.0000001000
44
0.0000000001
12
-1.4081674770
22
-0.0011208328
32
0.0000000000
13
-0.0000825949
23
-1.4081487961
33
0.0000000000
40
0.0000000000
40
0.0000000000
40
0.0000000000
40
0.0000000000
40
0.0556661946
40
0.1191138298
40
0.1890618125
40
0.2647792422
40
0.3455331052
40
0.4303340053
40
0.5176476442
40
0.6056589435
40
0.6926559119
40
0.7769636710
40
0.8570779706
40
0.9317527254
40
1.0000000000
40
1.0000000000
40
1.0000000000
40
1.0000000000
10
45.9970945695
20
202.6642129781
30
0.0000000000
10
45.9709654612
20
202.6641921806
30
0.0000000000
10
45.9149968772
20
202.6605516152
30
0.0000000000
10
45.8277457263
20
202.6428354473
30
0.0000000000
10
45.7350683256
20
202.6094093689
30
0.0000000000
10
45.6412365122
20
202.5586645327
30
0.0000000000
10
45.5503263351
20
202.4904585965
30
0.0000000000
10
45.4661793398
20
202.4062089048
30
0.0000000000
10
45.3920264694
20
202.3087737273
30
0.0000000000
10
45.3300899510
20
202.2020126852
30
0.0000000000
10
45.2814164123
20
202.0901784266
30
0.0000000000
10
45.2459573780
20
201.9774074133
30
0.0000000000
10
45.2227920190
20
201.8674297225
30
0.0000000000
10
45.2103565105
20
201.7633596768
30
0.0000000000
10
45.2077887722
20
201.6962472770
30
0.0000000000
10
45.2077868933
20
201.6642131711
30
0.0000000000
11
45.9970945695
21
202.6642129781
31
0.0000000000
11
45.9188711686
21
202.6591468188
31
0.0000000000
11
45.8312979396
21
202.6414485619
31
0.0000000000
11
45.7385918742
21
202.6081727820
31
0.0000000000
11
45.6447021339
21
202.5576471328
31
0.0000000000
11
45.5535853864
21
202.4896141393
31
0.0000000000
11
45.4690086675
21
202.4053166152
31
0.0000000000
11
45.3943541306
21
202.3076255250
31
0.0000000000
11
45.3319930809
21
202.2005251548
31
0.0000000000
11
45.2829733306
21
202.0882555691
31
0.0000000000
11
45.2472744526
21
201.9750322381
31
0.0000000000
11
45.2239705049
21
201.8646525922
31
0.0000000000
11
45.2114725583
21
201.7602447875
31
0.0000000000
11
45.2077868933
21
201.6642131711
31
0.0000000000
0
SPLINE
5
389
100
AcDbEntity
8
0
100
AcDbSpline
62
7
6
CONTINUOUS
70
0
71
3
72
11
73
7
74
5
42
0.0000001000
43
0.0000001000
44
0.0000000001
12
-0.5016896785
22
0.0000000000
32
0.0000000000
13
0.0000000001
23
-0.5016896785
33
0.0000000000
40
0.0000000000
40
0.0000000000
40
0.0000000000
40
0.0000000000
40
0.0783762349
40
0.2950624338
40
0.6185853382
40
1.0000000000
40
1.0000000000
40
1.0000000000
40
1.0000000000
10
65.9412672007
20
122.5642131711
30
0.0000000000
10
65.9281603513
20
122.5642131711
30
0.0000000000
10
65.9366435739
20
122.4873264068
30
0.0000000000
10
65.9165352003
20
122.4089168969
30
0.0000000000
10
65.9185101708
20
122.2423375345
30
0.0000000000
10
65.9154614598
20
122.1279971041
30
0.0000000000
10
65.9154614598
20
122.0642131711
30
0.0000000000
11
65.9412672007
21
122.5642131711
31
0.0000000000
11
65.9313917711
21
122.5261529373
31
0.0000000000
11
65.9230197863
21
122.4177665616
31
0.0000000000
11
65.9174258048
21
122.2555548872
31
0.0000000000
11
65.9154614598
21
122.0642131711
31
0.0000000000
0
SPLINE
5
38A
100
AcDbEntity
8
0
100
AcDbSpline
62
7
6
CONTINUOUS
70
0
71
3
72
11
73
7
74
5
42
0.0000001000
43
0.0000001000
44
0.0000000001
12
0.5434671137
22
0.0000000000
32
0.0000000000
13
0.0000000000
23
0.5434671137
33
0.0000000000
40
0.0000000000
40
0.0000000000
40
0.0000000000
40
0.0000000000
40
0.1251551093
40
0.3431160588
40
0.6473199775
40
1.0000000000
40
1.0000000000
40
1.0000000000
40
1.0000000000
10
85.0593029517
20
196.2642131711
30
0.0000000000
10
85.0819755137
20
196.2642131711
30
0.0000000000
10
85.1342349413
20
196.3151318201
30
0.0000000000
10
85.1700869056
20
196.4241551139
30
0.0000000000
10
85.2007981025
20
196.5814022366
30
0.0000000000
10
85.2066105927
20
196.7003231731
30
0.0000000000
10
85.2066105927
20
196.7642131711
30
0.0000000000
11
85.0593029517
21
196.2642131711
31
0.0000000000
11
85.1156751454
21
196.3022734048
31
0.0000000000
11
85.1634651836
21
196.4106597805
31
0.0000000000
11
85.1953974662
21
196.5728714549
31
0.0000000000
11
85.2066105927
21
196.7642131711
31
0.0000000000
0
SPLINE
5
38B
100
AcDbEntity
8
0
100
AcDbSpline
62
7
6
CONTINUOUS
70
0
71
3
72
12
73
8
74
6
42
0.0000001000
43
0.0000001000
44
0.0000000001
12
2.6977412801
22
-0.0001908145
32
0.0000000000
13
2.6188140892
23
0.6477814577
33
0.0000000000
40
0.0000000000
40
0.0000000000
40
0.0000000000
40
0.0000000000
40
0.1535378797
40
0.3330598593
40
0.5420004490
40
0.7716325636
40
1.0000000000
40
1.0000000000
40
1.0000000000
40
1.0000000000
10
77.4135516407
20
122.5642131711
30
0.0000000000
10
77.5516201327
20
122.5642034053
30
0.0000000000
10
77.8510973570
20
122.5858554132
30
0.0000000000
10
78.3326849948
20
122.6624110090
30
0.0000000000
10
78.8766525867
20
122.7772912023
30
0.0000000000
10
79.4601622905
20
122.9159347133
30
0.0000000000
10
79.8599520149
20
123.0149024408
30
0.0000000000
10
80.0593026349
20
123.0642131711
30
0.0000000000
11
77.4135516407
21
122.5642131711
31
0.0000000000
11
77.8269807182
21
122.5895622371
31
0.0000000000
11
78.3058431172
21
122.6619571813
31
0.0000000000
11
78.8579283352
21
122.7756371608
31
0.0000000000
11
79.4610383285
21
122.9171425075
31
0.0000000000
11
80.0593026349
21
123.0642131711
31
0.0000000000
0
SPLINE
5
38C
100
AcDbEntity
8
0
100
AcDbSpline
62
7
6
CONTINUOUS
70
0
71
3
72
12
73
8
74
6
42
0.0000001000
43
0.0000001000
44
0.0000000001
12
0.0000000000
22
0.5000000000
32
0.0000000000
13
-0.0000000000
23
0.5000000000
33
0.0000000000
40
0.0000000000
40
0.0000000000
40
0.0000000000
40
0.0000000000
40
0.0420211352
40
0.1698844799
40
0.3811252252
40
0.6650366545
40
1.0000000000
40
1.0000000000
40
1.0000000000
40
1.0000000000
10
75.0593029517
20
249.9236041684
30
0.0000000000
10
75.0593029517
20
249.9306076909
30
0.0000000000
10
75.0593029517
20
249.9589217709
30
0.0000000000
10
75.0593029517
20
250.0224426418
30
0.0000000000
10
75.0593029517
20
250.1262785617
30
0.0000000000
10
75.0593029517
20
250.2646311483
30
0.0000000000
10
75.0593029517
20
250.3677769442
30
0.0000000000
10
75.0593029517
20
250.4236041684
30
0.0000000000
11
75.0593029517
21
249.9236041684
31
0.0000000000
11
75.0593029517
21
249.9446147360
31
0.0000000000
11
75.0593029517
21
250.0085464084
31
0.0000000000
11
75.0593029517
21
250.1141667810
31
0.0000000000
11
75.0593029517
21
250.2561224957
31
0.0000000000
11
75.0593029517
21
250.4236041684
31
0.0000000000
0
SPLINE
5
38D
100
AcDbEntity
8
0
100
AcDbSpline
62
7
6
CONTINUOUS
70
0
71
3
72
11
73
7
74
5
42
0.0000001000
43
0.0000001000
44
0.0000000001
12
-0.6016468973
22
0.0000000000
32
0.0000000000
13
-0.0000000000
23
-0.6016468973
33
0.0000000000
40
0.0000000000
40
0.0000000000
40
0.0000000000
40
0.0000000000
40
0.1711361921
40
0.3961397340
40
0.6804010462
40
1.0000000000
40
1.0000000000
40
1.0000000000
40
1.0000000000
10
69.8093029517
20
253.9236041684
30
0.0000000000
10
69.7749817654
20
253.9236041684
30
0.0000000000
10
69.6965403116
20
253.8862292083
30
0.0000000000
10
69.6209426637
20
253.7689560302
30
0.0000000000
10
69.5705351317
20
253.6093178174
30
0.0000000000
10
69.5593029517
20
253.4876994080
30
0.0000000000
10
69.5593029517
20
253.4236041684
30
0.0000000000
11
69.8093029517
21
253.9236041684
31
0.0000000000
11
69.7136320936
21
253.8855439347
31
0.0000000000
11
69.6325262564
21
253.7771575590
31
0.0000000000
11
69.5783330686
21
253.6149458846
31
0.0000000000
11
69.5593029517
21
253.4236041684
31
0.0000000000
0
SPLINE
5
38E
100
AcDbEntity
8
0
100
AcDbSpline
62
7
6
CONTINUOUS
70
0
71
3
72
12
73
8
74
6
42
0.0000001000
43
0.0000001000
44
0.0000000001
12
0.0000000000
22
-0.5000000000
32
0.0000000000
13
-0.0000000000
23
-0.5000000000
33
0.0000000000
40
0.0000000000
40
0.0000000000
40
0.0000000000
40
0.0000000000
40
0.0420211352
40
0.1698844799
40
0.3811252252
40
0.6650366545
40
1.0000000000
40
1.0000000000
40
1.0000000000
40
1.0000000000
10
75.0593029517
20
253.9236041684
30
0.0000000000
10
75.0593029517
20
253.9166006459
30
0.0000000000
10
75.0593029517
20
253.8882865659
30
0.0000000000
10
75.0593029517
20
253.8247656950
30
0.0000000000
10
75.0593029517
20
253.7209297752
30
0.0000000000
10
75.0593029517
20
253.5825771885
30
0.0000000000
10
75.0593029517
20
253.4794313927
30
0.0000000000
10
75.0593029517
20
253.4236041684
30
0.0000000000
11
75.0593029517
21
253.9236041684
31
0.0000000000
11
75.0593029517
21
253.9025936008
31
0.0000000000
11
75.0593029517
21
253.8386619285
31
0.0000000000
11
75.0593029517
21
253.7330415558
31
0.0000000000
11
75.0593029517
21
253.5910858412
31
0.0000000000
11
75.0593029517
21
253.4236041684
31
0.0000000000
0
SPLINE
5
38F
100
AcDbEntity
8
0
100
AcDbSpline
62
7
6
CONTINUOUS
70
0
71
3
72
8
73
4
74
2
42
0.0000001000
43
0.0000001000
44
0.0000000001
12
0.0446901255
22
-0.0074516241
32
0.0000000000
13
0.0310523800
23
-0.0303292648
33
0.0000000000
40
0.0000000000
40
0.0000000000
40
0.0000000000
40
0.0000000000
40
1.0000000000
40
1.0000000000
40
1.0000000000
40
1.0000000000
10
85.0634243592
20
267.3708617900
30
0.0000000000
10
85.0783210677
20
267.3683779153
30
0.0000000000
10
85.0929052763
20
267.3614594253
30
0.0000000000
10
85.1032560696
20
267.3513496703
30
0.0000000000
11
85.0634243592
21
267.3708617900
31
0.0000000000
11
85.1032560696
21
267.3513496703
31
0.0000000000
0
SPLINE
5
390
100
AcDbEntity
8
0
100
AcDbSpline
62
7
6
CONTINUOUS
70
0
71
3
72
11
73
7
74
5
42
0.0000001000
43
0.0000001000
44
0.0000000001
12
-0.5556435948
22
0.0000000000
32
0.0000000000
13
-0.0000000000
23
0.5556435948
33
0.0000000000
40
0.0000000000
40
0.0000000000
40
0.0000000000
40
0.0000000000
40
0.1362484087
40
0.3553824328
40
0.6548434900
40
1.0000000000
40
1.0000000000
40
1.0000000000
40
1.0000000000
10
87.8593029517
20
246.4236041684
30
0.0000000000
10
87.8340677665
20
246.4236041684
30
0.0000000000
10
87.7749294895
20
246.4705623165
30
0.0000000000
10
87.7303698423
20
246.5828404294
30
0.0000000000
10
87.6953329326
20
246.7401076296
30
0.0000000000
10
87.6882928801
20
246.8596761671
30
0.0000000000
10
87.6882928801
20
246.9236041684
30
0.0000000000
11
87.8593029517
21
246.4236041684
31
0.0000000000
11
87.7938602305
21
246.4616644022
31
0.0000000000
11
87.7383805704
21
246.5700507778
31
0.0000000000
11
87.7013102467
21
246.7322624522
31
0.0000000000
11
87.6882928801
21
246.9236041684
31
0.0000000000
0
SPLINE
5
391
100
AcDbEntity
8
0
100
AcDbSpline
62
7
6
CONTINUOUS
70
0
71
3
72
11
73
7
74
5
42
0.0000001000
43
0.0000001000
44
0.0000000001
12
0.0000000000
22
0.5556435948
32
0.0000000000
13
0.5556435948
23
0.0000000000
33
0.0000000000
40
0.0000000000
40
0.0000000000
40
0.0000000000
40
0.0000000000
40
0.3451565100
40
0.6446175672
40
0.8637515913
40
1.0000000000
40
1.0000000000
40
1.0000000000
40
1.0000000000
10
87.6882928801
20
266.3236041684
30
0.0000000000
10
87.6882928801
20
266.3875321697
30
0.0000000000
10
87.6953329326
20
266.5071007072
30
0.0000000000
10
87.7303698423
20
266.6643679075
30
0.0000000000
10
87.7749294895
20
266.7766460203
30
0.0000000000
10
87.8340677665
20
266.8236041684
30
0.0000000000
10
87.8593029517
20
266.8236041684
30
0.0000000000
11
87.6882928801
21
266.3236041684
31
0.0000000000
11
87.7013102467
21
266.5149458846
31
0.0000000000
11
87.7383805704
21
266.6771575590
31
0.0000000000
11
87.7938602305
21
266.7855439347
31
0.0000000000
11
87.8593029517
21
266.8236041684
31
0.0000000000
0
SPLINE
5
392
100
AcDbEntity
8
0
100
AcDbSpline
62
7
6
CONTINUOUS
70
0
71
3
72
9
73
5
74
3
42
0.0000001000
43
0.0000001000
44
0.0000000001
12
0.3372586287
22
-0.0141271013
32
0.0000000000
13
0.3288104793
23
-0.0763323416
33
0.0000000000
40
0.0000000000
40
0.0000000000
40
0.0000000000
40
0.0000000000
40
0.4917650278
40
1.0000000000
40
1.0000000000
40
1.0000000000
40
1.0000000000
10
85.1032554228
20
267.3513466558
30
0.0000000000
10
85.1585394225
20
267.3490309177
30
0.0000000000
10
85.2707867372
20
267.3388859291
30
0.0000000000
10
85.3816029791
20
267.3183849942
30
0.0000000000
10
85.4373073073
20
267.3054534057
30
0.0000000000
11
85.1032554228
21
267.3513466558
31
0.0000000000
11
85.2685919498
21
267.3365486086
31
0.0000000000
11
85.4373073073
21
267.3054534057
31
0.0000000000
0
SPLINE
5
393
100
AcDbEntity
8
0
100
AcDbSpline
62
7
6
CONTINUOUS
70
0
71
3
72
11
73
7
74
5
42
0.0000001000
43
0.0000001000
44
0.0000000001
12
0.6016468973
22
0.0000000000
32
0.0000000000
13
0.0000000000
23
0.6016468973
33
0.0000000000
40
0.0000000000
40
0.0000000000
40
0.0000000000
40
0.0000000000
40
0.1711361921
40
0.3961397340
40
0.6804010462
40
1.0000000000
40
1.0000000000
40
1.0000000000
40
1.0000000000
10
80.3093029517
20
249.9236041684
30
0.0000000000
10
80.3436241381
20
249.9236041684
30
0.0000000000
10
80.4220655918
20
249.9609791285
30
0.0000000000
10
80.4976632398
20
250.0782523066
30
0.0000000000
10
80.5480707717
20
250.2378905194
30
0.0000000000
10
80.5593029517
20
250.3595089288
30
0.0000000000
10
80.5593029517
20
250.4236041684
30
0.0000000000
11
80.3093029517
21
249.9236041684
31
0.0000000000
11
80.4049738098
21
249.9616644022
31
0.0000000000
11
80.4860796470
21
250.0700507778
31
0.0000000000
11
80.5402728349
21
250.2322624522
31
0.0000000000
11
80.5593029517
21
250.4236041684
31
0.0000000000
0
SPLINE
5
394
100
AcDbEntity
8
0
100
AcDbSpline
62
7
6
CONTINUOUS
70
0
71
3
72
11
73
7
74
5
42
0.0000001000
43
0.0000001000
44
0.0000000001
12
0.0000000000
22
0.6016468973
32
0.0000000000
13
-0.6016468973
23
0.0000000000
33
0.0000000000
40
0.0000000000
40
0.0000000000
40
0.0000000000
40
0.0000000000
40
0.3195989538
40
0.6038602660
40
0.8288638079
40
1.0000000000
40
1.0000000000
40
1.0000000000
40
1.0000000000
10
80.5593029517
20
253.4236041684
30
0.0000000000
10
80.5593029517
20
253.4876994080
30
0.0000000000
10
80.5480707717
20
253.6093178174
30
0.0000000000
10
80.4976632398
20
253.7689560302
30
0.0000000000
10
80.4220655918
20
253.8862292083
30
0.0000000000
10
80.3436241381
20
253.9236041684
30
0.0000000000
10
80.3093029517
20
253.9236041684
30
0.0000000000
11
80.5593029517
21
253.4236041684
31
0.0000000000
11
80.5402728349
21
253.6149458846
31
0.0000000000
11
80.4860796470
21
253.7771575590
31
0.0000000000
11
80.4049738098
21
253.8855439347
31
0.0000000000
11
80.3093029517
21
253.9236041684
31
0.0000000000
0
SPLINE
5
395
100
AcDbEntity
8
0
100
AcDbSpline
62
7
6
CONTINUOUS
70
0
71
3
72
11
73
7
74
5
42
0.0000001000
43
0.0000001000
44
0.0000000001
12
0.0000000000
22
-0.6016468973
32
0.0000000000
13
0.6016468973
23
0.0000000000
33
0.0000000000
40
0.0000000000
40
0.0000000000
40
0.0000000000
40
0.0000000000
40
0.3195989538
40
0.6038602660
40
0.8288638079
40
1.0000000000
40
1.0000000000
40
1.0000000000
40
1.0000000000
10
69.5593029517
20
250.4236041684
30
0.0000000000
10
69.5593029517
20
250.3595089288
30
0.0000000000
10
69.5705351317
20
250.2378905194
30
0.0000000000
10
69.6209426637
20
250.0782523066
30
0.0000000000
10
69.6965403116
20
249.9609791285
30
0.0000000000
10
69.7749817654
20
249.9236041684
30
0.0000000000
10
69.8093029517
20
249.9236041684
30
0.0000000000
11
69.5593029517
21
250.4236041684
31
0.0000000000
11
69.5783330686
21
250.2322624522
31
0.0000000000
11
69.6325262564
21
250.0700507778
31
0.0000000000
11
69.7136320936
21
249.9616644022
31
0.0000000000
11
69.8093029517
21
249.9236041684
31
0.0000000000
0
SPLINE
5
396
100
AcDbEntity
8
0
100
AcDbSpline
62
7
6
CONTINUOUS
70
0
71
3
72
8
73
4
74
2
42
0.0000001000
43
0.0000001000
44
0.0000000001
12
0.0070324948
22
0.0032369919
32
0.0000000000
13
0.0071370000
23
0.0026365311
33
0.0000000000
40
0.0000000000
40
0.0000000000
40
0.0000000000
40
0.0000000000
40
1.0000000000
40
1.0000000000
40
1.0000000000
40
1.0000000000
10
85.0635571419
20
267.3729277427
30
0.0000000000
10
85.0659013068
20
267.3740067400
30
0.0000000000
10
85.0682653162
20
267.3749928404
30
0.0000000000
10
85.0706443163
20
267.3758716841
30
0.0000000000
11
85.0635571419
21
267.3729277427
31
0.0000000000
11
85.0706443163
21
267.3758716841
31
0.0000000000
0
SPLINE
5
397
100
AcDbEntity
8
0
100
AcDbSpline
62
7
6
CONTINUOUS
70
0
71
3
72
8
73
4
74
2
42
0.0000001000
43
0.0000001000
44
0.0000000001
12
0.0349631282
22
0.0129159833
32
0.0000000000
13
0.0354096564
23
-0.0075928873
33
0.0000000000
40
0.0000000000
40
0.0000000000
40
0.0000000000
40
0.0000000000
40
1.0000000000
40
1.0000000000
40
1.0000000000
40
1.0000000000
10
85.0706443163
20
267.3758716841
30
0.0000000000
10
85.0822986923
20
267.3801770118
30
0.0000000000
10
85.0943128233
20
267.3819083095
30
0.0000000000
10
85.1061160421
20
267.3793773471
30
0.0000000000
11
85.0706443163
21
267.3758716841
31
0.0000000000
11
85.1061160421
21
267.3793773471
31
0.0000000000
0
SPLINE
5
398
100
AcDbEntity
8
0
100
AcDbSpline
62
7
6
CONTINUOUS
70
0
71
3
72
11
73
7
74
5
42
0.0000001000
43
0.0000001000
44
0.0000000001
12
0.6917781516
22
-0.1143340442
32
0.0000000000
13
0.6955764419
23
-0.0915153662
33
0.0000000000
40
0.0000000000
40
0.0000000000
40
0.0000000000
40
0.0000000000
40
0.2795155297
40
0.5781425342
40
0.8634904369
40
1.0000000000
40
1.0000000000
40
1.0000000000
40
1.0000000000
10
84.1714806357
20
267.5565919446
30
0.0000000000
10
84.2359348812
20
267.5459392309
30
0.0000000000
10
84.3649423936
20
267.5028035812
30
0.0000000000
10
84.5540870595
20
267.4334028517
30
0.0000000000
10
84.7172824011
20
267.3898362122
30
0.0000000000
10
84.8147240347
20
267.3742215547
30
0.0000000000
10
84.8463749801
20
267.3700573138
30
0.0000000000
11
84.1714806357
21
267.5565919446
31
0.0000000000
11
84.3601244792
21
267.5034508970
31
0.0000000000
11
84.5581351865
21
267.4353750621
31
0.0000000000
11
84.7518590893
21
267.3853631638
31
0.0000000000
11
84.8463749801
21
267.3700573138
31
0.0000000000
0
SPLINE
5
399
100
AcDbEntity
8
0
100
AcDbSpline
62
7
6
CONTINUOUS
70
0
71
3
72
9
73
5
74
3
42
0.0000001000
43
0.0000001000
44
0.0000000001
12
0.2149044125
22
-0.0282744711
32
0.0000000000
13
0.2164370128
23
-0.0094738976
33
0.0000000000
40
0.0000000000
40
0.0000000000
40
0.0000000000
40
0.0000000000
40
0.4229033818
40
1.0000000000
40
1.0000000000
40
1.0000000000
40
1.0000000000
10
84.8463749801
20
267.3700573138
30
0.0000000000
10
84.8766695811
20
267.3660715240
30
0.0000000000
10
84.9485635688
20
267.3585715159
30
0.0000000000
10
85.0206879337
20
267.3548996106
30
0.0000000000
10
85.0623229564
20
267.3530771591
30
0.0000000000
11
84.8463749801
21
267.3700573138
31
0.0000000000
11
84.9375192045
21
267.3604126122
31
0.0000000000
11
85.0623229564
21
267.3530771591
31
0.0000000000
0
SPLINE
5
39A
100
AcDbEntity
8
0
100
AcDbSpline
62
7
6
CONTINUOUS
70
0
71
3
72
8
73
4
74
2
42
0.0000001000
43
0.0000001000
44
0.0000000001
12
0.0409307726
22
-0.0017916249
32
0.0000000000
13
0.0409318930
23
-0.0017038080
33
0.0000000000
40
0.0000000000
40
0.0000000000
40
0.0000000000
40
0.0000000000
40
1.0000000000
40
1.0000000000
40
1.0000000000
40
1.0000000000
10
85.0623229564
20
267.3530771591
30
0.0000000000
10
85.0759665473
20
267.3524799508
30
0.0000000000
10
85.0896114585
20
267.3519145918
30
0.0000000000
10
85.1032554228
20
267.3513466558
30
0.0000000000
11
85.0623229564
21
267.3530771591
31
0.0000000000
11
85.1032554228
21
267.3513466558
31
0.0000000000
0
SPLINE
5
39B
100
AcDbEntity
8
0
100
AcDbSpline
62
7
6
CONTINUOUS
70
0
71
3
72
13
73
9
74
7
42
0.0000001000
43
0.0000001000
44
0.0000000001
12
-0.1431174252
22
-1.0022963886
32
0.0000000000
13
-0.1510715683
23
-1.0011283350
33
0.0000000000
40
0.0000000000
40
0.0000000000
40
0.0000000000
40
0.0000000000
40
0.0248630574
40
0.1086711421
40
0.2579155020
40
0.4676234132
40
0.7225105050
40
1.0000000000
40
1.0000000000
40
1.0000000000
40
1.0000000000
10
86.8066105927
20
266.9359230819
30
0.0000000000
10
86.8054244805
20
266.9276163644
30
0.0000000000
10
86.8002328740
20
266.8913105199
30
0.0000000000
10
86.7878444599
20
266.8051533374
30
0.0000000000
10
86.7664490160
20
266.6572668824
30
0.0000000000
10
86.7365174782
20
266.4522773729
30
0.0000000000
10
86.6999271964
20
266.2045202983
30
0.0000000000
10
86.6732765428
20
266.0268372149
30
0.0000000000
10
86.6593029517
20
265.9342363495
30
0.0000000000
11
86.8066105927
21
266.9359230819
31
0.0000000000
11
86.8030474124
21
266.9110036225
31
0.0000000000
11
86.7909788095
21
266.8270137146
31
0.0000000000
11
86.7693435875
21
266.6774662722
31
0.0000000000
11
86.7386687628
21
266.4673723854
31
0.0000000000
11
86.7009498521
21
266.2120801354
31
0.0000000000
11
86.6593029517
21
265.9342363495
31
0.0000000000
0
SPLINE
5
39C
100
AcDbEntity
8
0
100
AcDbSpline
62
7
6
CONTINUOUS
70
0
71
3
72
20
73
16
74
14
42
0.0000001000
43
0.0000001000
44
0.0000000001
12
0.7968611168
22
-0.8607223992
32
0.0000000000
13
0.7843741415
23
-0.8721162784
33
0.0000000000
40
0.0000000000
40
0.0000000000
40
0.0000000000
40
0.0000000000
40
0.0044781970
40
0.0193440200
40
0.0467585007
40
0.0887182258
40
0.1467742345
40
0.2217096204
40
0.3131990020
40
0.4191605498
40
0.5355104921
40
0.6572038749
40
0.7788372825
40
0.8948802210
40
1.0000000000
40
1.0000000000
40
1.0000000000
40
1.0000000000
10
45.2077868933
20
265.1010016874
30
0.0000000000
10
45.2089763936
20
265.0997168592
30
0.0000000000
10
45.2141116612
20
265.0941642379
30
0.0000000000
10
45.2265013850
20
265.0807208965
30
0.0000000000
10
45.2488222588
20
265.0565010302
30
0.0000000000
10
45.2825663194
20
265.0198443597
30
0.0000000000
10
45.3288730660
20
264.9694984273
30
0.0000000000
10
45.3882384315
20
264.9048523113
30
0.0000000000
10
45.4601889099
20
264.8263334342
30
0.0000000000
10
45.5429605724
20
264.7357678928
30
0.0000000000
10
45.6335540352
20
264.6363527544
30
0.0000000000
10
45.7281148046
20
264.5322630864
30
0.0000000000
10
45.8224310112
20
264.4281136593
30
0.0000000000
10
45.9122511684
20
264.3286351266
30
0.0000000000
10
45.9700988534
20
264.2643625068
30
0.0000000000
10
45.9975832655
20
264.2338036167
30
0.0000000000
11
45.2077868933
21
265.1010016874
31
0.0000000000
11
45.2113535363
21
265.0971454864
31
0.0000000000
11
45.2231763073
21
265.0843286859
31
0.0000000000
11
45.2449664718
21
265.0606813051
31
0.0000000000
11
45.2783018372
21
265.0244726804
31
0.0000000000
11
45.3243995991
21
264.9743505275
31
0.0000000000
11
45.3838502405
21
264.9096100166
31
0.0000000000
11
45.4563501098
21
264.8304905816
31
0.0000000000
11
45.5401991022
21
264.7387466211
31
0.0000000000
11
45.6321215666
21
264.6378739736
31
0.0000000000
11
45.7281028233
21
264.5322205624
31
0.0000000000
11
45.8238716533
21
264.4264694496
31
0.0000000000
11
45.9150852425
21
264.3254399866
31
0.0000000000
11
45.9975832655
21
264.2338036167
31
0.0000000000
0
ENDSEC
0
SECTION
2
OBJECTS
0
DICTIONARY
5
C
100
AcDbDictionary
280
0
281
1
3
ACAD_GROUP
350
D
3
ACAD_MLINESTYLE
350
17
3
ACAD_LAYOUT
350
1A
3
ACAD_PLOTSETTINGS
350
19
3
ACAD_PLOTSTYLENAME
350
E
0
DICTIONARY
5
D
102
{ACAD_REACTORS
330
C
102
}
100
AcDbDictionary
280
0
281
1
0
ACDBDICTIONARYWDFLT
5
E
102
{ACAD_REACTORS
330
C
102
}
100
AcDbDictionary
281
1
3
Normal
350
F
100
AcDbDictionaryWithDefault
340
F
0
DICTIONARY
5
17
102
{ACAD_REACTORS
330
C
102
}
100
AcDbDictionary
280
0
281
1
3
Standard
350
18
0
DICTIONARY
5
19
102
{ACAD_REACTORS
330
C
102
}
100
AcDbDictionary
281
1
0
DICTIONARY
5
1A
102
{ACAD_REACTORS
330
C
102
}
100
AcDbDictionary
281
1
3
Layout1
350
1E
3
Model
350
22
0
ACDBPLACEHOLDER
5
F
102
{ACAD_REACTORS
330
E
102
}
0
MLINESTYLE
5
18
102
{ACAD_REACTORS
330
17
102
}
100
AcDbMlineStyle
2
STANDARD
70
0
3

62
256
51
90.0
52
90.0
71
2
49
0.5
62
256
6
BYLAYER
49
-0.5
62
256
6
BYLAYER
0
LAYOUT
5
1E
102
{ACAD_REACTORS
330
1A
102
}
100
AcDbPlotSettings
1

2

4

6

40
0.0
41
0.0
42
0.0
43
0.0
44
0.0
45
0.0
46
0.0
47
0.0
48
0.0
49
0.0
140
0.0
141
0.0
142
1.0
143
1.0
70
0
72
0
73
0
74
0
7

75
0
147
1.0
148
0.0
149
0.0
100
AcDbLayout
1
Layout1
70
0
71
0
10
0.0
20
0.0
11
0.0
21
0.0
12
0.0
22
0.0
32
0.0
14
0.0
24
0.0
34
0.0
15
0.0
25
0.0
35
0.0
146
0.0
13
0.0
23
0.0
33
0.0
16
0.0
26
0.0
36
0.0
17
0.0
27
0.0
37
0.0
76
0
330
1B
331
0
345
0
346
0
0
LAYOUT
5
22
102
{ACAD_REACTORS
330
1A
102
}
100
AcDbPlotSettings
1

2

4

6

40
0.0
41
0.0
42
0.0
43
0.0
44
0.0
45
0.0
46
0.0
47
0.0
48
0.0
49
0.0
140
0.0
141
0.0
142
1.0
143
1.0
70
0
72
0
73
0
74
0
7

75
0
147
1.0
148
0.0
149
0.0
100
AcDbLayout
1
Model
70
0
71
0
10
0.0
20
0.0
11
0.0
21
0.0
12
0.0
22
0.0
32
0.0
14
0.0
24
0.0
34
0.0
15
0.0
25
0.0
35
0.0
146
0.0
13
0.0
23
0.0
33
0.0
16
0.0
26
0.0
36
0.0
17
0.0
27
0.0
37
0.0
76
0
330
1F
331
0
345
0
346
0
0
ENDSEC
0
EOF
