0
SECTION
2
HEADER
9
$ACADVER
1
AC1015
9
$DWGCODEPAGE
3
ANSI_1252
9
$EXTMAX
10
841.0000000000
20
594.0000000000
30
0.0000000000
9
$EXTMIN
10
0.0000000000
20
0.0000000000
30
0.0000000000
9
$LIMMIN
10
0.0000000000
20
0.0000000000
9
$LIMMAX
10
841.0000000000
20
594.0000000000
9
$VIEWCTR
10
420.5000000000
20
297.0000000000
9
$VIEWSIZE
40
594.0000000000
9
$CLAYER
8
0
9
$LTSCALE
40
46.2550000000
9
$CELTYPE
6
BYLAYER
9
$DIMSCALE
40
1
9
$DIMASZ
40
3.5000000000
9
$DIMEXO
40
5.2562500000
9
$DIMDLI
40
31.9580000000
9
$DIMEXE
40
15.1380000000
9
$DIMCEN
40
7.5690000000
9
$DIMLFAC
40
1.0000000000
9
$DIMBLK
1
_FILLED
9
$DIMTXT
40
3.5000000000
9
$DIMTOL
70
1
9
$DIMLIM
70
0
9
$DIMTFAC
40
1.0000000000
9
$DIMTP
40
0.0010000000
9
$DIMTM
40
0.0010000000
9
$PDMODE
70
3
9
$PDSIZE
40
0.3125000000
9
$HANDSEED
5
29F
9
$MEASUREMENT
70
1
9
$INSUNITS
70
4
0
ENDSEC
0
SECTION
2
CLASSES
0
CLASS
1
ACDBDICTIONARYWDFLT
2
AcDbDictionaryWithDefault
3
AutoCAD 2000
90
0
280
0
281
0
0
CLASS
1
ACDBPLACEHOLDER
2
AcDbPlaceHolder
3
AutoCAD 2000
90
0
280
0
281
0
0
CLASS
1
LAYOUT
2
AcDbLayout
3
AutoCAD 2000
90
0
280
0
281
0
0
ENDSEC
0
SECTION
2
TABLES
0
TABLE
2
VPORT
5
8
100
AcDbSymbolTable
70
2
0
VPORT
5
1F4
100
AcDbSymbolTableRecord
100
AcDbViewportTableRecord
2
*ACTIVE
70
0
10
0.0
20
0.0
11
1.0
21
1.0
12
420.5000000000
22
297.0000000000
13
0.0
23
0.0
14
1.0
24
1.0
15
0.0
25
0.0
16
0.0
26
0.0
36
1.0
17
0.0
27
0.0
37
0.0
40
594.0000000000
41
1.4158249158
42
50.0
43
0.0
44
0.0
50
0.0
51
0.0
71
0
72
100
73
1
74
1
75
0
76
0
77
0
78
0
0
ENDTAB
0
TABLE
2
LTYPE
5
5
100
AcDbSymbolTable
70
6
0
LTYPE
5
14
100
AcDbSymbolTableRecord
100
AcDbLinetypeTableRecord
2
BYBLOCK
70
0
3

72
65
73
0
40
0.0
0
LTYPE
5
15
100
AcDbSymbolTableRecord
100
AcDbLinetypeTableRecord
2
BYLAYER
70
0
3

72
65
73
0
40
0.0
0
LTYPE
5
16
100
AcDbSymbolTableRecord
100
AcDbLinetypeTableRecord
2
CONTINUOUS
70
64
3
Solid line
72
65
73
0
40
0
0
LTYPE
5
1F5
100
AcDbSymbolTableRecord
100
AcDbLinetypeTableRecord
2
CENTER
70
64
3
____ _ ____ _ ____ _ ____ _ ____ _ ____ _ ____
72
65
73
4
40
0.6
49
0.375
74
0
49
-0.075
74
0
49
0.075
74
0
49
-0.075
74
0
0
LTYPE
5
1F6
100
AcDbSymbolTableRecord
100
AcDbLinetypeTableRecord
2
HIDDEN
70
64
3
- - - - - - - - - - - - - - - - - - - -
72
65
73
2
40
0.2
49
0.1
74
0
49
-0.1
74
0
0
LTYPE
5
1F7
100
AcDbSymbolTableRecord
100
AcDbLinetypeTableRecord
2
PHANTOM
70
64
3
_____ _ _ _____ _ _ _____ _ _ _____
72
65
73
6
40
0.8
49
0.45
74
0
49
-0.05
74
0
49
0.1
74
0
49
-0.05
74
0
49
0.1
74
0
49
-0.05
74
0
0
LTYPE
5
1F8
100
AcDbSymbolTableRecord
100
AcDbLinetypeTableRecord
2
DOT
70
64
3
. . . . . . . . . . . . . . . . . . . .
72
65
73
2
40
0.2
49
0.1
74
0
49
-0.1
74
0
0
LTYPE
5
1F9
100
AcDbSymbolTableRecord
100
AcDbLinetypeTableRecord
2
DASHED
70
64
3
- - - - - - - - - - - - - - - - - - - -
72
65
73
2
40
0.2
49
0.1
74
0
49
-0.1
74
0
0
ENDTAB
0
TABLE
2
LAYER
5
2
100
AcDbSymbolTable
70
36
0
LAYER
5
10
100
AcDbSymbolTableRecord
100
AcDbLayerTableRecord
2
0
70
0
62
7
6
CONTINUOUS
370
-3
390
F
0
LAYER
5
1FA
100
AcDbSymbolTableRecord
100
AcDbLayerTableRecord
2
DEFAULT_1
70
0
62
7
6
CENTER
370
-3
390
F
0
LAYER
5
1FB
100
AcDbSymbolTableRecord
100
AcDbLayerTableRecord
2
DEFAULT_2
70
0
62
8
6
HIDDEN
370
-3
390
F
0
LAYER
5
1FC
100
AcDbSymbolTableRecord
100
AcDbLayerTableRecord
2
DEFAULT_3
70
0
62
7
6
PHANTOM
370
-3
390
F
0
LAYER
5
1FD
100
AcDbSymbolTableRecord
100
AcDbLayerTableRecord
2
_2D_DELETED_OBJS
70
0
62
7
6
CONTINUOUS
370
-3
390
F
0
LAYER
5
1FE
100
AcDbSymbolTableRecord
100
AcDbLayerTableRecord
2
ASSI
70
0
62
7
6
CONTINUOUS
370
-3
390
F
0
LAYER
5
1FF
100
AcDbSymbolTableRecord
100
AcDbLayerTableRecord
2
CURVE
70
0
62
7
6
CONTINUOUS
370
-3
390
F
0
LAYER
5
200
100
AcDbSymbolTableRecord
100
AcDbLayerTableRecord
2
PIANI
70
0
62
7
6
CONTINUOUS
370
-3
390
F
0
LAYER
5
201
100
AcDbSymbolTableRecord
100
AcDbLayerTableRecord
2
SURF_FILETTI
70
0
62
7
6
CONTINUOUS
370
-3
390
F
0
LAYER
5
202
100
AcDbSymbolTableRecord
100
AcDbLayerTableRecord
2
TOLL
70
0
62
7
6
CONTINUOUS
370
-3
390
F
0
ENDTAB
0
TABLE
2
STYLE
5
3
100
AcDbSymbolTable
70
1
0
STYLE
5
11
100
AcDbSymbolTableRecord
100
AcDbTextStyleTableRecord
2
STANDARD
70
0
40
0.0
41
0.7143000000
50
0.0
71
0
42
0.2
3
txt
4

0
ENDTAB
0
TABLE
2
VIEW
5
6
100
AcDbSymbolTable
70
0
0
ENDTAB
0
TABLE
2
UCS
5
7
100
AcDbSymbolTable
70
0
0
ENDTAB
0
TABLE
2
APPID
5
9
100
AcDbSymbolTable
70
1
0
APPID
5
203
100
AcDbSymbolTableRecord
100
AcDbRegAppTableRecord
2
ACAD
70
0
0
ENDTAB
0
TABLE
2
BLOCK_RECORD
5
1
100
AcDbSymbolTable
70
0
0
BLOCK_RECORD
5
1F
100
AcDbSymbolTableRecord
100
AcDbBlockTableRecord
2
*MODEL_SPACE
0
BLOCK_RECORD
5
1B
100
AcDbSymbolTableRecord
100
AcDbBlockTableRecord
2
*PAPER_SPACE
0
ENDTAB
0
TABLE
2
DIMSTYLE
5
A
100
AcDbSymbolTable
70
1
100
AcDbDimStyleTable
71
0
0
DIMSTYLE
105
204
100
AcDbSymbolTableRecord
100
AcDbDimStyleTableRecord
2
STANDARD
70
0
3

4

40
1.0
41
3.5000000000
42
0.0625
43
0.38
44
0.18
45
0.0
46
0.0
47
0.0010000000
48
0.0010000000
140
3.5000000000
141
0.09
142
0.0
143
25.4
144
1.0000000000
145
0.0
146
1.0000000000
147
0.09
71
1
72
0
73
0
74
0
75
0
76
0
77
1
78
8
170
0
171
2
172
0
173
0
174
0
175
0
176
0
177
0
178
5
270
2
271
3
272
3
273
2
274
2
275
0
280
0
281
0
282
0
283
1
284
8
285
0
286
0
287
3
288
0
340
11
0
ENDTAB
0
ENDSEC
0
SECTION
2
BLOCKS
0
BLOCK
5
20
100
AcDbEntity
8
0
100
AcDbBlockBegin
2
*MODEL_SPACE
70
0
10
0.0
20
0.0
30
0.0
3
*MODEL_SPACE
1

0
ENDBLK
5
21
100
AcDbEntity
8
0
100
AcDbBlockEnd
0
BLOCK
5
1C
100
AcDbEntity
8
0
100
AcDbBlockBegin
2
*PAPER_SPACE
70
0
10
0.0
20
0.0
30
0.0
3
*PAPER_SPACE
1

0
ENDBLK
5
1D
100
AcDbEntity
8
0
100
AcDbBlockEnd
0
ENDSEC
0
SECTION
2
ENTITIES
0
LINE
5
205
100
AcDbEntity
8
0
100
AcDbLine
62
7
6
CONTINUOUS
10
171.9293686462
20
252.4049619523
11
171.5807508665
21
292.3526027393
0
LINE
5
206
100
AcDbEntity
8
0
100
AcDbLine
62
7
6
CONTINUOUS
10
411.5279327278
20
276.4049619523
11
411.5279327278
21
276.6268654944
0
LINE
5
207
100
AcDbEntity
8
0
100
AcDbLine
62
9
6
CONTINUOUS
10
415.5279327278
20
272.4049619523
11
415.5279327278
21
276.6268654944
0
LINE
5
208
100
AcDbEntity
8
0
100
AcDbLine
62
9
6
CONTINUOUS
10
419.6173893465
20
272.4049619523
11
419.6173893465
21
276.6268654944
0
LINE
5
209
100
AcDbEntity
8
0
100
AcDbLine
62
7
6
CONTINUOUS
10
601.5279327278
20
252.4049619523
11
171.9293686462
21
252.4049619523
0
LINE
5
20A
100
AcDbEntity
8
0
100
AcDbLine
62
7
6
CONTINUOUS
10
601.5279327278
20
255.4049619523
11
695.5279327278
21
255.4049619523
0
LINE
5
20B
100
AcDbEntity
8
0
100
AcDbLine
62
7
6
CONTINUOUS
10
423.6173893465
20
276.6268654944
11
423.6173893465
21
276.4049619523
0
LINE
5
20C
100
AcDbEntity
8
0
100
AcDbLine
62
7
6
CONTINUOUS
10
419.6173893465
20
272.4049619523
11
415.5279327278
21
272.4049619523
0
LINE
5
20D
100
AcDbEntity
8
0
100
AcDbLine
62
9
6
CONTINUOUS
10
411.5279327278
20
276.4049619523
11
423.6173893465
21
276.4049619523
0
LINE
5
20E
100
AcDbEntity
8
0
100
AcDbLine
62
9
6
CONTINUOUS
10
411.5279327278
20
276.6268654944
11
415.5279327278
21
276.6268654944
0
LINE
5
20F
100
AcDbEntity
8
0
100
AcDbLine
62
9
6
CONTINUOUS
10
423.6173893465
20
276.6268654944
11
419.6173893465
21
276.6268654944
0
LINE
5
210
100
AcDbEntity
8
0
100
AcDbLine
62
7
6
CONTINUOUS
10
601.5279327278
20
276.8049619523
11
553.9894711894
21
276.8049619523
0
LINE
5
211
100
AcDbEntity
8
0
100
AcDbLine
62
7
6
CONTINUOUS
10
422.2639428013
20
291.7995786457
11
423.5727424656
21
288.0197580893
0
LINE
5
212
100
AcDbEntity
8
0
100
AcDbLine
62
9
6
CONTINUOUS
10
426.3131376474
20
280.4082577652
11
425.0088859613
21
284.1896500331
0
LINE
5
213
100
AcDbEntity
8
0
100
AcDbLine
62
9
6
CONTINUOUS
10
601.5279327278
20
277.8049619523
11
552.4510096509
21
277.8049619523
0
LINE
5
214
100
AcDbEntity
8
0
100
AcDbLine
62
7
6
CONTINUOUS
10
541.5279327278
20
278.4049619523
11
551.5279327278
21
278.4049619523
0
LINE
5
215
100
AcDbEntity
8
0
100
AcDbLine
62
9
6
CONTINUOUS
10
540.4426959556
20
282.4049619523
11
551.5279327278
21
282.4049619523
0
LINE
5
216
100
AcDbEntity
8
0
100
AcDbLine
62
7
6
CONTINUOUS
10
551.5279327278
20
282.8049619523
11
601.5279327278
21
282.8049619523
0
LINE
5
217
100
AcDbEntity
8
0
100
AcDbLine
62
7
6
CONTINUOUS
10
695.5279327278
20
285.4049619523
11
601.5279327278
21
285.4049619523
0
LINE
5
218
100
AcDbEntity
8
0
100
AcDbLine
62
9
6
CONTINUOUS
10
551.5279327278
20
285.4049619523
11
601.5279327278
21
285.4049619523
0
LINE
5
219
100
AcDbEntity
8
0
100
AcDbLine
62
7
6
CONTINUOUS
10
501.5279327278
20
286.3106661802
11
461.5279327278
21
286.3106661802
0
LINE
5
21A
100
AcDbEntity
8
0
100
AcDbLine
62
9
6
CONTINUOUS
10
551.5279327278
20
287.8049619523
11
601.5279327278
21
287.8049619523
0
LINE
5
21B
100
AcDbEntity
8
0
100
AcDbLine
62
7
6
CONTINUOUS
10
551.5279327278
20
288.8049619523
11
601.5279327278
21
288.8049619523
0
LINE
5
21C
100
AcDbEntity
8
0
100
AcDbLine
62
9
6
CONTINUOUS
10
501.0987724866
20
290.3106661802
11
461.5279327278
21
290.3106661802
0
LINE
5
21D
100
AcDbEntity
8
0
100
AcDbLine
62
7
6
CONTINUOUS
10
581.5263553808
20
290.4049619523
11
551.5279327278
21
290.4049619523
0
LINE
5
21E
100
AcDbEntity
8
0
100
AcDbLine
62
7
6
CONTINUOUS
10
175.6153537193
20
292.4049619523
11
262.5437787188
21
292.4049619523
0
LINE
5
21F
100
AcDbEntity
8
0
100
AcDbLine
62
9
6
CONTINUOUS
10
461.5279327278
20
294.4049619523
11
551.5279327278
21
294.4049619523
0
LINE
5
220
100
AcDbEntity
8
0
100
AcDbLine
62
9
6
CONTINUOUS
10
461.5279327278
20
298.4049619523
11
461.5279327278
21
294.4049619523
0
LINE
5
221
100
AcDbEntity
8
0
100
AcDbLine
62
9
6
CONTINUOUS
10
461.5279327278
20
286.3106661802
11
461.5279327278
21
290.3106661802
0
LINE
5
222
100
AcDbEntity
8
0
100
AcDbLine
62
7
6
CONTINUOUS
10
177.5805224049
20
298.4049619523
11
550.5279327278
21
298.4049619523
0
LINE
5
223
100
AcDbEntity
8
0
100
AcDbLine
62
7
6
CONTINUOUS
10
501.5115934849
20
286.3138955108
11
541.5279327278
21
278.4049619523
0
LINE
5
224
100
AcDbEntity
8
0
100
AcDbLine
62
9
6
CONTINUOUS
10
511.0321922441
20
288.1506849058
11
539.5888153212
21
282.5066795109
0
LINE
5
225
100
AcDbEntity
8
0
100
AcDbLine
62
7
6
CONTINUOUS
10
587.4992140199
20
288.8049619523
11
581.5279327278
21
290.4049619523
0
LINE
5
226
100
AcDbEntity
8
0
100
AcDbLine
62
9
6
CONTINUOUS
10
492.8725722545
20
286.3106661802
11
492.8725722545
21
298.4049619523
0
LINE
5
227
100
AcDbEntity
8
0
100
AcDbLine
62
7
6
CONTINUOUS
10
551.5279327278
20
278.4049619523
11
591.5279327278
21
252.4049619523
0
LINE
5
228
100
AcDbEntity
8
0
100
AcDbLine
62
9
6
CONTINUOUS
10
511.0321922441
20
294.4049619523
11
511.0321922441
21
288.1506849058
0
LINE
5
229
100
AcDbEntity
8
0
100
AcDbLine
62
9
6
CONTINUOUS
10
539.5888153212
20
294.4049619523
11
539.5888153212
21
282.5066795109
0
LINE
5
22A
100
AcDbEntity
8
0
100
AcDbLine
62
9
6
CONTINUOUS
10
544.1287203186
20
298.4049619523
11
544.1287203186
21
278.4049619523
0
LINE
5
22B
100
AcDbEntity
8
0
100
AcDbLine
62
9
6
CONTINUOUS
10
550.5279327278
20
278.4049619523
11
550.5279327278
21
298.4049619523
0
LINE
5
22C
100
AcDbEntity
8
0
100
AcDbLine
62
7
6
CONTINUOUS
10
551.5279327278
20
279.4049619523
11
551.5279327278
21
297.4049619523
0
LINE
5
22D
100
AcDbEntity
8
0
100
AcDbLine
62
7
6
CONTINUOUS
10
701.4978535239
20
281.9582265736
11
695.5279327278
21
285.4049619523
0
LINE
5
22E
100
AcDbEntity
8
0
100
AcDbLine
62
7
6
CONTINUOUS
10
701.2951847597
20
258.7346864654
11
695.5279327278
21
255.4049619523
0
LINE
5
22F
100
AcDbEntity
8
0
100
AcDbLine
62
7
6
CONTINUOUS
10
601.5279327278
20
252.4049619523
11
601.5279327278
21
288.8049619523
0
LINE
5
230
100
AcDbEntity
8
0
100
AcDbLine
62
7
6
CONTINUOUS
10
695.5279327278
20
285.4049619523
11
695.4577820125
21
255.4049619523
0
LINE
5
231
100
AcDbEntity
8
0
100
AcDbLine
62
7
6
CONTINUOUS
10
701.4978535239
20
281.9582265736
11
701.2951847597
21
258.7346864654
0
LINE
5
232
100
AcDbEntity
8
0
100
AcDbLine
62
7
6
CONTINUOUS
10
171.5805224049
20
181.3518032407
11
171.5805224049
21
147.3518032407
0
LINE
5
233
100
AcDbEntity
8
0
100
AcDbLine
62
7
6
CONTINUOUS
10
171.6153537193
20
105.3518032407
11
171.6153537193
21
147.3518032407
0
LINE
5
234
100
AcDbEntity
8
0
100
AcDbLine
62
9
6
CONTINUOUS
10
175.6153537193
20
105.3518032407
11
175.6153537193
21
147.3518032407
0
LINE
5
235
100
AcDbEntity
8
0
100
AcDbLine
62
9
6
CONTINUOUS
10
177.5805817303
20
185.3518032407
11
177.5805224049
21
147.3518032407
0
LINE
5
236
100
AcDbEntity
8
0
100
AcDbLine
62
9
6
CONTINUOUS
10
262.5437787188
20
105.3518032407
11
262.5437787188
21
147.3518032407
0
LINE
5
237
100
AcDbEntity
8
0
100
AcDbLine
62
7
6
CONTINUOUS
10
264.5437787188
20
105.3518032407
11
264.5437787188
21
147.3518032407
0
LINE
5
238
100
AcDbEntity
8
0
100
AcDbLine
62
7
6
CONTINUOUS
10
171.6155345788
20
105.3518032407
11
264.5433566017
21
105.3518032407
0
LINE
5
239
100
AcDbEntity
8
0
100
AcDbLine
62
7
6
CONTINUOUS
10
544.1287203186
20
105.3518032407
11
550.5279327278
21
105.3518032407
0
LINE
5
23A
100
AcDbEntity
8
0
100
AcDbLine
62
9
6
CONTINUOUS
10
544.1287203186
20
109.3518032407
11
551.5279327278
21
109.3518032407
0
LINE
5
23B
100
AcDbEntity
8
0
100
AcDbLine
62
7
6
CONTINUOUS
10
411.5279327278
20
129.3518032407
11
411.5279327278
21
147.3518032407
0
LINE
5
23C
100
AcDbEntity
8
0
100
AcDbLine
62
7
6
CONTINUOUS
10
191.5279327278
20
113.3518032407
11
199.5279327278
21
113.3518032407
0
LINE
5
23D
100
AcDbEntity
8
0
100
AcDbLine
62
7
6
CONTINUOUS
10
551.5279327278
20
115.2518032407
11
601.5279327278
21
115.2518032407
0
LINE
5
23E
100
AcDbEntity
8
0
100
AcDbLine
62
9
6
CONTINUOUS
10
551.5279327278
20
116.2518032407
11
601.5279327278
21
116.2518032407
0
LINE
5
23F
100
AcDbEntity
8
0
100
AcDbLine
62
7
6
CONTINUOUS
10
191.5279327278
20
118.8518032407
11
199.5279327278
21
118.8518032407
0
LINE
5
240
100
AcDbEntity
8
0
100
AcDbLine
62
7
6
CONTINUOUS
10
579.7718074375
20
125.3518032407
11
551.5279327278
21
125.3518032407
0
LINE
5
241
100
AcDbEntity
8
0
100
AcDbLine
62
7
6
CONTINUOUS
10
415.5279327278
20
125.3518032407
11
492.8725722545
21
125.3518032407
0
LINE
5
242
100
AcDbEntity
8
0
100
AcDbLine
62
9
6
CONTINUOUS
10
581.5279327278
20
127.3113950350
11
551.5279327278
21
127.3113950350
0
LINE
5
243
100
AcDbEntity
8
0
100
AcDbLine
62
9
6
CONTINUOUS
10
587.4992140199
20
127.3518032407
11
581.5279327278
21
127.3518032407
0
LINE
5
244
100
AcDbEntity
8
0
100
AcDbLine
62
7
6
CONTINUOUS
10
695.5279327278
20
128.8518032407
11
601.5279327278
21
128.8518032407
0
LINE
5
245
100
AcDbEntity
8
0
100
AcDbLine
62
9
6
CONTINUOUS
10
411.5279327278
20
129.3518032407
11
492.8725722545
21
129.3518032407
0
LINE
5
246
100
AcDbEntity
8
0
100
AcDbLine
62
7
6
CONTINUOUS
10
422.2639428014
20
129.3518032407
11
422.2639428014
21
147.3518032407
0
LINE
5
247
100
AcDbEntity
8
0
100
AcDbLine
62
7
6
CONTINUOUS
10
199.5279327278
20
131.8518032407
11
191.5279327278
21
131.8518032407
0
LINE
5
248
100
AcDbEntity
8
0
100
AcDbLine
62
7
6
CONTINUOUS
10
610.0279327278
20
135.2518032407
11
687.5279327278
21
135.2518032407
0
LINE
5
249
100
AcDbEntity
8
0
100
AcDbLine
62
7
6
CONTINUOUS
10
199.5279327278
20
137.3518032407
11
191.5279327278
21
137.3518032407
0
LINE
5
24A
100
AcDbEntity
8
0
100
AcDbLine
62
7
6
CONTINUOUS
10
616.0279327278
20
138.8518032407
11
647.5279327278
21
138.8518032407
0
LINE
5
24B
100
AcDbEntity
8
0
100
AcDbLine
62
7
6
CONTINUOUS
10
649.5279327278
20
138.8518032407
11
681.5279327278
21
138.8518032407
0
LINE
5
24C
100
AcDbEntity
8
0
100
AcDbLine
62
7
6
CONTINUOUS
10
171.5803985287
20
147.3518032407
11
461.5279327278
21
147.3518032407
0
LINE
5
24D
100
AcDbEntity
8
0
100
AcDbLine
62
7
6
CONTINUOUS
10
681.5279327278
20
151.8518032407
11
649.5279327278
21
151.8518032407
0
LINE
5
24E
100
AcDbEntity
8
0
100
AcDbLine
62
7
6
CONTINUOUS
10
647.5279327278
20
151.8518032407
11
616.0279327278
21
151.8518032407
0
LINE
5
24F
100
AcDbEntity
8
0
100
AcDbLine
62
7
6
CONTINUOUS
10
687.5279327278
20
155.4518032407
11
610.0279327278
21
155.4518032407
0
LINE
5
250
100
AcDbEntity
8
0
100
AcDbLine
62
7
6
CONTINUOUS
10
601.5279327278
20
161.8518032407
11
695.5279327278
21
161.8518032407
0
LINE
5
251
100
AcDbEntity
8
0
100
AcDbLine
62
9
6
CONTINUOUS
10
581.5279327278
20
163.3518032407
11
587.4992140199
21
163.3518032407
0
LINE
5
252
100
AcDbEntity
8
0
100
AcDbLine
62
9
6
CONTINUOUS
10
551.5279327278
20
163.3922114465
11
581.5279327278
21
163.3922114465
0
LINE
5
253
100
AcDbEntity
8
0
100
AcDbLine
62
7
6
CONTINUOUS
10
551.5279327278
20
165.3518032407
11
579.7718083067
21
165.3518032407
0
LINE
5
254
100
AcDbEntity
8
0
100
AcDbLine
62
7
6
CONTINUOUS
10
511.0321922441
20
120.9920642083
11
539.5888153212
21
106.4417379989
0
LINE
5
255
100
AcDbEntity
8
0
100
AcDbLine
62
9
6
CONTINUOUS
10
512.8481542431
20
124.5560903050
11
541.4047773202
21
110.0057640956
0
LINE
5
256
100
AcDbEntity
8
0
100
AcDbLine
62
9
6
CONTINUOUS
10
461.5279327278
20
147.3518032407
11
461.5279327278
21
125.3518032407
0
LINE
5
257
100
AcDbEntity
8
0
100
AcDbLine
62
9
6
CONTINUOUS
10
551.5279327278
20
174.4518032407
11
601.5279327278
21
174.4518032407
0
LINE
5
258
100
AcDbEntity
8
0
100
AcDbLine
62
7
6
CONTINUOUS
10
551.5279327278
20
175.4518032407
11
601.5279327278
21
175.4518032407
0
LINE
5
259
100
AcDbEntity
8
0
100
AcDbLine
62
9
6
CONTINUOUS
10
171.5805224049
20
181.3518032407
11
551.5279327278
21
181.3518032407
0
LINE
5
25A
100
AcDbEntity
8
0
100
AcDbLine
62
7
6
CONTINUOUS
10
550.5279327278
20
185.3518032407
11
175.5957559357
21
185.3518032407
0
LINE
5
25B
100
AcDbEntity
8
0
100
AcDbLine
62
9
6
CONTINUOUS
10
492.8725722545
20
129.3518032407
11
492.8725722485
21
125.3518032407
0
LINE
5
25C
100
AcDbEntity
8
0
100
AcDbLine
62
9
6
CONTINUOUS
10
512.8481542431
20
124.5560903050
11
511.0321922441
21
120.9920642083
0
LINE
5
25D
100
AcDbEntity
8
0
100
AcDbLine
62
9
6
CONTINUOUS
10
544.1287203186
20
109.3518032407
11
544.1287203186
21
105.3518032407
0
LINE
5
25E
100
AcDbEntity
8
0
100
AcDbLine
62
9
6
CONTINUOUS
10
541.4047773202
20
110.0057640956
11
539.5888153197
21
106.4417379997
0
LINE
5
25F
100
AcDbEntity
8
0
100
AcDbLine
62
9
6
CONTINUOUS
10
550.5279327278
20
105.3518032407
11
550.5279327278
21
185.3518032407
0
LINE
5
260
100
AcDbEntity
8
0
100
AcDbLine
62
7
6
CONTINUOUS
10
551.5279327278
20
106.3518032407
11
551.5279327278
21
184.3518032407
0
LINE
5
261
100
AcDbEntity
8
0
100
AcDbLine
62
7
6
CONTINUOUS
10
581.5279327278
20
163.3922114465
11
581.5279327278
21
127.3113950350
0
LINE
5
262
100
AcDbEntity
8
0
100
AcDbLine
62
7
6
CONTINUOUS
10
610.0279327278
20
155.4518032407
11
604.1966950090
21
145.3518032407
0
LINE
5
263
100
AcDbEntity
8
0
100
AcDbLine
62
7
6
CONTINUOUS
10
646.0279327278
20
150.3518032407
11
647.5279327278
21
151.8518032407
0
LINE
5
264
100
AcDbEntity
8
0
100
AcDbLine
62
7
6
CONTINUOUS
10
701.4978535239
20
132.3332710924
11
695.5279327278
21
128.8518032407
0
LINE
5
265
100
AcDbEntity
8
0
100
AcDbLine
62
7
6
CONTINUOUS
10
701.4978535239
20
158.3703353891
11
695.5279327278
21
161.8518032407
0
LINE
5
266
100
AcDbEntity
8
0
100
AcDbLine
62
7
6
CONTINUOUS
10
647.5279327278
20
138.8518032407
11
646.0279327278
21
140.3518032407
0
LINE
5
267
100
AcDbEntity
8
0
100
AcDbLine
62
7
6
CONTINUOUS
10
604.1966950090
20
145.3518032407
11
610.0279327278
21
135.2518032407
0
LINE
5
268
100
AcDbEntity
8
0
100
AcDbLine
62
7
6
CONTINUOUS
10
587.4992140199
20
163.3518032407
11
587.4992140199
21
127.3518032407
0
LINE
5
269
100
AcDbEntity
8
0
100
AcDbLine
62
7
6
CONTINUOUS
10
651.0279327278
20
140.3518032407
11
649.5279327278
21
138.8518032407
0
LINE
5
26A
100
AcDbEntity
8
0
100
AcDbLine
62
7
6
CONTINUOUS
10
649.5279327278
20
151.8518032407
11
651.0279327278
21
150.3518032407
0
LINE
5
26B
100
AcDbEntity
8
0
100
AcDbLine
62
7
6
CONTINUOUS
10
601.5279327278
20
115.2518032407
11
601.5279327278
21
175.4518032407
0
LINE
5
26C
100
AcDbEntity
8
0
100
AcDbLine
62
7
6
CONTINUOUS
10
646.0279327278
20
150.3518032407
11
646.0279327278
21
140.3518032407
0
LINE
5
26D
100
AcDbEntity
8
0
100
AcDbLine
62
7
6
CONTINUOUS
10
651.0279327278
20
140.3518032407
11
651.0279327278
21
150.3518032407
0
LINE
5
26E
100
AcDbEntity
8
0
100
AcDbLine
62
7
6
CONTINUOUS
10
687.5279327278
20
135.2518032407
11
693.3591704466
21
145.3518032407
0
LINE
5
26F
100
AcDbEntity
8
0
100
AcDbLine
62
7
6
CONTINUOUS
10
693.3591704466
20
145.3518032407
11
687.5279327278
21
155.4518032407
0
LINE
5
270
100
AcDbEntity
8
0
100
AcDbLine
62
7
6
CONTINUOUS
10
695.5279327278
20
161.8518032407
11
695.5279327278
21
128.8518032407
0
LINE
5
271
100
AcDbEntity
8
0
100
AcDbLine
62
7
6
CONTINUOUS
10
701.4978535239
20
158.3703353891
11
701.4978535239
21
132.3332710924
0
ARC
5
272
100
AcDbEntity
8
0
100
AcDbCircle
62
7
6
CONTINUOUS
10
352.1275044506
20
143.5759590815
40
170.0000000000
100
AcDbArc
50
121.3883195864
51
140.1954577300
0
ARC
5
273
100
AcDbEntity
8
0
100
AcDbCircle
62
7
6
CONTINUOUS
10
550.5279327278
20
279.4049619523
40
1.0000000000
100
AcDbArc
50
270.0000000000
51
360.0000000000
0
ARC
5
274
100
AcDbEntity
8
0
100
AcDbCircle
62
7
6
CONTINUOUS
10
550.5279327278
20
297.4049619523
40
1.0000000000
100
AcDbArc
50
0.0000000000
51
90.0000000000
0
ARC
5
275
100
AcDbEntity
8
0
100
AcDbCircle
62
7
6
CONTINUOUS
10
177.5805224049
20
292.4049619523
40
6.0000000000
100
AcDbArc
50
90.0000000000
51
180.5000000000
0
ARC
5
276
100
AcDbEntity
8
0
100
AcDbCircle
62
7
6
CONTINUOUS
10
175.6153537193
20
288.4049619523
40
4.0000000000
100
AcDbArc
50
90.0000000000
51
180.5000000000
0
ARC
5
277
100
AcDbEntity
8
0
100
AcDbCircle
62
7
6
CONTINUOUS
10
262.5437787188
20
290.4049619523
40
2.0000000000
100
AcDbArc
50
301.3883195864
51
90.0000000000
0
ARC
5
278
100
AcDbEntity
8
0
100
AcDbCircle
62
7
6
CONTINUOUS
10
415.5279327278
20
276.4049619523
40
4.0000000000
100
AcDbArc
50
180.0000000000
51
270.0000000000
0
ARC
5
279
100
AcDbEntity
8
0
100
AcDbCircle
62
7
6
CONTINUOUS
10
419.6173893465
20
276.4049619523
40
4.0000000000
100
AcDbArc
50
270.0000000000
51
360.0000000000
0
ARC
5
27A
100
AcDbEntity
8
0
100
AcDbCircle
62
7
6
CONTINUOUS
10
461.5279327278
20
178.3106661802
40
108.0000000000
100
AcDbArc
50
90.0000000000
51
109.0299839360
0
ARC
5
27B
100
AcDbEntity
8
0
100
AcDbCircle
62
7
6
CONTINUOUS
10
427.6173893465
20
276.6268654944
40
4.0000000000
100
AcDbArc
50
109.0299839360
51
180.0000000000
0
ARC
5
27C
100
AcDbEntity
8
0
100
AcDbCircle
62
7
6
CONTINUOUS
10
461.5279327278
20
178.4049619523
40
120.0000000000
100
AcDbArc
50
90.0000000000
51
109.0989096317
0
ARC
5
27D
100
AcDbEntity
8
0
100
AcDbCircle
62
7
6
CONTINUOUS
10
427.6173893465
20
276.6268654944
40
16.0894566187
100
AcDbArc
50
109.4345656063
51
180.0000000000
0
ARC
5
27E
100
AcDbEntity
8
0
100
AcDbCircle
62
9
6
CONTINUOUS
10
461.5279327278
20
178.3106661802
40
112.0000055226
100
AcDbArc
50
90.0000000000
51
109.0299839360
0
ARC
5
27F
100
AcDbEntity
8
0
100
AcDbCircle
62
9
6
CONTINUOUS
10
427.6173893465
20
276.6268654944
40
7.9999211144
100
AcDbArc
50
109.0299839360
51
180.0000000000
0
ARC
5
280
100
AcDbEntity
8
0
100
AcDbCircle
62
9
6
CONTINUOUS
10
461.5279327278
20
178.4049619523
40
116.0000051755
100
AcDbArc
50
90.0000000000
51
109.0939950123
0
ARC
5
281
100
AcDbEntity
8
0
100
AcDbCircle
62
9
6
CONTINUOUS
10
427.6173893465
20
276.6268654944
40
12.0894522945
100
AcDbArc
50
109.4984851842
51
180.0000000000
0
ARC
5
282
100
AcDbEntity
8
0
100
AcDbCircle
62
7
6
CONTINUOUS
10
550.5279327278
20
184.3518032407
40
1.0000000000
100
AcDbArc
50
0.0000000000
51
90.0000000000
0
ARC
5
283
100
AcDbEntity
8
0
100
AcDbCircle
62
7
6
CONTINUOUS
10
175.5805224049
20
181.3518032407
40
4.0000000000
100
AcDbArc
50
90.0000000000
51
180.0000000000
0
ARC
5
284
100
AcDbEntity
8
0
100
AcDbCircle
62
7
6
CONTINUOUS
10
550.5279327278
20
106.3518032407
40
1.0000000000
100
AcDbArc
50
270.0000000000
51
360.0000000000
0
ARC
5
285
100
AcDbEntity
8
0
100
AcDbCircle
62
7
6
CONTINUOUS
10
199.5279327278
20
125.3518032407
40
12.0000000000
100
AcDbArc
50
270.0000000000
51
90.0000000000
0
ARC
5
286
100
AcDbEntity
8
0
100
AcDbCircle
62
7
6
CONTINUOUS
10
681.5279327278
20
145.3518032407
40
6.5000000000
100
AcDbArc
50
270.0000000000
51
90.0000000000
0
ARC
5
287
100
AcDbEntity
8
0
100
AcDbCircle
62
7
6
CONTINUOUS
10
191.5279327278
20
125.3518032407
40
12.0000000000
100
AcDbArc
50
90.0000000000
51
270.0000000000
0
ARC
5
288
100
AcDbEntity
8
0
100
AcDbCircle
62
7
6
CONTINUOUS
10
616.0279327278
20
145.3518032407
40
6.5000000000
100
AcDbArc
50
90.0000000000
51
270.0000000000
0
ARC
5
289
100
AcDbEntity
8
0
100
AcDbCircle
62
7
6
CONTINUOUS
10
544.1287203186
20
115.3518032407
40
10.0000000000
100
AcDbArc
50
243.0000000000
51
270.0000000000
0
ARC
5
28A
100
AcDbEntity
8
0
100
AcDbCircle
62
7
6
CONTINUOUS
10
492.8725722545
20
85.3518032407
40
40.0000000000
100
AcDbArc
50
63.0000000000
51
90.0000000000
0
ARC
5
28B
100
AcDbEntity
8
0
100
AcDbCircle
62
7
6
CONTINUOUS
10
415.5279327278
20
129.3518032407
40
4.0000000000
100
AcDbArc
50
180.0000000000
51
270.0000000000
0
ARC
5
28C
100
AcDbEntity
8
0
100
AcDbCircle
62
7
6
CONTINUOUS
10
199.5279327278
20
125.3518032407
40
6.5000000000
100
AcDbArc
50
270.0000000000
51
90.0000000000
0
ARC
5
28D
100
AcDbEntity
8
0
100
AcDbCircle
62
7
6
CONTINUOUS
10
191.5279327278
20
125.3518032407
40
6.5000000000
100
AcDbArc
50
90.0000000000
51
270.0000000000
0
ARC
5
28E
100
AcDbEntity
8
0
100
AcDbCircle
62
9
6
CONTINUOUS
10
544.1287203186
20
115.3518032407
40
6.0000158849
100
AcDbArc
50
243.0000000000
51
270.0000000000
0
ARC
5
28F
100
AcDbEntity
8
0
100
AcDbCircle
62
9
6
CONTINUOUS
10
492.8725722545
20
85.3518032407
40
44.0000206097
100
AcDbArc
50
63.0000000000
51
90.0000000000
0
SPLINE
5
290
100
AcDbEntity
8
0
100
AcDbSpline
62
7
6
CONTINUOUS
70
0
71
3
72
9
73
5
74
3
42
0.0000001000
43
0.0000001000
44
0.0000000001
12
-1.5532538820
22
0.3069961629
32
0.0000000000
13
-0.3747210500
23
1.5368266380
33
0.0000000000
40
0.0000000000
40
0.0000000000
40
0.0000000000
40
0.0000000000
40
0.3964774858
40
1.0000000000
40
1.0000000000
40
1.0000000000
40
1.0000000000
10
541.4761534988
20
278.4151957340
30
0.0000000000
10
541.2708767675
20
278.4557680896
30
0.0000000000
10
540.8503139872
20
278.8679118816
30
0.0000000000
10
540.6855713501
20
279.3695807370
30
0.0000000000
10
540.6101871534
20
279.6787505625
30
0.0000000000
11
541.4761534988
21
278.4151957340
31
0.0000000000
11
540.9776029131
21
278.7966523968
31
0.0000000000
11
540.6101871534
21
279.6787505625
31
0.0000000000
0
SPLINE
5
291
100
AcDbEntity
8
0
100
AcDbSpline
62
7
6
CONTINUOUS
70
0
71
3
72
9
73
5
74
3
42
0.0000001000
43
0.0000001000
44
0.0000000001
12
-0.6484459733
22
2.6594423902
32
0.0000000000
13
0.2321443639
23
2.7300140705
33
0.0000000000
40
0.0000000000
40
0.0000000000
40
0.0000000000
40
0.0000000000
40
0.4651119874
40
1.0000000000
40
1.0000000000
40
1.0000000000
40
1.0000000000
10
540.6101871534
20
279.6787505625
30
0.0000000000
10
540.5096538216
20
280.0910634076
30
0.0000000000
10
540.3854372377
20
281.0020221728
30
0.0000000000
10
540.4047543165
20
281.9182113521
30
0.0000000000
10
540.4461447290
20
282.4049619523
30
0.0000000000
11
540.6101871534
21
279.6787505625
31
0.0000000000
11
540.4251550940
21
280.9395905822
31
0.0000000000
11
540.4461447290
21
282.4049619523
31
0.0000000000
0
SPLINE
5
292
100
AcDbEntity
8
0
100
AcDbSpline
62
9
6
CONTINUOUS
70
0
71
3
72
11
73
7
74
5
42
0.0000001000
43
0.0000001000
44
0.0000000001
12
-4.7000640011
22
0.0000000000
32
0.0000000000
13
-0.0000000000
23
-4.7000640011
33
0.0000000000
40
0.0000000000
40
0.0000000000
40
0.0000000000
40
0.0000000000
40
0.1614265778
40
0.3844661363
40
0.6729911499
40
1.0000000000
40
1.0000000000
40
1.0000000000
40
1.0000000000
10
512.8481542431
20
298.4049619523
30
0.0000000000
10
512.5952491607
20
298.4049619523
30
0.0000000000
10
512.0097216110
20
298.0875562514
30
0.0000000000
10
511.4778668244
20
297.1552119109
30
0.0000000000
10
511.1122839622
20
295.8852966966
30
0.0000000000
10
511.0321922441
20
294.9172827938
30
0.0000000000
10
511.0321922441
20
294.4049619523
30
0.0000000000
11
512.8481542431
21
298.4049619523
31
0.0000000000
11
512.1532156723
21
298.1004800823
31
0.0000000000
11
511.5640751992
21
297.2333890770
31
0.0000000000
11
511.1704241204
21
295.9356956817
31
0.0000000000
11
511.0321922441
21
294.4049619523
31
0.0000000000
0
SPLINE
5
293
100
AcDbEntity
8
0
100
AcDbSpline
62
9
6
CONTINUOUS
70
0
71
3
72
9
73
5
74
3
42
0.0000001000
43
0.0000001000
44
0.0000000001
12
9.9334991024
22
-2.1596163755
32
0.0000000000
13
9.9334971795
23
-2.1596252202
33
0.0000000000
40
0.0000000000
40
0.0000000000
40
0.0000000000
40
0.0000000000
40
0.5123142992
40
1.0000000000
40
1.0000000000
40
1.0000000000
40
1.0000000000
10
501.0987724866
20
290.3106661802
30
0.0000000000
10
502.7951303637
20
289.9418653969
30
0.0000000000
10
506.1061824928
20
289.2214679032
30
0.0000000000
10
509.4173840664
20
288.5017576855
30
0.0000000000
10
511.0321922441
20
288.1506849058
30
0.0000000000
11
501.0987724866
21
290.3106661802
31
0.0000000000
11
506.1877682902
21
289.2039059092
31
0.0000000000
11
511.0321922441
21
288.1506849058
31
0.0000000000
0
SPLINE
5
294
100
AcDbEntity
8
0
100
AcDbSpline
62
9
6
CONTINUOUS
70
0
71
3
72
11
73
7
74
5
42
0.0000001000
43
0.0000001000
44
0.0000000001
12
-0.6719719729
22
-4.2826129286
32
0.0000000000
13
4.2527449849
23
-0.8405236002
33
0.0000000000
40
0.0000000000
40
0.0000000000
40
0.0000000000
40
0.0000000000
40
0.3299925335
40
0.6168344851
40
0.8379506146
40
1.0000000000
40
1.0000000000
40
1.0000000000
40
1.0000000000
10
511.0321922441
20
288.1506849058
30
0.0000000000
10
510.9582769995
20
287.6796081424
30
0.0000000000
10
510.8873358888
20
286.7851905987
30
0.0000000000
10
511.0247005091
20
285.5752873232
30
0.0000000000
10
511.3656833272
20
284.6498873005
30
0.0000000000
10
511.8428683203
20
284.2719954321
30
0.0000000000
10
512.0725865573
20
284.2265933212
30
0.0000000000
11
511.0321922441
21
288.1506849058
31
0.0000000000
11
510.9316164537
21
286.7237036396
31
0.0000000000
11
511.0913566221
21
285.4905437532
31
0.0000000000
11
511.4897158578
21
284.6187006131
31
0.0000000000
11
512.0725865573
21
284.2265933212
31
0.0000000000
0
SPLINE
5
295
100
AcDbEntity
8
0
100
AcDbSpline
62
9
6
CONTINUOUS
70
0
71
3
72
11
73
7
74
5
42
0.0000001000
43
0.0000001000
44
0.0000000001
12
-4.7000644106
22
0.0000000000
32
0.0000000000
13
-0.0000004476
23
-4.7000644106
33
0.0000000000
40
0.0000000000
40
0.0000000000
40
0.0000000000
40
0.0000000000
40
0.1614237765
40
0.3844612541
40
0.6729871257
40
1.0000000000
40
1.0000000000
40
1.0000000000
40
1.0000000000
10
541.4047773202
20
298.4049619523
30
0.0000000000
10
541.1518766046
20
298.4049619523
30
0.0000000000
10
540.5663551837
20
298.0875656026
30
0.0000000000
10
540.0344967301
20
297.1552294089
30
0.0000000000
10
539.6689088473
20
295.8853109299
30
0.0000000000
10
539.5888153685
20
294.9172891431
30
0.0000000000
10
539.5888153197
20
294.4049619523
30
0.0000000000
11
541.4047773202
21
298.4049619523
31
0.0000000000
11
540.7098489995
21
298.1004893318
31
0.0000000000
11
540.1207080820
21
297.2334103419
31
0.0000000000
11
539.7270508436
21
295.9357144777
31
0.0000000000
11
539.5888153197
21
294.4049619523
31
0.0000000000
0
SPLINE
5
296
100
AcDbEntity
8
0
100
AcDbSpline
62
9
6
CONTINUOUS
70
0
71
3
72
9
73
5
74
3
42
0.0000001000
43
0.0000001000
44
0.0000000001
12
0.8539264730
22
-0.1013328438
32
0.0000000000
13
0.8539308015
23
-0.1012963616
33
0.0000000000
40
0.0000000000
40
0.0000000000
40
0.0000000000
40
0.0000000000
40
0.4966160685
40
1.0000000000
40
1.0000000000
40
1.0000000000
40
1.0000000000
10
539.5888153212
20
282.5066795109
30
0.0000000000
10
539.7301731905
20
282.4899050048
30
0.0000000000
10
540.0148411336
20
282.4563439137
30
0.0000000000
10
540.2994109409
20
282.4219589392
30
0.0000000000
10
540.4426959556
20
282.4049619523
30
0.0000000000
11
539.5888153212
21
282.5066795109
31
0.0000000000
11
540.0128903370
21
282.4563678582
31
0.0000000000
11
540.4426959556
21
282.4049619523
31
0.0000000000
0
SPLINE
5
297
100
AcDbEntity
8
0
100
AcDbSpline
62
9
6
CONTINUOUS
70
0
71
3
72
11
73
7
74
5
42
0.0000001000
43
0.0000001000
44
0.0000000001
12
-0.6719719988
22
-4.2826129273
32
0.0000000000
13
4.2527449876
23
-0.8405236007
33
0.0000000000
40
0.0000000000
40
0.0000000000
40
0.0000000000
40
0.0000000000
40
0.3299925358
40
0.6168344878
40
0.8379506161
40
1.0000000000
40
1.0000000000
40
1.0000000000
40
1.0000000000
10
539.5888153212
20
282.5066795109
30
0.0000000000
10
539.5149000733
20
282.0356027444
30
0.0000000000
10
539.4439589589
20
281.1411851959
30
0.0000000000
10
539.5813235849
20
279.9312819178
30
0.0000000000
10
539.9223064079
20
279.0058818993
30
0.0000000000
10
540.3994913994
20
278.6279900368
30
0.0000000000
10
540.6292096344
20
278.5825879263
30
0.0000000000
11
539.5888153212
21
282.5066795109
31
0.0000000000
11
539.4882395259
21
281.0796982342
31
0.0000000000
11
539.6479796993
21
279.8465383459
31
0.0000000000
11
540.0463389383
21
278.9746952123
31
0.0000000000
11
540.6292096344
21
278.5825879263
31
0.0000000000
0
SPLINE
5
298
100
AcDbEntity
8
0
100
AcDbSpline
62
7
6
CONTINUOUS
70
0
71
3
72
11
73
7
74
5
42
0.0000001000
43
0.0000001000
44
0.0000000001
12
-4.0321303602
22
0.7968159843
32
0.0000000000
13
0.3834409846
23
4.0921832762
33
0.0000000000
40
0.0000000000
40
0.0000000000
40
0.0000000000
40
0.0000000000
40
0.1079151382
40
0.3258511333
40
0.6369063110
40
1.0000000000
40
1.0000000000
40
1.0000000000
40
1.0000000000
10
501.5118039652
20
286.3138410628
30
0.0000000000
10
501.3667613302
20
286.3425038985
30
0.0000000000
10
501.1477029739
20
286.8425236162
30
0.0000000000
10
501.0400535411
20
287.6483920223
30
0.0000000000
10
500.9959050008
20
288.8998930170
30
0.0000000000
10
501.0505679266
20
289.8153842064
30
0.0000000000
10
501.0969762605
20
290.3106661802
30
0.0000000000
11
501.5118039652
21
286.3138410628
31
0.0000000000
11
501.2396517934
21
286.6640745740
31
0.0000000000
11
501.0665246267
21
287.5429250378
31
0.0000000000
11
501.0172205423
21
288.8204444755
31
0.0000000000
11
501.0969762605
21
290.3106661802
31
0.0000000000
0
SPLINE
5
299
100
AcDbEntity
8
0
100
AcDbSpline
62
7
6
CONTINUOUS
70
0
71
3
72
15
73
11
74
9
42
0.0000001000
43
0.0000001000
44
0.0000000001
12
-1.8009148490
22
-2.0290194232
32
0.0000000000
13
-2.6454604930
23
-0.0000000121
33
0.0000000000
40
0.0000000000
40
0.0000000000
40
0.0000000000
40
0.0000000000
40
0.0451078414
40
0.1421679846
40
0.2674001523
40
0.4089837235
40
0.5530463600
40
0.6947726567
40
0.8425131282
40
1.0000000000
40
1.0000000000
40
1.0000000000
40
1.0000000000
10
581.5287091002
20
290.4047539239
30
0.0000000000
10
581.5016306397
20
290.3742456951
30
0.0000000000
10
581.4335396361
20
290.2692791323
30
0.0000000000
10
581.3715657011
20
290.0382340319
30
0.0000000000
10
581.2622236882
20
289.7375777555
30
0.0000000000
10
581.1249669289
20
289.4022307913
30
0.0000000000
10
580.9124371806
20
289.0813295209
30
0.0000000000
10
580.5720016345
20
288.8806329157
30
0.0000000000
10
580.1797074609
20
288.8139732190
30
0.0000000000
10
579.9106825367
20
288.8049619529
30
0.0000000000
10
579.7718074375
20
288.8049619523
30
0.0000000000
11
581.5287091002
21
290.4047539239
31
0.0000000000
11
581.4619597576
21
290.3058377180
31
0.0000000000
11
581.3751823219
21
290.0641770467
31
0.0000000000
11
581.2651642965
21
289.7516813314
31
0.0000000000
11
581.1143395289
21
289.4088367650
31
0.0000000000
11
580.8903628088
21
289.1004850250
31
0.0000000000
11
580.5703097664
21
288.9051915440
31
0.0000000000
11
580.1879983983
21
288.8239809593
31
0.0000000000
11
579.7718074375
21
288.8049619523
31
0.0000000000
0
SPLINE
5
29A
100
AcDbEntity
8
0
100
AcDbSpline
62
7
6
CONTINUOUS
70
0
71
3
72
22
73
18
74
16
42
0.0000001000
43
0.0000001000
44
0.0000000001
12
8.3116243985
22
-0.0000002497
32
0.0000000000
13
0.0000000000
23
-8.3116243985
33
0.0000000000
40
0.0000000000
40
0.0000000000
40
0.0000000000
40
0.0000000000
40
0.1078126780
40
0.2068756927
40
0.2978729173
40
0.3815484332
40
0.4587037097
40
0.5301704934
40
0.5967840980
40
0.6594983727
40
0.7190801953
40
0.7754372067
40
0.8280473566
40
0.8769310333
40
0.9221030477
40
0.9629235144
40
1.0000000000
40
1.0000000000
40
1.0000000000
40
1.0000000000
10
579.7718083067
20
165.3518032407
30
0.0000000000
10
580.0705078017
20
165.3518032318
30
0.0000000000
10
580.6437051613
20
165.3432283861
30
0.0000000000
10
581.4682739715
20
165.3067464348
30
0.0000000000
10
582.2247776862
20
165.2517848429
30
0.0000000000
10
582.9190359598
20
165.1816388723
30
0.0000000000
10
583.5573300014
20
165.0985261044
30
0.0000000000
10
584.1461560698
20
165.0036778134
30
0.0000000000
10
584.6923077743
20
164.8972826459
30
0.0000000000
10
585.2021564582
20
164.7784399428
30
0.0000000000
10
585.6791256819
20
164.6455231653
30
0.0000000000
10
586.1220660180
20
164.4967920106
30
0.0000000000
10
586.5267897483
20
164.3300495312
30
0.0000000000
10
586.8878450331
20
164.1418326294
30
0.0000000000
10
587.1941215001
20
163.9251413947
30
0.0000000000
10
587.4280080924
20
163.6709380088
30
0.0000000000
10
587.4992140199
20
163.4545251814
30
0.0000000000
10
587.4992140199
20
163.3518032407
30
0.0000000000
11
579.7718083067
21
165.3518032407
31
0.0000000000
11
580.6678052449
21
165.3383131917
31
0.0000000000
11
581.4903660460
21
165.3017152338
31
0.0000000000
11
582.2446920295
21
165.2466283158
31
0.0000000000
11
582.9366139068
21
165.1763731109
31
0.0000000000
11
583.5724792352
21
165.0931709091
31
0.0000000000
11
584.1588495030
21
164.9982397546
31
0.0000000000
11
584.7021915226
21
164.8918119108
31
0.0000000000
11
585.2096749315
21
164.7727742421
31
0.0000000000
11
585.6864540478
21
164.6388853460
31
0.0000000000
11
586.1300472235
21
164.4884167175
31
0.0000000000
11
586.5335569651
21
164.3199233387
31
0.0000000000
11
586.8921307159
21
164.1288558170
31
0.0000000000
11
587.1952150583
21
163.9072600149
31
0.0000000000
11
587.4140241797
21
163.6479600657
31
0.0000000000
11
587.4992140199
21
163.3518032407
31
0.0000000000
0
SPLINE
5
29B
100
AcDbEntity
8
0
100
AcDbSpline
62
7
6
CONTINUOUS
70
0
71
3
72
13
73
9
74
7
42
0.0000001000
43
0.0000001000
44
0.0000000001
12
3.2257606187
22
-0.0000000969
32
0.0000000000
13
0.0000000000
23
-3.2257606187
33
0.0000000000
40
0.0000000000
40
0.0000000000
40
0.0000000000
40
0.0000000000
40
0.1762185599
40
0.3307579311
40
0.4472011065
40
0.5763323509
40
0.7579110726
40
1.0000000000
40
1.0000000000
40
1.0000000000
40
1.0000000000
10
579.7718083067
20
165.3518032407
30
0.0000000000
10
579.9612879370
20
165.3518032351
30
0.0000000000
10
580.3147536703
20
165.3420952958
30
0.0000000000
10
580.8034206728
20
165.3369053918
30
0.0000000000
10
581.1961516571
20
165.0972117115
30
0.0000000000
10
581.3535779040
20
164.6452529366
30
0.0000000000
10
581.4594712103
20
164.0672881559
30
0.0000000000
10
581.5286059348
20
163.6121102168
30
0.0000000000
10
581.5286059348
20
163.3518032407
30
0.0000000000
11
579.7718083067
21
165.3518032407
31
0.0000000000
11
580.3401809491
21
165.3431250027
31
0.0000000000
11
580.8352511248
21
165.2846889856
31
0.0000000000
11
581.1498518179
21
165.0794692432
31
0.0000000000
11
581.3247500369
21
164.7014195304
31
0.0000000000
11
581.4456716054
21
164.1283078403
31
0.0000000000
11
581.5286059348
21
163.3518032407
31
0.0000000000
0
SPLINE
5
29C
100
AcDbEntity
8
0
100
AcDbSpline
62
7
6
CONTINUOUS
70
0
71
3
72
11
73
7
74
5
42
0.0000001000
43
0.0000001000
44
0.0000000001
12
0.0000000383
22
-4.4139344935
32
0.0000000000
13
4.4139344935
23
0.0000000000
33
0.0000000000
40
0.0000000000
40
0.0000000000
40
0.0000000000
40
0.0000000000
40
0.3475296786
40
0.6484732745
40
0.8672059247
40
1.0000000000
40
1.0000000000
40
1.0000000000
40
1.0000000000
10
422.2639428013
20
129.3518032407
30
0.0000000000
10
422.2639428058
20
128.8404788287
30
0.0000000000
10
422.3171565555
20
127.8855012298
30
0.0000000000
10
422.5866264147
20
126.6278344623
30
0.0000000000
10
422.9208174162
20
125.7368750166
30
0.0000000000
10
423.3773610158
20
125.3518032407
30
0.0000000000
10
423.5727424656
20
125.3518032407
30
0.0000000000
11
422.2639428013
21
129.3518032407
31
0.0000000000
11
422.3635693783
21
127.8210686348
31
0.0000000000
11
422.6472817261
21
126.5233750699
31
0.0000000000
11
423.0718869191
21
125.6562846361
31
0.0000000000
11
423.5727424656
21
125.3518032407
31
0.0000000000
0
SPLINE
5
29D
100
AcDbEntity
8
0
100
AcDbSpline
62
7
6
CONTINUOUS
70
0
71
3
72
15
73
11
74
9
42
0.0000001000
43
0.0000001000
44
0.0000000001
12
0.0000000000
22
-3.2311551482
32
0.0000000000
13
-3.2311551482
23
-0.0000000030
33
0.0000000000
40
0.0000000000
40
0.0000000000
40
0.0000000000
40
0.0000000000
40
0.2059921748
40
0.3614832365
40
0.4785583750
40
0.5692324244
40
0.6518686328
40
0.7527193327
40
0.8711884890
40
1.0000000000
40
1.0000000000
40
1.0000000000
40
1.0000000000
10
581.5287091002
20
127.3518032407
30
0.0000000000
10
581.5287091002
20
127.1299390154
30
0.0000000000
10
581.4700141705
20
126.7431239350
30
0.0000000000
10
581.3929029561
20
126.2329951879
30
0.0000000000
10
581.2871553288
20
125.8566690653
30
0.0000000000
10
581.1396560009
20
125.5709986240
30
0.0000000000
10
580.8776850381
20
125.4081794245
30
0.0000000000
10
580.5508035248
20
125.3686676054
30
0.0000000000
10
580.1771889163
20
125.3530635182
30
0.0000000000
10
579.9105440965
20
125.3518032409
30
0.0000000000
10
579.7718074375
20
125.3518032407
30
0.0000000000
11
581.5287091002
21
127.3518032407
31
0.0000000000
11
581.4619597576
21
126.6895660206
31
0.0000000000
11
581.3751823219
21
126.1947011331
31
0.0000000000
11
581.2651642965
21
125.8327649548
31
0.0000000000
11
581.1143395289
21
125.5815871380
31
0.0000000000
11
580.8903628088
21
125.4362290009
31
0.0000000000
11
580.5703097664
21
125.3749626567
31
0.0000000000
11
580.1879983983
21
125.3557818136
31
0.0000000000
11
579.7718074375
21
125.3518032407
31
0.0000000000
0
SPLINE
5
29E
100
AcDbEntity
8
0
100
AcDbSpline
62
7
6
CONTINUOUS
70
0
71
3
72
22
73
18
74
16
42
0.0000001000
43
0.0000001000
44
0.0000000001
12
0.0000000000
22
-8.3114686787
32
0.0000000000
13
-8.3114686787
23
-0.0000000078
33
0.0000000000
40
0.0000000000
40
0.0000000000
40
0.0000000000
40
0.0000000000
40
0.0381984300
40
0.0786168985
40
0.1222425501
40
0.1700997673
40
0.2228574953
40
0.2801201937
40
0.3401316390
40
0.4024764759
40
0.4687009281
40
0.5399740590
40
0.6170947410
40
0.7008902632
40
0.7921575010
40
0.8916351068
40
1.0000000000
40
1.0000000000
40
1.0000000000
40
1.0000000000
10
587.4992140199
20
127.3518032407
30
0.0000000000
10
587.4992140199
20
127.2459748893
30
0.0000000000
10
587.4250109288
20
127.0277252293
30
0.0000000000
10
587.1914327421
20
126.7770800510
30
0.0000000000
10
586.8921981624
20
126.5648510872
30
0.0000000000
10
586.5377020528
20
126.3786691371
30
0.0000000000
10
586.1333271262
20
126.2108629812
30
0.0000000000
10
585.6866675184
20
126.0602846444
30
0.0000000000
10
585.2071836277
20
125.9264440144
30
0.0000000000
10
584.6982754031
20
125.8076321738
30
0.0000000000
10
584.1547758321
20
125.7014808171
30
0.0000000000
10
583.5677003585
20
125.6065930051
30
0.0000000000
10
582.9297574571
20
125.5231977469
30
0.0000000000
10
582.2345624106
20
125.4526514931
30
0.0000000000
10
581.4758670613
20
125.3972739381
30
0.0000000000
10
580.6478970108
20
125.3604616632
30
0.0000000000
10
580.0720312429
20
125.3518032410
30
0.0000000000
10
579.7718074375
20
125.3518032407
30
0.0000000000
11
587.4992140199
21
127.3518032407
31
0.0000000000
11
587.4091604155
21
127.0473576660
31
0.0000000000
11
587.1906050930
21
126.7922358754
31
0.0000000000
11
586.8978650668
21
126.5782799620
31
0.0000000000
11
586.5473865869
21
126.3901819947
31
0.0000000000
11
586.1432062314
21
126.2201366854
31
0.0000000000
11
585.6926990127
21
126.0666459953
31
0.0000000000
11
585.2125538497
21
125.9315706416
31
0.0000000000
11
584.7081096059
21
125.8130650596
31
0.0000000000
11
584.1680024693
21
125.7070029774
31
0.0000000000
11
583.5832827597
21
125.6120180662
31
0.0000000000
11
582.9477569093
21
125.5285308476
31
0.0000000000
11
582.2548866782
21
125.4578714632
31
0.0000000000
11
581.4983554696
21
125.4023640921
31
0.0000000000
11
580.6723757379
21
125.3654317399
31
0.0000000000
11
579.7718074375
21
125.3518032407
31
0.0000000000
0
ENDSEC
0
SECTION
2
OBJECTS
0
DICTIONARY
5
C
100
AcDbDictionary
280
0
281
1
3
ACAD_GROUP
350
D
3
ACAD_MLINESTYLE
350
17
3
ACAD_LAYOUT
350
1A
3
ACAD_PLOTSETTINGS
350
19
3
ACAD_PLOTSTYLENAME
350
E
0
DICTIONARY
5
D
102
{ACAD_REACTORS
330
C
102
}
100
AcDbDictionary
280
0
281
1
0
ACDBDICTIONARYWDFLT
5
E
102
{ACAD_REACTORS
330
C
102
}
100
AcDbDictionary
281
1
3
Normal
350
F
100
AcDbDictionaryWithDefault
340
F
0
DICTIONARY
5
17
102
{ACAD_REACTORS
330
C
102
}
100
AcDbDictionary
280
0
281
1
3
Standard
350
18
0
DICTIONARY
5
19
102
{ACAD_REACTORS
330
C
102
}
100
AcDbDictionary
281
1
0
DICTIONARY
5
1A
102
{ACAD_REACTORS
330
C
102
}
100
AcDbDictionary
281
1
3
Layout1
350
1E
3
Model
350
22
0
ACDBPLACEHOLDER
5
F
102
{ACAD_REACTORS
330
E
102
}
0
MLINESTYLE
5
18
102
{ACAD_REACTORS
330
17
102
}
100
AcDbMlineStyle
2
STANDARD
70
0
3

62
256
51
90.0
52
90.0
71
2
49
0.5
62
256
6
BYLAYER
49
-0.5
62
256
6
BYLAYER
0
LAYOUT
5
1E
102
{ACAD_REACTORS
330
1A
102
}
100
AcDbPlotSettings
1

2

4

6

40
0.0
41
0.0
42
0.0
43
0.0
44
0.0
45
0.0
46
0.0
47
0.0
48
0.0
49
0.0
140
0.0
141
0.0
142
1.0
143
1.0
70
0
72
0
73
0
74
0
7

75
0
147
1.0
148
0.0
149
0.0
100
AcDbLayout
1
Layout1
70
0
71
0
10
0.0
20
0.0
11
0.0
21
0.0
12
0.0
22
0.0
32
0.0
14
0.0
24
0.0
34
0.0
15
0.0
25
0.0
35
0.0
146
0.0
13
0.0
23
0.0
33
0.0
16
0.0
26
0.0
36
0.0
17
0.0
27
0.0
37
0.0
76
0
330
1B
331
0
345
0
346
0
0
LAYOUT
5
22
102
{ACAD_REACTORS
330
1A
102
}
100
AcDbPlotSettings
1

2

4

6

40
0.0
41
0.0
42
0.0
43
0.0
44
0.0
45
0.0
46
0.0
47
0.0
48
0.0
49
0.0
140
0.0
141
0.0
142
1.0
143
1.0
70
0
72
0
73
0
74
0
7

75
0
147
1.0
148
0.0
149
0.0
100
AcDbLayout
1
Model
70
0
71
0
10
0.0
20
0.0
11
0.0
21
0.0
12
0.0
22
0.0
32
0.0
14
0.0
24
0.0
34
0.0
15
0.0
25
0.0
35
0.0
146
0.0
13
0.0
23
0.0
33
0.0
16
0.0
26
0.0
36
0.0
17
0.0
27
0.0
37
0.0
76
0
330
1F
331
0
345
0
346
0
0
ENDSEC
0
EOF
