0
SECTION
2
HEADER
9
$ACADVER
1
AC1015
9
$DWGCODEPAGE
3
ANSI_1252
9
$EXTMAX
10
841.0000000000
20
594.0000000000
30
0.0000000000
9
$EXTMIN
10
0.0000000000
20
0.0000000000
30
0.0000000000
9
$LIMMIN
10
0.0000000000
20
0.0000000000
9
$LIMMAX
10
841.0000000000
20
594.0000000000
9
$VIEWCTR
10
420.5000000000
20
297.0000000000
9
$VIEWSIZE
40
594.0000000000
9
$CLAYER
8
0
9
$LTSCALE
40
46.2550000000
9
$CELTYPE
6
BYLAYER
9
$DIMSCALE
40
1
9
$DIMASZ
40
3.5000000000
9
$DIMEXO
40
5.2562500000
9
$DIMDLI
40
31.9580000000
9
$DIMEXE
40
15.1380000000
9
$DIMCEN
40
7.5690000000
9
$DIMLFAC
40
1.0000000000
9
$DIMBLK
1
_FILLED
9
$DIMTXT
40
3.5000000000
9
$DIMTOL
70
1
9
$DIMLIM
70
0
9
$DIMTFAC
40
1.0000000000
9
$DIMTP
40
0.0010000000
9
$DIMTM
40
0.0010000000
9
$PDMODE
70
3
9
$PDSIZE
40
0.3125000000
9
$HANDSEED
5
2A3
9
$MEASUREMENT
70
1
9
$INSUNITS
70
4
0
ENDSEC
0
SECTION
2
CLASSES
0
CLASS
1
ACDBDICTIONARYWDFLT
2
AcDbDictionaryWithDefault
3
AutoCAD 2000
90
0
280
0
281
0
0
CLASS
1
ACDBPLACEHOLDER
2
AcDbPlaceHolder
3
AutoCAD 2000
90
0
280
0
281
0
0
CLASS
1
LAYOUT
2
AcDbLayout
3
AutoCAD 2000
90
0
280
0
281
0
0
ENDSEC
0
SECTION
2
TABLES
0
TABLE
2
VPORT
5
8
100
AcDbSymbolTable
70
2
0
VPORT
5
1F4
100
AcDbSymbolTableRecord
100
AcDbViewportTableRecord
2
*ACTIVE
70
0
10
0.0
20
0.0
11
1.0
21
1.0
12
420.5000000000
22
297.0000000000
13
0.0
23
0.0
14
1.0
24
1.0
15
0.0
25
0.0
16
0.0
26
0.0
36
1.0
17
0.0
27
0.0
37
0.0
40
594.0000000000
41
1.4158249158
42
50.0
43
0.0
44
0.0
50
0.0
51
0.0
71
0
72
100
73
1
74
1
75
0
76
0
77
0
78
0
0
ENDTAB
0
TABLE
2
LTYPE
5
5
100
AcDbSymbolTable
70
6
0
LTYPE
5
14
100
AcDbSymbolTableRecord
100
AcDbLinetypeTableRecord
2
BYBLOCK
70
0
3

72
65
73
0
40
0.0
0
LTYPE
5
15
100
AcDbSymbolTableRecord
100
AcDbLinetypeTableRecord
2
BYLAYER
70
0
3

72
65
73
0
40
0.0
0
LTYPE
5
16
100
AcDbSymbolTableRecord
100
AcDbLinetypeTableRecord
2
CONTINUOUS
70
64
3
Solid line
72
65
73
0
40
0
0
LTYPE
5
1F5
100
AcDbSymbolTableRecord
100
AcDbLinetypeTableRecord
2
CENTER
70
64
3
____ _ ____ _ ____ _ ____ _ ____ _ ____ _ ____
72
65
73
4
40
0.6
49
0.375
74
0
49
-0.075
74
0
49
0.075
74
0
49
-0.075
74
0
0
LTYPE
5
1F6
100
AcDbSymbolTableRecord
100
AcDbLinetypeTableRecord
2
HIDDEN
70
64
3
- - - - - - - - - - - - - - - - - - - -
72
65
73
2
40
0.2
49
0.1
74
0
49
-0.1
74
0
0
LTYPE
5
1F7
100
AcDbSymbolTableRecord
100
AcDbLinetypeTableRecord
2
PHANTOM
70
64
3
_____ _ _ _____ _ _ _____ _ _ _____
72
65
73
6
40
0.8
49
0.45
74
0
49
-0.05
74
0
49
0.1
74
0
49
-0.05
74
0
49
0.1
74
0
49
-0.05
74
0
0
LTYPE
5
1F8
100
AcDbSymbolTableRecord
100
AcDbLinetypeTableRecord
2
DOT
70
64
3
. . . . . . . . . . . . . . . . . . . .
72
65
73
2
40
0.2
49
0.1
74
0
49
-0.1
74
0
0
LTYPE
5
1F9
100
AcDbSymbolTableRecord
100
AcDbLinetypeTableRecord
2
DASHED
70
64
3
- - - - - - - - - - - - - - - - - - - -
72
65
73
2
40
0.2
49
0.1
74
0
49
-0.1
74
0
0
ENDTAB
0
TABLE
2
LAYER
5
2
100
AcDbSymbolTable
70
36
0
LAYER
5
10
100
AcDbSymbolTableRecord
100
AcDbLayerTableRecord
2
0
70
0
62
7
6
CONTINUOUS
370
-3
390
F
0
LAYER
5
1FA
100
AcDbSymbolTableRecord
100
AcDbLayerTableRecord
2
DEFAULT_1
70
0
62
7
6
CENTER
370
-3
390
F
0
LAYER
5
1FB
100
AcDbSymbolTableRecord
100
AcDbLayerTableRecord
2
DEFAULT_2
70
0
62
8
6
HIDDEN
370
-3
390
F
0
LAYER
5
1FC
100
AcDbSymbolTableRecord
100
AcDbLayerTableRecord
2
DEFAULT_3
70
0
62
7
6
PHANTOM
370
-3
390
F
0
LAYER
5
1FD
100
AcDbSymbolTableRecord
100
AcDbLayerTableRecord
2
_2D_DELETED_OBJS
70
0
62
7
6
CONTINUOUS
370
-3
390
F
0
LAYER
5
1FE
100
AcDbSymbolTableRecord
100
AcDbLayerTableRecord
2
ASSI
70
0
62
7
6
CONTINUOUS
370
-3
390
F
0
LAYER
5
1FF
100
AcDbSymbolTableRecord
100
AcDbLayerTableRecord
2
PIANI
70
0
62
7
6
CONTINUOUS
370
-3
390
F
0
LAYER
5
200
100
AcDbSymbolTableRecord
100
AcDbLayerTableRecord
2
SURF_FILETTI
70
0
62
7
6
CONTINUOUS
370
-3
390
F
0
LAYER
5
201
100
AcDbSymbolTableRecord
100
AcDbLayerTableRecord
2
TOLL
70
0
62
7
6
CONTINUOUS
370
-3
390
F
0
ENDTAB
0
TABLE
2
STYLE
5
3
100
AcDbSymbolTable
70
1
0
STYLE
5
11
100
AcDbSymbolTableRecord
100
AcDbTextStyleTableRecord
2
STANDARD
70
0
40
0.0
41
0.7143000000
50
0.0
71
0
42
0.2
3
txt
4

0
ENDTAB
0
TABLE
2
VIEW
5
6
100
AcDbSymbolTable
70
0
0
ENDTAB
0
TABLE
2
UCS
5
7
100
AcDbSymbolTable
70
0
0
ENDTAB
0
TABLE
2
APPID
5
9
100
AcDbSymbolTable
70
1
0
APPID
5
202
100
AcDbSymbolTableRecord
100
AcDbRegAppTableRecord
2
ACAD
70
0
0
ENDTAB
0
TABLE
2
BLOCK_RECORD
5
1
100
AcDbSymbolTable
70
0
0
BLOCK_RECORD
5
1F
100
AcDbSymbolTableRecord
100
AcDbBlockTableRecord
2
*MODEL_SPACE
0
BLOCK_RECORD
5
1B
100
AcDbSymbolTableRecord
100
AcDbBlockTableRecord
2
*PAPER_SPACE
0
ENDTAB
0
TABLE
2
DIMSTYLE
5
A
100
AcDbSymbolTable
70
1
100
AcDbDimStyleTable
71
0
0
DIMSTYLE
105
203
100
AcDbSymbolTableRecord
100
AcDbDimStyleTableRecord
2
STANDARD
70
0
3

4

40
1.0
41
3.5000000000
42
0.0625
43
0.38
44
0.18
45
0.0
46
0.0
47
0.0010000000
48
0.0010000000
140
3.5000000000
141
0.09
142
0.0
143
25.4
144
1.0000000000
145
0.0
146
1.0000000000
147
0.09
71
1
72
0
73
0
74
0
75
0
76
0
77
1
78
8
170
0
171
2
172
0
173
0
174
0
175
0
176
0
177
0
178
5
270
2
271
3
272
3
273
2
274
2
275
0
280
0
281
0
282
0
283
1
284
8
285
0
286
0
287
3
288
0
340
11
0
ENDTAB
0
ENDSEC
0
SECTION
2
BLOCKS
0
BLOCK
5
20
100
AcDbEntity
8
0
100
AcDbBlockBegin
2
*MODEL_SPACE
70
0
10
0.0
20
0.0
30
0.0
3
*MODEL_SPACE
1

0
ENDBLK
5
21
100
AcDbEntity
8
0
100
AcDbBlockEnd
0
BLOCK
5
1C
100
AcDbEntity
8
0
100
AcDbBlockBegin
2
*PAPER_SPACE
70
0
10
0.0
20
0.0
30
0.0
3
*PAPER_SPACE
1

0
ENDBLK
5
1D
100
AcDbEntity
8
0
100
AcDbBlockEnd
0
ENDSEC
0
SECTION
2
ENTITIES
0
LINE
5
204
100
AcDbEntity
8
0
100
AcDbLine
62
7
6
CONTINUOUS
10
56.9937294312
20
265.3458910012
11
56.9937294312
21
242.2740942315
0
LINE
5
205
100
AcDbEntity
8
0
100
AcDbLine
62
7
6
CONTINUOUS
10
62.9937294312
20
268.8099926164
11
62.9937294312
21
238.8099926164
0
LINE
5
206
100
AcDbEntity
8
0
100
AcDbLine
62
7
6
CONTINUOUS
10
156.9937294312
20
235.8099926164
11
156.9937294312
21
272.2099926164
0
LINE
5
207
100
AcDbEntity
8
0
100
AcDbLine
62
7
6
CONTINUOUS
10
56.9937294312
20
242.2740942315
11
62.9937294312
21
238.8099926164
0
LINE
5
208
100
AcDbEntity
8
0
100
AcDbLine
62
7
6
CONTINUOUS
10
56.9937294312
20
265.3458910012
11
62.9937294312
21
268.8099926164
0
LINE
5
209
100
AcDbEntity
8
0
100
AcDbLine
62
7
6
CONTINUOUS
10
206.9937294312
20
235.8099926164
11
206.9937294312
21
281.8099926164
0
LINE
5
20A
100
AcDbEntity
8
0
100
AcDbLine
62
9
6
CONTINUOUS
10
214.5789508459
20
261.7709505895
11
214.5789508459
21
281.8099926164
0
LINE
5
20B
100
AcDbEntity
8
0
100
AcDbLine
62
9
6
CONTINUOUS
10
219.1424058536
20
265.9122241439
11
219.1424058536
21
277.8099926164
0
LINE
5
20C
100
AcDbEntity
8
0
100
AcDbLine
62
9
6
CONTINUOUS
10
247.3959094003
20
277.8099926164
11
247.3959094003
21
271.4963202050
0
LINE
5
20D
100
AcDbEntity
8
0
100
AcDbLine
62
9
6
CONTINUOUS
10
265.6497294312
20
269.6766548174
11
265.6497294312
21
281.8099926164
0
LINE
5
20E
100
AcDbEntity
8
0
100
AcDbLine
62
7
6
CONTINUOUS
10
166.9937294312
20
235.8099926164
11
206.9937294312
21
261.8099926164
0
LINE
5
20F
100
AcDbEntity
8
0
100
AcDbLine
62
9
6
CONTINUOUS
10
296.9919584982
20
281.8099926164
11
296.9919584982
21
277.8099926229
0
LINE
5
210
100
AcDbEntity
8
0
100
AcDbLine
62
7
6
CONTINUOUS
10
296.9937294312
20
269.6766548174
11
296.9937294312
21
273.6766548174
0
LINE
5
211
100
AcDbEntity
8
0
100
AcDbLine
62
7
6
CONTINUOUS
10
156.9937294312
20
235.8099926164
11
586.9937294312
21
235.8099926164
0
LINE
5
212
100
AcDbEntity
8
0
100
AcDbLine
62
7
6
CONTINUOUS
10
62.9937294312
20
238.8099926164
11
156.9937294312
21
238.8099926164
0
LINE
5
213
100
AcDbEntity
8
0
100
AcDbLine
62
7
6
CONTINUOUS
10
343.0199332877
20
255.8099926164
11
339.0137294312
21
255.8099926164
0
LINE
5
214
100
AcDbEntity
8
0
100
AcDbLine
62
9
6
CONTINUOUS
10
156.9937294312
20
259.2099926164
11
202.9937294312
21
259.2099926164
0
LINE
5
215
100
AcDbEntity
8
0
100
AcDbLine
62
9
6
CONTINUOUS
10
335.0137294312
20
259.8099926164
11
347.0199332877
21
259.8099926164
0
LINE
5
216
100
AcDbEntity
8
0
100
AcDbLine
62
9
6
CONTINUOUS
10
335.0137294312
20
260.0311365525
11
339.0137294312
21
260.0311366062
0
LINE
5
217
100
AcDbEntity
8
0
100
AcDbLine
62
7
6
CONTINUOUS
10
204.5321909697
20
260.2099926164
11
156.9937294312
21
260.2099926164
0
LINE
5
218
100
AcDbEntity
8
0
100
AcDbLine
62
7
6
CONTINUOUS
10
335.0137294312
20
259.8099926164
11
335.0137294312
21
260.0311365525
0
LINE
5
219
100
AcDbEntity
8
0
100
AcDbLine
62
9
6
CONTINUOUS
10
339.0137294312
20
255.8099926164
11
339.0137294312
21
260.0311365525
0
LINE
5
21A
100
AcDbEntity
8
0
100
AcDbLine
62
9
6
CONTINUOUS
10
332.3137294314
20
263.8139926163
11
333.6137294312
21
267.5968486803
0
LINE
5
21B
100
AcDbEntity
8
0
100
AcDbLine
62
9
6
CONTINUOUS
10
336.2577294197
20
275.2039926203
11
334.9488704001
21
271.4241926168
0
LINE
5
21C
100
AcDbEntity
8
0
100
AcDbLine
62
9
6
CONTINUOUS
10
206.0706525081
20
261.2099926164
11
156.9937294312
21
261.2099926164
0
LINE
5
21D
100
AcDbEntity
8
0
100
AcDbLine
62
7
6
CONTINUOUS
10
206.9937294312
20
261.7709505895
11
216.9937294312
21
261.7709505895
0
LINE
5
21E
100
AcDbEntity
8
0
100
AcDbLine
62
9
6
CONTINUOUS
10
206.9937294312
20
265.7709505895
11
217.9539067475
21
265.7709505895
0
LINE
5
21F
100
AcDbEntity
8
0
100
AcDbLine
62
7
6
CONTINUOUS
10
206.9937294312
20
266.2099926164
11
156.9937294312
21
266.2099926164
0
LINE
5
220
100
AcDbEntity
8
0
100
AcDbLine
62
9
6
CONTINUOUS
10
206.9937294312
20
268.8099926164
11
156.9937294312
21
268.8099926164
0
LINE
5
221
100
AcDbEntity
8
0
100
AcDbLine
62
7
6
CONTINUOUS
10
62.9937294312
20
268.8099926164
11
156.9937294312
21
268.8099926164
0
LINE
5
222
100
AcDbEntity
8
0
100
AcDbLine
62
7
6
CONTINUOUS
10
296.9937294312
20
269.6766548174
11
256.9937294312
21
269.6766548174
0
LINE
5
223
100
AcDbEntity
8
0
100
AcDbLine
62
9
6
CONTINUOUS
10
206.9937294312
20
271.2099926164
11
156.9937294312
21
271.2099926164
0
LINE
5
224
100
AcDbEntity
8
0
100
AcDbLine
62
7
6
CONTINUOUS
10
206.9937294312
20
272.2099926164
11
156.9937294312
21
272.2099926164
0
LINE
5
225
100
AcDbEntity
8
0
100
AcDbLine
62
9
6
CONTINUOUS
10
296.9854261911
20
273.6766548174
11
257.4228471432
21
273.6766548174
0
LINE
5
226
100
AcDbEntity
8
0
100
AcDbLine
62
7
6
CONTINUOUS
10
206.9937294312
20
273.8099926164
11
176.9937294312
21
273.8099926164
0
LINE
5
227
100
AcDbEntity
8
0
100
AcDbLine
62
7
6
CONTINUOUS
10
582.9937294312
20
275.8099926164
11
495.9778834403
21
275.8099926164
0
LINE
5
228
100
AcDbEntity
8
0
100
AcDbLine
62
9
6
CONTINUOUS
10
582.9937294312
20
276.8099926164
11
495.9778834403
21
276.8099926164
0
LINE
5
229
100
AcDbEntity
8
0
100
AcDbLine
62
9
6
CONTINUOUS
10
206.9937294312
20
277.8099926164
11
296.9919584982
21
277.8099926229
0
LINE
5
22A
100
AcDbEntity
8
0
100
AcDbLine
62
9
6
CONTINUOUS
10
343.0199332877
20
255.8099926164
11
343.0199332877
21
260.3203960006
0
LINE
5
22B
100
AcDbEntity
8
0
100
AcDbLine
62
7
6
CONTINUOUS
10
347.0199332877
20
260.3595926199
11
347.0199332877
21
259.8099926164
0
LINE
5
22C
100
AcDbEntity
8
0
100
AcDbLine
62
7
6
CONTINUOUS
10
257.0100922178
20
269.6798888012
11
216.9937294312
21
261.7709505895
0
LINE
5
22D
100
AcDbEntity
8
0
100
AcDbLine
62
9
6
CONTINUOUS
10
247.3959094003
20
271.4963202050
11
219.1424058536
21
265.9122241439
0
LINE
5
22E
100
AcDbEntity
8
0
100
AcDbLine
62
7
6
CONTINUOUS
10
206.9937294312
20
281.8099926164
11
580.9937294312
21
281.8099926164
0
LINE
5
22F
100
AcDbEntity
8
0
100
AcDbLine
62
7
6
CONTINUOUS
10
176.9937294312
20
273.8099926164
11
171.0224481391
21
272.2099926164
0
LINE
5
230
100
AcDbEntity
8
0
100
AcDbLine
62
9
6
CONTINUOUS
10
494.4153765961
20
271.2490216361
11
494.9362122107
21
272.1026786296
0
LINE
5
231
100
AcDbEntity
8
0
100
AcDbLine
62
9
6
CONTINUOUS
10
495.9778834403
20
276.8099926164
11
495.9778834403
21
275.8099926164
0
LINE
5
232
100
AcDbEntity
8
0
100
AcDbLine
62
9
6
CONTINUOUS
10
582.9937294312
20
276.8099926164
11
582.9937294312
21
275.8099926164
0
LINE
5
233
100
AcDbEntity
8
0
100
AcDbLine
62
7
6
CONTINUOUS
10
586.9937294312
20
235.8099926164
11
586.9937294312
21
275.8099926164
0
LINE
5
234
100
AcDbEntity
8
0
100
AcDbLine
62
7
6
CONTINUOUS
10
56.9937294312
20
139.8811102664
11
56.9937294312
21
113.8093134967
0
LINE
5
235
100
AcDbEntity
8
0
100
AcDbLine
62
7
6
CONTINUOUS
10
62.9937294312
20
143.3452118816
11
62.9937294312
21
110.3452118816
0
LINE
5
236
100
AcDbEntity
8
0
100
AcDbLine
62
7
6
CONTINUOUS
10
107.4937294312
20
131.8452118816
11
107.4937294312
21
121.8452118816
0
LINE
5
237
100
AcDbEntity
8
0
100
AcDbLine
62
7
6
CONTINUOUS
10
70.9937294312
20
136.9452118816
11
65.1624917124
21
126.8452118816
0
LINE
5
238
100
AcDbEntity
8
0
100
AcDbLine
62
7
6
CONTINUOUS
10
65.1624917124
20
126.8452118816
11
70.9937294312
21
116.7452118816
0
LINE
5
239
100
AcDbEntity
8
0
100
AcDbLine
62
7
6
CONTINUOUS
10
112.4937294312
20
121.8452118816
11
112.4937294312
21
131.8452118816
0
LINE
5
23A
100
AcDbEntity
8
0
100
AcDbLine
62
7
6
CONTINUOUS
10
156.9937294312
20
96.7452118816
11
156.9937294312
21
156.9452118816
0
LINE
5
23B
100
AcDbEntity
8
0
100
AcDbLine
62
7
6
CONTINUOUS
10
171.0224481391
20
108.8452118816
11
171.0224481391
21
144.8452118816
0
LINE
5
23C
100
AcDbEntity
8
0
100
AcDbLine
62
7
6
CONTINUOUS
10
176.9937294312
20
108.8048036758
11
176.9937294312
21
144.8856200873
0
LINE
5
23D
100
AcDbEntity
8
0
100
AcDbLine
62
7
6
CONTINUOUS
10
148.4937294312
20
116.7452118816
11
154.3249671500
21
126.8452118816
0
LINE
5
23E
100
AcDbEntity
8
0
100
AcDbLine
62
7
6
CONTINUOUS
10
108.9937294312
20
133.3452118816
11
107.4937294312
21
131.8452118816
0
LINE
5
23F
100
AcDbEntity
8
0
100
AcDbLine
62
7
6
CONTINUOUS
10
110.9937294312
20
120.3452118816
11
112.4937294312
21
121.8452118816
0
LINE
5
240
100
AcDbEntity
8
0
100
AcDbLine
62
7
6
CONTINUOUS
10
56.9937294312
20
139.8811102664
11
62.9937294312
21
143.3452118816
0
LINE
5
241
100
AcDbEntity
8
0
100
AcDbLine
62
7
6
CONTINUOUS
10
56.9937294312
20
113.8093134967
11
62.9937294312
21
110.3452118816
0
LINE
5
242
100
AcDbEntity
8
0
100
AcDbLine
62
7
6
CONTINUOUS
10
107.4937294312
20
121.8452118816
11
108.9937294312
21
120.3452118816
0
LINE
5
243
100
AcDbEntity
8
0
100
AcDbLine
62
7
6
CONTINUOUS
10
112.4937294312
20
131.8452118816
11
110.9937294312
21
133.3452118816
0
LINE
5
244
100
AcDbEntity
8
0
100
AcDbLine
62
7
6
CONTINUOUS
10
154.3249671500
20
126.8452118816
11
148.4937294312
21
136.9452118816
0
LINE
5
245
100
AcDbEntity
8
0
100
AcDbLine
62
7
6
CONTINUOUS
10
206.9937294312
20
86.8452118816
11
206.9937294312
21
166.8452118816
0
LINE
5
246
100
AcDbEntity
8
0
100
AcDbLine
62
9
6
CONTINUOUS
10
214.5789508459
20
90.8452118816
11
214.5789508291
21
86.8452118816
0
LINE
5
247
100
AcDbEntity
8
0
100
AcDbLine
62
9
6
CONTINUOUS
10
217.3170238505
20
91.5063958872
11
219.1424058536
21
87.9471852243
0
LINE
5
248
100
AcDbEntity
8
0
100
AcDbLine
62
9
6
CONTINUOUS
10
245.5705273972
20
105.9965291733
11
247.3959093948
21
102.4373185076
0
LINE
5
249
100
AcDbEntity
8
0
100
AcDbLine
62
9
6
CONTINUOUS
10
265.6497294312
20
110.8452118816
11
265.6497294312
21
106.8452118816
0
LINE
5
24A
100
AcDbEntity
8
0
100
AcDbLine
62
7
6
CONTINUOUS
10
586.9937294312
20
86.8452118816
11
493.9783055573
21
86.8452118816
0
LINE
5
24B
100
AcDbEntity
8
0
100
AcDbLine
62
7
6
CONTINUOUS
10
206.9937294312
20
86.8452118816
11
214.5789508459
21
86.8452118816
0
LINE
5
24C
100
AcDbEntity
8
0
100
AcDbLine
62
9
6
CONTINUOUS
10
206.9937294312
20
90.8452118816
11
214.5789508459
21
90.8452118816
0
LINE
5
24D
100
AcDbEntity
8
0
100
AcDbLine
62
9
6
CONTINUOUS
10
296.9919584982
20
128.8452118816
11
296.9919584982
21
106.8452118816
0
LINE
5
24E
100
AcDbEntity
8
0
100
AcDbLine
62
9
6
CONTINUOUS
10
217.3170238505
20
91.5063958872
11
245.5705273972
21
105.9965291733
0
LINE
5
24F
100
AcDbEntity
8
0
100
AcDbLine
62
7
6
CONTINUOUS
10
558.9937294312
20
94.8452118816
11
566.9937294312
21
94.8452118816
0
LINE
5
250
100
AcDbEntity
8
0
100
AcDbLine
62
7
6
CONTINUOUS
10
206.9937294312
20
96.7452118816
11
156.9937294312
21
96.7452118816
0
LINE
5
251
100
AcDbEntity
8
0
100
AcDbLine
62
9
6
CONTINUOUS
10
206.9937294312
20
97.7452118816
11
156.9937294312
21
97.7452118816
0
LINE
5
252
100
AcDbEntity
8
0
100
AcDbLine
62
7
6
CONTINUOUS
10
558.9937294312
20
100.3452118816
11
566.9937294312
21
100.3452118816
0
LINE
5
253
100
AcDbEntity
8
0
100
AcDbLine
62
7
6
CONTINUOUS
10
206.9937294312
20
106.8452118816
11
178.7498517012
21
106.8452118816
0
LINE
5
254
100
AcDbEntity
8
0
100
AcDbLine
62
7
6
CONTINUOUS
10
265.6497294312
20
106.8452118816
11
343.0199332877
21
106.8452118816
0
LINE
5
255
100
AcDbEntity
8
0
100
AcDbLine
62
9
6
CONTINUOUS
10
206.9937294312
20
108.8048036758
11
176.9937294312
21
108.8048036758
0
LINE
5
256
100
AcDbEntity
8
0
100
AcDbLine
62
9
6
CONTINUOUS
10
176.9937294312
20
108.8452118816
11
171.0224481391
21
108.8452118816
0
LINE
5
257
100
AcDbEntity
8
0
100
AcDbLine
62
7
6
CONTINUOUS
10
62.9937294312
20
110.3452118816
11
156.9937294312
21
110.3452118816
0
LINE
5
258
100
AcDbEntity
8
0
100
AcDbLine
62
9
6
CONTINUOUS
10
265.6497294312
20
110.8452118816
11
347.0199332877
21
110.8452118816
0
LINE
5
259
100
AcDbEntity
8
0
100
AcDbLine
62
7
6
CONTINUOUS
10
219.1424058536
20
87.9471852243
11
247.3959094003
21
102.4373185104
0
LINE
5
25A
100
AcDbEntity
8
0
100
AcDbLine
62
7
6
CONTINUOUS
10
566.9937294312
20
113.3452118816
11
558.9937294312
21
113.3452118816
0
LINE
5
25B
100
AcDbEntity
8
0
100
AcDbLine
62
7
6
CONTINUOUS
10
70.9937294312
20
116.7452118816
11
148.4937294312
21
116.7452118816
0
LINE
5
25C
100
AcDbEntity
8
0
100
AcDbLine
62
7
6
CONTINUOUS
10
566.9937294312
20
118.8452118816
11
558.9937294312
21
118.8452118816
0
LINE
5
25D
100
AcDbEntity
8
0
100
AcDbLine
62
7
6
CONTINUOUS
10
76.9937294312
20
120.3452118816
11
108.9937294312
21
120.3452118816
0
LINE
5
25E
100
AcDbEntity
8
0
100
AcDbLine
62
7
6
CONTINUOUS
10
110.9937294312
20
120.3452118816
11
142.4937294312
21
120.3452118816
0
LINE
5
25F
100
AcDbEntity
8
0
100
AcDbLine
62
9
6
CONTINUOUS
10
586.9937294312
20
127.8452118816
11
493.9778834403
21
127.8452118816
0
LINE
5
260
100
AcDbEntity
8
0
100
AcDbLine
62
7
6
CONTINUOUS
10
296.9919588114
20
128.8452118816
11
586.9937294312
21
128.8452118816
0
LINE
5
261
100
AcDbEntity
8
0
100
AcDbLine
62
9
6
CONTINUOUS
10
336.2577294312
20
110.8452118816
11
336.2577294312
21
128.8452118816
0
LINE
5
262
100
AcDbEntity
8
0
100
AcDbLine
62
7
6
CONTINUOUS
10
142.4937294312
20
133.3452118816
11
110.9937294312
21
133.3452118816
0
LINE
5
263
100
AcDbEntity
8
0
100
AcDbLine
62
7
6
CONTINUOUS
10
108.9937294312
20
133.3452118816
11
76.9937294312
21
133.3452118816
0
LINE
5
264
100
AcDbEntity
8
0
100
AcDbLine
62
7
6
CONTINUOUS
10
148.4937294312
20
136.9452118816
11
70.9937294312
21
136.9452118816
0
LINE
5
265
100
AcDbEntity
8
0
100
AcDbLine
62
7
6
CONTINUOUS
10
62.9937294312
20
143.3452118816
11
156.9937294312
21
143.3452118816
0
LINE
5
266
100
AcDbEntity
8
0
100
AcDbLine
62
9
6
CONTINUOUS
10
171.0224481391
20
144.8452118816
11
176.9937294312
21
144.8452118816
0
LINE
5
267
100
AcDbEntity
8
0
100
AcDbLine
62
9
6
CONTINUOUS
10
176.9937294312
20
144.8856200873
11
206.9937294312
21
144.8856200873
0
LINE
5
268
100
AcDbEntity
8
0
100
AcDbLine
62
7
6
CONTINUOUS
10
178.7498547494
20
146.8452118816
11
206.9937294312
21
146.8452118816
0
LINE
5
269
100
AcDbEntity
8
0
100
AcDbLine
62
7
6
CONTINUOUS
10
347.0199332877
20
110.8452118816
11
347.0199332877
21
128.8452118816
0
LINE
5
26A
100
AcDbEntity
8
0
100
AcDbLine
62
9
6
CONTINUOUS
10
206.9937294312
20
155.9452118816
11
156.9937294312
21
155.9452118816
0
LINE
5
26B
100
AcDbEntity
8
0
100
AcDbLine
62
7
6
CONTINUOUS
10
206.9937294312
20
156.9452118816
11
156.9937294312
21
156.9452118816
0
LINE
5
26C
100
AcDbEntity
8
0
100
AcDbLine
62
9
6
CONTINUOUS
10
206.9937294312
20
162.8452118816
11
586.9937294312
21
162.8452118816
0
LINE
5
26D
100
AcDbEntity
8
0
100
AcDbLine
62
7
6
CONTINUOUS
10
206.9937294312
20
166.8452118816
11
582.9937294312
21
166.8452118816
0
LINE
5
26E
100
AcDbEntity
8
0
100
AcDbLine
62
7
6
CONTINUOUS
10
493.9778834403
20
127.8452118816
11
493.9778834403
21
86.8452118816
0
LINE
5
26F
100
AcDbEntity
8
0
100
AcDbLine
62
9
6
CONTINUOUS
10
495.9778834403
20
128.8452118816
11
495.9778834403
21
86.8452118816
0
LINE
5
270
100
AcDbEntity
8
0
100
AcDbLine
62
9
6
CONTINUOUS
10
580.9937294312
20
166.8452118816
11
580.9937294312
21
128.8452118816
0
LINE
5
271
100
AcDbEntity
8
0
100
AcDbLine
62
9
6
CONTINUOUS
10
582.9937294312
20
128.8452118816
11
582.9937294312
21
86.8452118816
0
LINE
5
272
100
AcDbEntity
8
0
100
AcDbLine
62
7
6
CONTINUOUS
10
586.9937294312
20
162.8452118816
11
586.9937294312
21
86.8452118816
0
ARC
5
273
100
AcDbEntity
8
0
100
AcDbCircle
62
7
6
CONTINUOUS
10
406.3941577085
20
126.9809897456
40
170.0000000000
100
AcDbArc
50
39.8045422700
51
58.6116804136
0
ARC
5
274
100
AcDbEntity
8
0
100
AcDbCircle
62
7
6
CONTINUOUS
10
339.0137294312
20
259.8099926164
40
4.0000000000
100
AcDbArc
50
180.0000000000
51
270.0000000000
0
ARC
5
275
100
AcDbEntity
8
0
100
AcDbCircle
62
7
6
CONTINUOUS
10
343.0199332877
20
259.8099926164
40
4.0000000000
100
AcDbArc
50
270.0000000000
51
360.0000000000
0
ARC
5
276
100
AcDbEntity
8
0
100
AcDbCircle
62
7
6
CONTINUOUS
10
296.9919584982
20
161.8099926294
40
120.0000000000
100
AcDbArc
50
70.9001904628
51
90.0000000000
0
ARC
5
277
100
AcDbEntity
8
0
100
AcDbCircle
62
7
6
CONTINUOUS
10
331.0222933068
20
260.0847926181
40
16.0000000000
100
AcDbArc
50
0.9841034053
51
70.9001904628
0
ARC
5
278
100
AcDbEntity
8
0
100
AcDbCircle
62
7
6
CONTINUOUS
10
297.2137294312
20
161.6768788917
40
108.0000000000
100
AcDbArc
50
71.0344250112
51
90.1167137057
0
ARC
5
279
100
AcDbEntity
8
0
100
AcDbCircle
62
7
6
CONTINUOUS
10
331.0137294312
20
260.0311365525
40
4.0000000000
100
AcDbArc
50
0.0000000000
51
71.0344250112
0
ARC
5
27A
100
AcDbEntity
8
0
100
AcDbCircle
62
7
6
CONTINUOUS
10
495.9778834403
20
273.8099926164
40
2.0000000000
100
AcDbArc
50
90.0000000000
51
238.6116804136
0
ARC
5
27B
100
AcDbEntity
8
0
100
AcDbCircle
62
7
6
CONTINUOUS
10
582.9937294312
20
271.8099926164
40
4.0000000000
100
AcDbArc
50
0.0000000000
51
90.0000000000
0
ARC
5
27C
100
AcDbEntity
8
0
100
AcDbCircle
62
7
6
CONTINUOUS
10
580.9937294312
20
275.8099926164
40
6.0000000000
100
AcDbArc
50
0.0000000000
51
90.0000000000
0
ARC
5
27D
100
AcDbEntity
8
0
100
AcDbCircle
62
9
6
CONTINUOUS
10
297.2137294312
20
161.6768788917
40
112.0000055780
100
AcDbArc
50
71.0344250112
51
90.1167930371
0
ARC
5
27E
100
AcDbEntity
8
0
100
AcDbCircle
62
9
6
CONTINUOUS
10
331.0137294312
20
260.0311365525
40
7.9999207704
100
AcDbArc
50
0.0000000000
51
71.0344250112
0
ARC
5
27F
100
AcDbEntity
8
0
100
AcDbCircle
62
9
6
CONTINUOUS
10
582.9937294312
20
271.8099926164
40
5.0000000000
100
AcDbArc
50
36.8672158545
51
90.0000000000
0
ARC
5
280
100
AcDbEntity
8
0
100
AcDbCircle
62
9
6
CONTINUOUS
10
495.9778834403
20
273.8099926164
40
2.9999269256
100
AcDbArc
50
90.0000000000
51
238.6116804136
0
ARC
5
281
100
AcDbEntity
8
0
100
AcDbCircle
62
9
6
CONTINUOUS
10
296.9919584982
20
161.8099926294
40
116.0000051868
100
AcDbArc
50
70.9001904628
51
90.0000000000
0
ARC
5
282
100
AcDbEntity
8
0
100
AcDbCircle
62
9
6
CONTINUOUS
10
406.3941577085
20
126.9809897456
40
169.0000000000
100
AcDbArc
50
40.0877150190
51
58.6116804136
0
ARC
5
283
100
AcDbEntity
8
0
100
AcDbCircle
62
9
6
CONTINUOUS
10
331.0222933068
20
260.0847926181
40
12.0000000000
100
AcDbArc
50
1.1249999717
51
70.9001904628
0
ARC
5
284
100
AcDbEntity
8
0
100
AcDbCircle
62
7
6
CONTINUOUS
10
492.9778834403
20
127.8452118816
40
1.0000000000
100
AcDbArc
50
0.0000000000
51
89.9941065641
0
ARC
5
285
100
AcDbEntity
8
0
100
AcDbCircle
62
7
6
CONTINUOUS
10
582.9937294312
20
162.8452118816
40
4.0000000000
100
AcDbArc
50
0.0000000000
51
90.0000000000
0
ARC
5
286
100
AcDbEntity
8
0
100
AcDbCircle
62
7
6
CONTINUOUS
10
214.5789508459
20
96.8452118816
40
10.0000000000
100
AcDbArc
50
270.0000000000
51
297.1515395833
0
ARC
5
287
100
AcDbEntity
8
0
100
AcDbCircle
62
7
6
CONTINUOUS
10
265.6497294312
20
66.8452118816
40
40.0000000000
100
AcDbArc
50
90.0000000000
51
117.1515395833
0
ARC
5
288
100
AcDbEntity
8
0
100
AcDbCircle
62
7
6
CONTINUOUS
10
343.0199332877
20
110.8452118816
40
4.0000000000
100
AcDbArc
50
270.0000000000
51
360.0000000000
0
ARC
5
289
100
AcDbEntity
8
0
100
AcDbCircle
62
7
6
CONTINUOUS
10
558.9937294312
20
106.8452118816
40
12.0000000000
100
AcDbArc
50
90.0000000000
51
270.0000000000
0
ARC
5
28A
100
AcDbEntity
8
0
100
AcDbCircle
62
7
6
CONTINUOUS
10
76.9937294312
20
126.8452118816
40
6.5000000000
100
AcDbArc
50
90.0000000000
51
270.0000000000
0
ARC
5
28B
100
AcDbEntity
8
0
100
AcDbCircle
62
7
6
CONTINUOUS
10
566.9937294312
20
106.8452118816
40
12.0000000000
100
AcDbArc
50
270.0000000000
51
90.0000000000
0
ARC
5
28C
100
AcDbEntity
8
0
100
AcDbCircle
62
7
6
CONTINUOUS
10
142.4937294312
20
126.8452118816
40
6.5000000000
100
AcDbArc
50
270.0000000000
51
90.0000000000
0
ARC
5
28D
100
AcDbEntity
8
0
100
AcDbCircle
62
7
6
CONTINUOUS
10
558.9937294312
20
106.8452118816
40
6.5000000000
100
AcDbArc
50
90.0000000000
51
270.0000000000
0
ARC
5
28E
100
AcDbEntity
8
0
100
AcDbCircle
62
7
6
CONTINUOUS
10
566.9937294312
20
106.8452118816
40
6.5000000000
100
AcDbArc
50
270.0000000000
51
90.0000000000
0
ARC
5
28F
100
AcDbEntity
8
0
100
AcDbCircle
62
9
6
CONTINUOUS
10
214.5789508459
20
96.8452118816
40
6.0000161472
100
AcDbArc
50
270.0000000000
51
297.1515395833
0
ARC
5
290
100
AcDbEntity
8
0
100
AcDbCircle
62
9
6
CONTINUOUS
10
265.6497294312
20
66.8452118816
40
44.0000209761
100
AcDbArc
50
90.0000000000
51
117.1515395833
0
SPLINE
5
291
100
AcDbEntity
8
0
100
AcDbSpline
62
9
6
CONTINUOUS
70
0
71
3
72
11
73
7
74
5
42
0.0000001000
43
0.0000001000
44
0.0000000001
12
4.2564768311
22
0.8412611720
32
0.0000000000
13
-0.6707889032
23
4.2866487634
33
0.0000000000
40
0.0000000000
40
0.0000000000
40
0.0000000000
40
0.0000000000
40
0.1625719062
40
0.3837891457
40
0.6703999528
40
1.0000000000
40
1.0000000000
40
1.0000000000
40
1.0000000000
10
246.3460950830
20
267.5722286203
30
0.0000000000
10
246.5767562670
20
267.6178170978
30
0.0000000000
10
247.0559595400
20
267.9949950078
30
0.0000000000
10
247.4004175216
20
268.9209026938
30
0.0000000000
10
247.5397792927
20
270.1309524160
30
0.0000000000
10
247.4696067517
20
271.0253603267
30
0.0000000000
10
247.3959094003
20
271.4963202050
30
0.0000000000
11
246.3460950830
21
267.5722286203
31
0.0000000000
11
246.9321322920
21
267.9647925123
31
0.0000000000
11
247.3333409726
21
268.8367370724
31
0.0000000000
11
247.4952597979
21
270.0697018057
31
0.0000000000
11
247.3959094003
21
271.4963202050
31
0.0000000000
0
SPLINE
5
292
100
AcDbEntity
8
0
100
AcDbSpline
62
9
6
CONTINUOUS
70
0
71
3
72
9
73
5
74
3
42
0.0000001000
43
0.0000001000
44
0.0000000001
12
-10.0270217562
22
-2.1799482472
32
0.0000000000
13
-10.0270152897
23
-2.1799779907
33
0.0000000000
40
0.0000000000
40
0.0000000000
40
0.0000000000
40
0.0000000000
40
0.5125329735
40
1.0000000000
40
1.0000000000
40
1.0000000000
40
1.0000000000
10
257.4228471432
20
273.6766548174
30
0.0000000000
10
255.7097873844
20
273.3042230317
30
0.0000000000
10
252.3675686031
20
272.5770134582
30
0.0000000000
10
249.0251891762
20
271.8505426680
30
0.0000000000
10
247.3959094003
20
271.4963202050
30
0.0000000000
11
257.4228471432
21
273.6766548174
31
0.0000000000
11
252.2837505241
21
272.5589793325
31
0.0000000000
11
247.3959094003
21
271.4963202050
31
0.0000000000
0
SPLINE
5
293
100
AcDbEntity
8
0
100
AcDbSpline
62
7
6
CONTINUOUS
70
0
71
3
72
9
73
5
74
3
42
0.0000001000
43
0.0000001000
44
0.0000000001
12
0.0000000000
22
-0.3974763296
32
0.0000000000
13
-0.4075513104
23
0.0038948895
33
0.0000000000
40
0.0000000000
40
0.0000000000
40
0.0000000000
40
0.0000000000
40
0.4928267000
40
1.0000000000
40
1.0000000000
40
1.0000000000
40
1.0000000000
10
347.0199332877
20
260.3595926199
30
0.0000000000
10
347.0199332877
20
260.2942969706
30
0.0000000000
10
346.8065089925
20
260.3666684330
30
0.0000000000
10
346.6532537599
20
260.3838783458
30
0.0000000000
10
346.5843540456
20
260.3845368071
30
0.0000000000
11
347.0199332877
21
260.3595926199
31
0.0000000000
11
346.8241846565
21
260.3522326131
31
0.0000000000
11
346.5843540456
21
260.3845368071
31
0.0000000000
0
SPLINE
5
294
100
AcDbEntity
8
0
100
AcDbSpline
62
7
6
CONTINUOUS
70
0
71
3
72
9
73
5
74
3
42
0.0000001000
43
0.0000001000
44
0.0000000001
12
-0.8127233018
22
0.0077670404
32
0.0000000000
13
-0.8076093408
23
0.0073684166
33
0.0000000000
40
0.0000000000
40
0.0000000000
40
0.0000000000
40
0.0000000000
40
0.4624644330
40
1.0000000000
40
1.0000000000
40
1.0000000000
40
1.0000000000
10
346.5843540456
20
260.3845368071
30
0.0000000000
10
346.4590688386
20
260.3857341338
30
0.0000000000
10
346.2512730394
20
260.3306256349
30
0.0000000000
10
345.9930095415
20
260.3227721111
30
0.0000000000
10
345.8483032932
20
260.3240923731
30
0.0000000000
11
346.5843540456
21
260.3845368071
31
0.0000000000
11
346.2560788098
21
260.3448692723
31
0.0000000000
11
345.8483032932
21
260.3240923731
31
0.0000000000
0
SPLINE
5
295
100
AcDbEntity
8
0
100
AcDbSpline
62
7
6
CONTINUOUS
70
0
71
3
72
10
73
6
74
4
42
0.0000001000
43
0.0000001000
44
0.0000000001
12
-2.8632537468
22
0.0261235789
32
0.0000000000
13
-2.8101067623
23
-0.0163744646
33
0.0000000000
40
0.0000000000
40
0.0000000000
40
0.0000000000
40
0.0000000000
40
0.1632854788
40
0.5601044739
40
1.0000000000
40
1.0000000000
40
1.0000000000
40
1.0000000000
10
345.8483032932
20
260.3240923731
30
0.0000000000
10
345.6924607069
20
260.3255142401
30
0.0000000000
10
345.1344916702
20
260.3524396356
30
0.0000000000
10
344.2233679498
20
260.3226707456
30
0.0000000000
10
343.4319844186
20
260.3251744930
30
0.0000000000
10
343.0199332877
20
260.3227734751
30
0.0000000000
11
345.8483032932
21
260.3240923731
31
0.0000000000
11
345.3711840348
21
260.3375077961
31
0.0000000000
11
344.2560858443
21
260.3301185819
31
0.0000000000
11
343.0199332877
21
260.3227734751
31
0.0000000000
0
SPLINE
5
296
100
AcDbEntity
8
0
100
AcDbSpline
62
7
6
CONTINUOUS
70
0
71
3
72
14
73
10
74
8
42
0.0000001000
43
0.0000001000
44
0.0000000001
12
1.6556133563
22
-2.1212184018
32
0.0000000000
13
2.6420443710
23
-0.0000013215
33
0.0000000000
40
0.0000000000
40
0.0000000000
40
0.0000000000
40
0.0000000000
40
0.0517739508
40
0.1665518774
40
0.3171121022
40
0.4802417596
40
0.6432280860
40
0.8168226976
40
1.0000000000
40
1.0000000000
40
1.0000000000
40
1.0000000000
10
176.9953067782
20
273.8099926164
30
0.0000000000
10
177.0238793264
20
273.7733846640
30
0.0000000000
10
177.0984650431
20
273.6473330286
30
0.0000000000
10
177.1720469487
20
273.3746946867
30
0.0000000000
10
177.3041424702
20
273.0225378571
30
0.0000000000
10
177.4812305251
20
272.6382181535
30
0.0000000000
10
177.8166191065
20
272.3246649469
30
0.0000000000
10
178.2756218570
20
272.2208868365
30
0.0000000000
10
178.5885308494
20
272.2099926971
30
0.0000000000
10
178.7498517030
20
272.2099926164
30
0.0000000000
11
176.9953067782
21
273.8099926164
31
0.0000000000
11
177.0667775107
21
273.6933599214
31
0.0000000000
11
177.1675303980
21
273.4073381871
31
0.0000000000
11
177.3048350275
21
273.0339995036
31
0.0000000000
11
177.5057362058
21
272.6526911111
31
0.0000000000
11
177.8262266865
21
272.3650855759
31
0.0000000000
11
178.2666481122
21
272.2370859750
31
0.0000000000
11
178.7498517030
21
272.2099926164
31
0.0000000000
0
SPLINE
5
297
100
AcDbEntity
8
0
100
AcDbSpline
62
9
6
CONTINUOUS
70
0
71
3
72
11
73
7
74
5
42
0.0000001000
43
0.0000001000
44
0.0000000001
12
4.7057463035
22
0.0000000000
32
0.0000000000
13
-0.0000000031
23
-4.7057463035
33
0.0000000000
40
0.0000000000
40
0.0000000000
40
0.0000000000
40
0.0000000000
40
0.1619352179
40
0.3850721632
40
0.6733744436
40
1.0000000000
40
1.0000000000
40
1.0000000000
40
1.0000000000
10
245.5705273972
20
281.8099926164
30
0.0000000000
10
245.8245360815
20
281.8099926164
30
0.0000000000
10
246.4122594684
20
281.4935928044
30
0.0000000000
10
246.9478507451
20
280.5608500376
30
0.0000000000
10
247.3153183835
20
279.2905872930
30
0.0000000000
10
247.3959093951
20
278.3223316179
30
0.0000000000
10
247.3959093948
20
277.8099926164
30
0.0000000000
11
245.5705273972
21
281.8099926164
31
0.0000000000
11
246.2690767677
21
281.5055053715
31
0.0000000000
11
246.8612728192
21
280.6384078372
31
0.0000000000
11
247.2569623635
21
279.3407162999
31
0.0000000000
11
247.3959093948
21
277.8099926164
31
0.0000000000
0
SPLINE
5
298
100
AcDbEntity
8
0
100
AcDbSpline
62
9
6
CONTINUOUS
70
0
71
3
72
11
73
7
74
5
42
0.0000001000
43
0.0000001000
44
0.0000000001
12
4.7057465988
22
0.0000000000
32
0.0000000000
13
0.0000000000
23
-4.7057465988
33
0.0000000000
40
0.0000000000
40
0.0000000000
40
0.0000000000
40
0.0000000000
40
0.1619335980
40
0.3850694424
40
0.6733723015
40
1.0000000000
40
1.0000000000
40
1.0000000000
40
1.0000000000
10
217.3170238505
20
281.8099926164
30
0.0000000000
10
217.5710300099
20
281.8099926164
30
0.0000000000
10
218.1587500098
20
281.4935981595
30
0.0000000000
10
218.6943435056
20
280.5608597875
30
0.0000000000
10
219.0618139096
20
279.2905951013
30
0.0000000000
10
219.1424058536
20
278.3223350101
30
0.0000000000
10
219.1424058536
20
277.8099926164
30
0.0000000000
11
217.3170238505
21
281.8099926164
31
0.0000000000
11
218.0155673008
21
281.5055107464
31
0.0000000000
11
218.6077638431
21
280.6384197411
31
0.0000000000
11
219.0034569222
21
279.3407263458
31
0.0000000000
11
219.1424058536
21
277.8099926164
31
0.0000000000
0
SPLINE
5
299
100
AcDbEntity
8
0
100
AcDbSpline
62
7
6
CONTINUOUS
70
0
71
3
72
9
73
5
74
3
42
0.0000001000
43
0.0000001000
44
0.0000000001
12
1.5031532164
22
0.2970858529
32
0.0000000000
13
0.3194739261
23
1.4925307229
33
0.0000000000
40
0.0000000000
40
0.0000000000
40
0.0000000000
40
0.0000000000
40
0.3856291518
40
1.0000000000
40
1.0000000000
40
1.0000000000
40
1.0000000000
10
217.0371686035
20
261.7795360207
30
0.0000000000
10
217.2303885034
20
261.8177243425
30
0.0000000000
10
217.6195969330
20
262.2428946531
30
0.0000000000
10
217.7594935423
20
262.7303294789
30
0.0000000000
10
217.8249186979
20
263.0359852676
30
0.0000000000
11
217.0371686035
21
261.7795360207
31
0.0000000000
11
217.4934936150
21
262.1548998212
31
0.0000000000
11
217.8249186979
21
263.0359852676
31
0.0000000000
0
SPLINE
5
29A
100
AcDbEntity
8
0
100
AcDbSpline
62
7
6
CONTINUOUS
70
0
71
3
72
9
73
5
74
3
42
0.0000001000
43
0.0000001000
44
0.0000000001
12
0.5724452400
22
2.6743719538
32
0.0000000000
13
-0.2382117812
23
2.7351534212
33
0.0000000000
40
0.0000000000
40
0.0000000000
40
0.0000000000
40
0.0000000000
40
0.4641347280
40
1.0000000000
40
1.0000000000
40
1.0000000000
40
1.0000000000
10
217.8249186979
20
263.0359852676
30
0.0000000000
10
217.9134826032
20
263.4497415674
30
0.0000000000
10
218.0232714020
20
264.3656373251
30
0.0000000000
10
217.9938115703
20
265.2823926788
30
0.0000000000
10
217.9512617633
20
265.7709505895
30
0.0000000000
11
217.8249186979
21
263.0359852676
31
0.0000000000
11
217.9853991061
21
264.3001247991
31
0.0000000000
11
217.9512617633
21
265.7709505895
31
0.0000000000
0
SPLINE
5
29B
100
AcDbEntity
8
0
100
AcDbSpline
62
7
6
CONTINUOUS
70
0
71
3
72
11
73
7
74
5
42
0.0000001000
43
0.0000001000
44
0.0000000001
12
4.0321353459
22
0.7968093441
32
0.0000000000
13
-0.3834421850
23
4.0921867833
33
0.0000000000
40
0.0000000000
40
0.0000000000
40
0.0000000000
40
0.0000000000
40
0.1079169421
40
0.3258528118
40
0.6369066572
40
1.0000000000
40
1.0000000000
40
1.0000000000
40
1.0000000000
10
257.0098638372
20
269.6798299508
30
0.0000000000
10
257.1549090760
20
269.7084930268
30
0.0000000000
10
257.3739792538
20
270.2085072620
30
0.0000000000
10
257.4816379924
20
271.0143818605
30
0.0000000000
10
257.5257325622
20
272.2658787441
30
0.0000000000
10
257.4711538588
20
273.1813728913
30
0.0000000000
10
257.4247454239
20
273.6766548174
30
0.0000000000
11
257.0098638372
21
269.6798299508
31
0.0000000000
11
257.2820269584
21
270.0300648356
31
0.0000000000
11
257.4551590150
21
270.9089146114
31
0.0000000000
11
257.5044467989
21
272.1864303197
31
0.0000000000
11
257.4247454239
21
273.6766548174
31
0.0000000000
0
SPLINE
5
29C
100
AcDbEntity
8
0
100
AcDbSpline
62
9
6
CONTINUOUS
70
0
71
3
72
11
73
7
74
5
42
0.0000001000
43
0.0000001000
44
0.0000000001
12
4.2564768494
22
0.8412611756
32
0.0000000000
13
-0.6707889946
23
4.2866487680
33
0.0000000000
40
0.0000000000
40
0.0000000000
40
0.0000000000
40
0.0000000000
40
0.1625719077
40
0.3837891458
40
0.6703999519
40
1.0000000000
40
1.0000000000
40
1.0000000000
40
1.0000000000
10
218.0925915363
20
261.9881325592
30
0.0000000000
10
218.3232527234
20
262.0337210373
30
0.0000000000
10
218.8024560060
20
262.4108989358
30
0.0000000000
10
219.1469140017
20
263.3368066236
30
0.0000000000
10
219.2862757698
20
264.5468563495
30
0.0000000000
10
219.2161032152
20
265.4412642638
30
0.0000000000
10
219.1424058536
20
265.9122241439
30
0.0000000000
11
218.0925915363
21
261.9881325592
31
0.0000000000
11
218.6786287591
21
262.3806964479
31
0.0000000000
11
219.0798374490
21
263.2526410016
31
0.0000000000
11
219.2417562726
21
264.4856057359
31
0.0000000000
11
219.1424058536
21
265.9122241439
31
0.0000000000
0
SPLINE
5
29D
100
AcDbEntity
8
0
100
AcDbSpline
62
9
6
CONTINUOUS
70
0
71
3
72
9
73
5
74
3
42
0.0000001000
43
0.0000001000
44
0.0000000001
12
-1.1885218289
22
-0.1410824145
32
0.0000000000
13
-1.1885477203
23
-0.1408641259
33
0.0000000000
40
0.0000000000
40
0.0000000000
40
0.0000000000
40
0.0000000000
40
0.4939852033
40
1.0000000000
40
1.0000000000
40
1.0000000000
40
1.0000000000
10
219.1424058536
20
265.9122241439
30
0.0000000000
10
218.9467017878
20
265.8889932688
30
0.0000000000
10
218.5505125280
20
265.8420947075
30
0.0000000000
10
218.1543809919
20
265.7947103668
30
0.0000000000
10
217.9539067475
20
265.7709505895
30
0.0000000000
11
219.1424058536
21
265.9122241439
31
0.0000000000
11
218.5552926096
21
265.8425403376
31
0.0000000000
11
217.9539067475
21
265.7709505895
31
0.0000000000
0
SPLINE
5
29E
100
AcDbEntity
8
0
100
AcDbSpline
62
9
6
CONTINUOUS
70
0
71
3
72
11
73
7
74
5
42
0.0000001000
43
0.0000001000
44
0.0000000001
12
0.0000000025
22
-4.4139654148
32
0.0000000000
13
-4.4139654148
23
0.0000000000
33
0.0000000000
40
0.0000000000
40
0.0000000000
40
0.0000000000
40
0.0000000000
40
0.3475271681
40
0.6484692407
40
0.8672023587
40
1.0000000000
40
1.0000000000
40
1.0000000000
40
1.0000000000
10
336.2577294197
20
110.8452118816
30
0.0000000000
10
336.2577294200
20
110.3338875813
30
0.0000000000
10
336.2045126172
20
109.3789086640
30
0.0000000000
10
335.9350320926
20
108.1212417004
30
0.0000000000
10
335.6008190686
20
107.2302744022
30
0.0000000000
10
335.1442584654
20
106.8452118816
30
0.0000000000
10
334.9488704001
20
106.8452118816
30
0.0000000000
11
336.2577294197
21
110.8452118816
31
0.0000000000
11
336.1580984261
21
109.3144778990
31
0.0000000000
11
335.8743733952
21
108.0167844642
31
0.0000000000
11
335.4497489625
21
107.1496936220
31
0.0000000000
11
334.9488704001
21
106.8452118816
31
0.0000000000
0
SPLINE
5
29F
100
AcDbEntity
8
0
100
AcDbSpline
62
7
6
CONTINUOUS
70
0
71
3
72
22
73
18
74
16
42
0.0000001000
43
0.0000001000
44
0.0000000001
12
-8.3116218303
22
0.0000008486
32
0.0000000000
13
0.0000000000
23
8.3116218303
33
0.0000000000
40
0.0000000000
40
0.0000000000
40
0.0000000000
40
0.0000000000
40
0.1078097625
40
0.2068707933
40
0.2978667609
40
0.3815416355
40
0.4586967528
40
0.5301637231
40
0.5967777207
40
0.6594924847
40
0.7190747101
40
0.7754322639
40
0.8280430593
40
0.8769274348
40
0.9221005082
40
0.9629215356
40
1.0000000000
40
1.0000000000
40
1.0000000000
40
1.0000000000
10
178.7498517012
20
106.8452118816
30
0.0000000000
10
178.4511603759
20
106.8452119121
30
0.0000000000
10
177.8779767714
20
106.8537863603
30
0.0000000000
10
177.0534252241
20
106.8902666726
30
0.0000000000
10
176.2969323859
20
106.9452262269
30
0.0000000000
10
175.6026798528
20
107.0153701235
30
0.0000000000
10
174.9643874854
20
107.0984810138
30
0.0000000000
10
174.3755601716
20
107.1933277246
30
0.0000000000
10
173.8294053753
20
107.2997216004
30
0.0000000000
10
173.3195529326
20
107.4185631386
30
0.0000000000
10
172.8425794419
20
107.5514788242
30
0.0000000000
10
172.3996342705
20
107.7002089393
30
0.0000000000
10
171.9949047178
20
107.8669506421
30
0.0000000000
10
171.6338420227
20
108.0551673452
30
0.0000000000
10
171.3275578727
20
108.2718587544
30
0.0000000000
10
171.0936604708
20
108.5260649745
30
0.0000000000
10
171.0224481391
20
108.7424844901
30
0.0000000000
10
171.0224481391
20
108.8452118816
30
0.0000000000
11
178.7498517012
21
106.8452118816
31
0.0000000000
11
177.8538792647
21
106.8587012553
31
0.0000000000
11
177.0313351519
21
106.8952975837
31
0.0000000000
11
176.2770197300
21
106.9503824703
31
0.0000000000
11
175.5851032181
21
107.0206356248
31
0.0000000000
11
174.9492391840
21
107.1038359878
31
0.0000000000
11
174.3628672839
21
107.1987656171
31
0.0000000000
11
173.8195218679
21
107.3051922244
31
0.0000000000
11
173.3120341993
21
107.4242288390
31
0.0000000000
11
172.8352514037
21
107.5581164496
31
0.0000000000
11
172.3916532683
21
107.7085840405
31
0.0000000000
11
171.9881375383
21
107.8770766509
31
0.0000000000
11
171.6295570400
21
108.0681435936
31
0.0000000000
11
171.3264630114
21
108.2897408635
31
0.0000000000
11
171.1076464188
21
108.5490404688
31
0.0000000000
11
171.0224481391
21
108.8452118816
31
0.0000000000
0
SPLINE
5
2A0
100
AcDbEntity
8
0
100
AcDbSpline
62
7
6
CONTINUOUS
70
0
71
3
72
13
73
9
74
7
42
0.0000001000
43
0.0000001000
44
0.0000000001
12
-3.1857137180
22
0.0000000000
32
0.0000000000
13
0.0000000000
23
-3.1857137180
33
0.0000000000
40
0.0000000000
40
0.0000000000
40
0.0000000000
40
0.0000000000
40
0.2048218481
40
0.3696302316
40
0.4823846433
40
0.6161342535
40
0.7937943824
40
1.0000000000
40
1.0000000000
40
1.0000000000
40
1.0000000000
10
178.7498539288
20
146.8452118816
30
0.0000000000
10
178.5323526717
20
146.8452118816
30
0.0000000000
10
178.1480947601
20
146.8348509977
30
0.0000000000
10
177.6082608542
20
146.8164401303
30
0.0000000000
10
177.2765290162
20
146.4894807062
30
0.0000000000
10
177.1484897693
20
146.0499072438
30
0.0000000000
10
177.0581375820
20
145.5103983879
30
0.0000000000
10
176.9953067782
20
145.1045907756
30
0.0000000000
10
176.9953067782
20
144.8856200873
30
0.0000000000
11
178.7498539288
21
146.8452118816
31
0.0000000000
11
178.0974724592
21
146.8325790012
31
0.0000000000
11
177.5805954809
21
146.7403990955
31
0.0000000000
11
177.3194900326
21
146.4937192658
31
0.0000000000
11
177.1690579151
21
146.0950701288
31
0.0000000000
11
177.0640145685
21
145.5389291263
31
0.0000000000
11
176.9953067782
21
144.8856200873
31
0.0000000000
0
SPLINE
5
2A1
100
AcDbEntity
8
0
100
AcDbSpline
62
7
6
CONTINUOUS
70
0
71
3
72
22
73
18
74
16
42
0.0000001000
43
0.0000001000
44
0.0000000001
12
0.0000000000
22
8.3114682450
32
0.0000000000
13
8.3114682450
23
0.0000000000
33
0.0000000000
40
0.0000000000
40
0.0000000000
40
0.0000000000
40
0.0000000000
40
0.0382005880
40
0.0786192675
40
0.1222458026
40
0.1701039549
40
0.2228626400
40
0.2801261667
40
0.3401381111
40
0.4024837040
40
0.4687086729
40
0.5399820601
40
0.6171025731
40
0.7008973548
40
0.7921631363
40
0.8916384494
40
1.0000000000
40
1.0000000000
40
1.0000000000
40
1.0000000000
10
171.0224481391
20
144.8452118816
30
0.0000000000
10
171.0224481391
20
144.9510462062
30
0.0000000000
10
171.0966579880
20
145.1693020812
30
0.0000000000
10
171.3302461362
20
145.4199494322
30
0.0000000000
10
171.6294876147
20
145.6321785276
30
0.0000000000
10
171.9839920804
20
145.8183609602
30
0.0000000000
10
172.3883751218
20
145.9861671751
30
0.0000000000
10
172.8350415832
20
146.1367448915
30
0.0000000000
10
173.3145316655
20
146.2705846965
30
0.0000000000
10
173.8234451563
20
146.3893954456
30
0.0000000000
10
174.3669492669
20
146.4955454982
30
0.0000000000
10
174.9540266877
20
146.5904315423
30
0.0000000000
10
175.5919680095
20
146.6738246371
30
0.0000000000
10
176.2871566729
20
146.7443684696
30
0.0000000000
10
177.0458396799
20
146.7997436294
30
0.0000000000
10
177.8737900991
20
146.8365539609
30
0.0000000000
10
178.4496402205
20
146.8452118816
30
0.0000000000
10
178.7498547494
20
146.8452118816
30
0.0000000000
11
171.0224481391
21
144.8452118816
31
0.0000000000
11
171.1125111997
21
145.1496733465
31
0.0000000000
11
171.3310721269
21
145.4047926226
31
0.0000000000
11
171.6238204598
21
145.6187495807
31
0.0000000000
11
171.9743074110
21
145.8068481552
31
0.0000000000
11
172.3784962904
21
145.9768936593
31
0.0000000000
11
172.8290109186
21
146.1303838703
31
0.0000000000
11
173.3091607272
21
146.2654579320
31
0.0000000000
11
173.8136115785
21
146.3839627469
31
0.0000000000
11
174.3537233166
21
146.4900235367
31
0.0000000000
11
174.9384454291
21
146.5850067462
31
0.0000000000
11
175.5739701080
21
146.6684918426
31
0.0000000000
11
176.2668343600
21
146.7391488301
31
0.0000000000
11
177.0233535686
21
146.7946538114
31
0.0000000000
11
177.8493142688
21
146.8315842282
31
0.0000000000
11
178.7498547494
21
146.8452118816
31
0.0000000000
0
SPLINE
5
2A2
100
AcDbEntity
8
0
100
AcDbSpline
62
7
6
CONTINUOUS
70
0
71
3
72
14
73
10
74
8
42
0.0000001000
43
0.0000001000
44
0.0000000001
12
0.0000000000
22
-3.1890243764
32
0.0000000000
13
3.1890243764
23
-0.0000003256
33
0.0000000000
40
0.0000000000
40
0.0000000000
40
0.0000000000
40
0.0000000000
40
0.2122226858
40
0.3815579734
40
0.5077198106
40
0.6039755098
40
0.7099890044
40
0.8484685408
40
1.0000000000
40
1.0000000000
40
1.0000000000
40
1.0000000000
10
176.9953067782
20
108.8048036758
30
0.0000000000
10
176.9953067782
20
108.5792092363
30
0.0000000000
10
177.0589128322
20
108.1761324820
30
0.0000000000
10
177.1466269532
20
107.6439869692
30
0.0000000000
10
177.2685844808
20
107.2436258235
30
0.0000000000
10
177.4944697573
20
106.9540140682
30
0.0000000000
10
177.8625609003
20
106.8647188807
30
0.0000000000
10
178.2794819994
20
106.8484039949
30
0.0000000000
10
178.5887725306
20
106.8452118980
30
0.0000000000
10
178.7498517030
20
106.8452118816
30
0.0000000000
11
176.9953067782
21
108.8048036758
31
0.0000000000
11
177.0667775107
21
108.1318047201
31
0.0000000000
11
177.1675303980
21
107.6012725679
31
0.0000000000
11
177.3048350275
21
107.2230934811
31
0.0000000000
11
177.5057362058
21
106.9910067613
31
0.0000000000
11
177.8262266865
21
106.8833792546
31
0.0000000000
11
178.2666481122
21
106.8509379529
31
0.0000000000
11
178.7498517030
21
106.8452118816
31
0.0000000000
0
ENDSEC
0
SECTION
2
OBJECTS
0
DICTIONARY
5
C
100
AcDbDictionary
280
0
281
1
3
ACAD_GROUP
350
D
3
ACAD_MLINESTYLE
350
17
3
ACAD_LAYOUT
350
1A
3
ACAD_PLOTSETTINGS
350
19
3
ACAD_PLOTSTYLENAME
350
E
0
DICTIONARY
5
D
102
{ACAD_REACTORS
330
C
102
}
100
AcDbDictionary
280
0
281
1
0
ACDBDICTIONARYWDFLT
5
E
102
{ACAD_REACTORS
330
C
102
}
100
AcDbDictionary
281
1
3
Normal
350
F
100
AcDbDictionaryWithDefault
340
F
0
DICTIONARY
5
17
102
{ACAD_REACTORS
330
C
102
}
100
AcDbDictionary
280
0
281
1
3
Standard
350
18
0
DICTIONARY
5
19
102
{ACAD_REACTORS
330
C
102
}
100
AcDbDictionary
281
1
0
DICTIONARY
5
1A
102
{ACAD_REACTORS
330
C
102
}
100
AcDbDictionary
281
1
3
Layout1
350
1E
3
Model
350
22
0
ACDBPLACEHOLDER
5
F
102
{ACAD_REACTORS
330
E
102
}
0
MLINESTYLE
5
18
102
{ACAD_REACTORS
330
17
102
}
100
AcDbMlineStyle
2
STANDARD
70
0
3

62
256
51
90.0
52
90.0
71
2
49
0.5
62
256
6
BYLAYER
49
-0.5
62
256
6
BYLAYER
0
LAYOUT
5
1E
102
{ACAD_REACTORS
330
1A
102
}
100
AcDbPlotSettings
1

2

4

6

40
0.0
41
0.0
42
0.0
43
0.0
44
0.0
45
0.0
46
0.0
47
0.0
48
0.0
49
0.0
140
0.0
141
0.0
142
1.0
143
1.0
70
0
72
0
73
0
74
0
7

75
0
147
1.0
148
0.0
149
0.0
100
AcDbLayout
1
Layout1
70
0
71
0
10
0.0
20
0.0
11
0.0
21
0.0
12
0.0
22
0.0
32
0.0
14
0.0
24
0.0
34
0.0
15
0.0
25
0.0
35
0.0
146
0.0
13
0.0
23
0.0
33
0.0
16
0.0
26
0.0
36
0.0
17
0.0
27
0.0
37
0.0
76
0
330
1B
331
0
345
0
346
0
0
LAYOUT
5
22
102
{ACAD_REACTORS
330
1A
102
}
100
AcDbPlotSettings
1

2

4

6

40
0.0
41
0.0
42
0.0
43
0.0
44
0.0
45
0.0
46
0.0
47
0.0
48
0.0
49
0.0
140
0.0
141
0.0
142
1.0
143
1.0
70
0
72
0
73
0
74
0
7

75
0
147
1.0
148
0.0
149
0.0
100
AcDbLayout
1
Model
70
0
71
0
10
0.0
20
0.0
11
0.0
21
0.0
12
0.0
22
0.0
32
0.0
14
0.0
24
0.0
34
0.0
15
0.0
25
0.0
35
0.0
146
0.0
13
0.0
23
0.0
33
0.0
16
0.0
26
0.0
36
0.0
17
0.0
27
0.0
37
0.0
76
0
330
1F
331
0
345
0
346
0
0
ENDSEC
0
EOF
