  0
SECTION
  2
HEADER
  9
$ACADVER
  1
AC1012
  9
$DWGCODEPAGE
  3
ansi_1252
  9
$INSBASE
 10
0.0
 20
0.0
 30
0.0
  9
$EXTMIN
 10
-133.55
 20
-0.414214
 30
0.0
  9
$EXTMAX
 10
272.853188
 20
142.785018
 30
0.0
  9
$LIMMIN
 10
0.0
 20
0.0
  9
$LIMMAX
 10
297.0
 20
210.0
  9
$ORTHOMODE
 70
     1
  9
$REGENMODE
 70
     1
  9
$FILLMODE
 70
     1
  9
$QTEXTMODE
 70
     0
  9
$MIRRTEXT
 70
     1
  9
$DRAGMODE
 70
     2
  9
$LTSCALE
 40
10.0
  9
$OSMODE
 70
    37
  9
$ATTMODE
 70
     1
  9
$TEXTSIZE
 40
0.2
  9
$TRACEWID
 40
0.05
  9
$TEXTSTYLE
  7
STANDARD
  9
$CLAYER
  8
0
  9
$CELTYPE
  6
BYLAYER
  9
$CECOLOR
 62
   256
  9
$CELTSCALE
 40
1.0
  9
$DELOBJ
 70
     1
  9
$DISPSILH
 70
     0
  9
$DIMSCALE
 40
1.0
  9
$DIMASZ
 40
0.18
  9
$DIMEXO
 40
0.0625
  9
$DIMDLI
 40
0.38
  9
$DIMRND
 40
0.0
  9
$DIMDLE
 40
0.0
  9
$DIMEXE
 40
0.18
  9
$DIMTP
 40
0.0
  9
$DIMTM
 40
0.0
  9
$DIMTXT
 40
0.18
  9
$DIMCEN
 40
0.09
  9
$DIMTSZ
 40
0.0
  9
$DIMTOL
 70
     0
  9
$DIMLIM
 70
     0
  9
$DIMTIH
 70
     1
  9
$DIMTOH
 70
     1
  9
$DIMSE1
 70
     0
  9
$DIMSE2
 70
     0
  9
$DIMTAD
 70
     0
  9
$DIMZIN
 70
     0
  9
$DIMBLK
  1

  9
$DIMASO
 70
     1
  9
$DIMSHO
 70
     0
  9
$DIMPOST
  1

  9
$DIMAPOST
  1

  9
$DIMALT
 70
     0
  9
$DIMALTD
 70
     2
  9
$DIMALTF
 40
25.4
  9
$DIMLFAC
 40
1.0
  9
$DIMTOFL
 70
     0
  9
$DIMTVP
 40
0.0
  9
$DIMTIX
 70
     0
  9
$DIMSOXD
 70
     0
  9
$DIMSAH
 70
     0
  9
$DIMBLK1
  1

  9
$DIMBLK2
  1

  9
$DIMSTYLE
  2
STANDARD
  9
$DIMCLRD
 70
     0
  9
$DIMCLRE
 70
     0
  9
$DIMCLRT
 70
     0
  9
$DIMTFAC
 40
1.0
  9
$DIMGAP
 40
0.09
  9
$DIMJUST
 70
     0
  9
$DIMSD1
 70
     0
  9
$DIMSD2
 70
     0
  9
$DIMTOLJ
 70
     1
  9
$DIMTZIN
 70
     0
  9
$DIMALTZ
 70
     0
  9
$DIMALTTZ
 70
     0
  9
$DIMFIT
 70
     3
  9
$DIMUPT
 70
     0
  9
$DIMUNIT
 70
     2
  9
$DIMDEC
 70
     4
  9
$DIMTDEC
 70
     4
  9
$DIMALTU
 70
     2
  9
$DIMALTTD
 70
     2
  9
$DIMTXSTY
  7
STANDARD
  9
$DIMAUNIT
 70
     0
  9
$LUNITS
 70
     2
  9
$LUPREC
 70
     4
  9
$SKETCHINC
 40
0.1
  9
$FILLETRAD
 40
0.0
  9
$AUNITS
 70
     0
  9
$AUPREC
 70
     0
  9
$MENU
  1
c:\sitoplas\menu\CCing
  9
$ELEVATION
 40
0.0
  9
$PELEVATION
 40
0.0
  9
$THICKNESS
 40
0.0
  9
$LIMCHECK
 70
     0
  9
$CHAMFERA
 40
0.0
  9
$CHAMFERB
 40
0.0
  9
$CHAMFERC
 40
0.0
  9
$CHAMFERD
 40
0.0
  9
$SKPOLY
 70
     0
  9
$TDCREATE
 40
2447893.083333334
  9
$TDUPDATE
 40
2447893.083333334
  9
$TDINDWG
 40
0.0025015046
  9
$TDUSRTIMER
 40
0.0025015046
  9
$USRTIMER
 70
     1
  9
$ANGBASE
 50
0.0
  9
$ANGDIR
 70
     0
  9
$PDMODE
 70
     0
  9
$PDSIZE
 40
0.0
  9
$PLINEWID
 40
0.0
  9
$COORDS
 70
     1
  9
$SPLFRAME
 70
     0
  9
$SPLINETYPE
 70
     6
  9
$SPLINESEGS
 70
     8
  9
$ATTDIA
 70
     0
  9
$ATTREQ
 70
     1
  9
$HANDLING
 70
     1
  9
$HANDSEED
  5
68F
  9
$SURFTAB1
 70
     6
  9
$SURFTAB2
 70
     6
  9
$SURFTYPE
 70
     6
  9
$SURFU
 70
     6
  9
$SURFV
 70
     6
  9
$UCSNAME
  2

  9
$UCSORG
 10
0.0
 20
0.0
 30
0.0
  9
$UCSXDIR
 10
1.0
 20
0.0
 30
0.0
  9
$UCSYDIR
 10
0.0
 20
1.0
 30
0.0
  9
$PUCSNAME
  2

  9
$PUCSORG
 10
0.0
 20
0.0
 30
0.0
  9
$PUCSXDIR
 10
1.0
 20
0.0
 30
0.0
  9
$PUCSYDIR
 10
0.0
 20
1.0
 30
0.0
  9
$USERI1
 70
     0
  9
$USERI2
 70
     0
  9
$USERI3
 70
     0
  9
$USERI4
 70
     0
  9
$USERI5
 70
     0
  9
$USERR1
 40
0.0
  9
$USERR2
 40
0.0
  9
$USERR3
 40
0.0
  9
$USERR4
 40
0.0
  9
$USERR5
 40
0.0
  9
$WORLDVIEW
 70
     1
  9
$SHADEDGE
 70
     3
  9
$SHADEDIF
 70
    70
  9
$TILEMODE
 70
     1
  9
$MAXACTVP
 70
    16
  9
$PINSBASE
 10
0.0
 20
0.0
 30
0.0
  9
$PLIMCHECK
 70
     0
  9
$PEXTMIN
 10
1.000000000000000E+20
 20
1.000000000000000E+20
 30
1.000000000000000E+20
  9
$PEXTMAX
 10
-1.000000000000000E+20
 20
-1.000000000000000E+20
 30
-1.000000000000000E+20
  9
$PLIMMIN
 10
0.0
 20
0.0
  9
$PLIMMAX
 10
12.0
 20
9.0
  9
$UNITMODE
 70
     0
  9
$VISRETAIN
 70
     0
  9
$PLINEGEN
 70
     0
  9
$PSLTSCALE
 70
     0
  9
$TREEDEPTH
 70
  3020
  9
$PICKSTYLE
 70
     1
  9
$CMLSTYLE
  2
STANDARD
  9
$CMLJUST
 70
     0
  9
$CMLSCALE
 40
1.0
  9
$SAVEIMAGES
 70
     1
  0
ENDSEC
  0
SECTION
  2
CLASSES
  0
CLASS
  1
XRECORD
  2
AcDbXrecord
  3
AutoCAD 2000
 90
    32768
280
     0
281
     0
  0
CLASS
  1
LWPOLYLINE
  2
AcDbPolyline
  3
AutoCAD 2000
 90
    32768
280
     0
281
     1
  0
CLASS
  1
HATCH
  2
AcDbHatch
  3
AutoCAD 2000
 90
    32768
280
     0
281
     1
  0
CLASS
  1
ACDBPLACEHOLDER
  2
AcDbPlaceHolder
  3
ObjectDBX Classes
 90
        0
280
     0
281
     0
  0
CLASS
  1
LAYOUT
  2
AcDbLayout
  3
ObjectDBX Classes
 90
        0
280
     0
281
     0
  0
ENDSEC
  0
SECTION
  2
TABLES
  0
TABLE
  2
VPORT
  5
8
330
0
100
AcDbSymbolTable
 70
     1
  0
VPORT
  5
4D2
102
{ACAD_XDICTIONARY
360
68D
102
}
330
8
100
AcDbSymbolTableRecord
100
AcDbViewportTableRecord
  2
*ACTIVE
 70
     0
 10
0.0
 20
0.0
 11
1.0
 21
1.0
 12
81.72499999999999
 22
112.011587
 13
0.0
 23
0.0
 14
0.5
 24
0.5
 15
0.0
 25
0.0
 16
0.0
 26
0.0
 36
1.0
 17
0.0
 27
0.0
 37
0.0
 40
224.788695
 41
1.915354
 42
50.0
 43
0.0
 44
0.0
 50
0.0
 51
0.0
 71
     0
 72
   100
 73
     1
 74
     3
 75
     1
 76
     0
 77
     0
 78
     0
  0
ENDTAB
  0
TABLE
  2
LTYPE
  5
5
330
0
100
AcDbSymbolTable
 70
     1
  0
LTYPE
  5
12
330
5
100
AcDbSymbolTableRecord
100
AcDbLinetypeTableRecord
  2
BYBLOCK
 70
     0
  3

 72
    65
 73
     0
 40
0.0
  0
LTYPE
  5
13
330
5
100
AcDbSymbolTableRecord
100
AcDbLinetypeTableRecord
  2
BYLAYER
 70
     0
  3

 72
    65
 73
     0
 40
0.0
  0
LTYPE
  5
14
330
5
100
AcDbSymbolTableRecord
100
AcDbLinetypeTableRecord
  2
CONTINUOUS
 70
     0
  3
Solid line
 72
    65
 73
     0
 40
0.0
  0
ENDTAB
  0
TABLE
  2
LAYER
  5
2
330
0
100
AcDbSymbolTable
 70
     2
  0
LAYER
  5
F
330
2
100
AcDbSymbolTableRecord
100
AcDbLayerTableRecord
  2
0
 70
     0
 62
     7
  6
CONTINUOUS
  0
LAYER
  5
35
330
2
100
AcDbSymbolTableRecord
100
AcDbLayerTableRecord
  2
GUIDE
 70
     0
 62
     7
  6
CONTINUOUS
  0
ENDTAB
  0
TABLE
  2
STYLE
  5
3
330
0
100
AcDbSymbolTable
 70
     1
  0
STYLE
  5
10
330
3
100
AcDbSymbolTableRecord
100
AcDbTextStyleTableRecord
  2
STANDARD
 70
     0
 40
0.0
 41
1.0
 50
0.0
 71
     0
 42
0.2
  3
txt
  4

  0
ENDTAB
  0
TABLE
  2
VIEW
  5
6
330
0
100
AcDbSymbolTable
 70
     0
  0
ENDTAB
  0
TABLE
  2
UCS
  5
7
330
0
100
AcDbSymbolTable
 70
     0
  0
ENDTAB
  0
TABLE
  2
APPID
  5
9
330
0
100
AcDbSymbolTable
 70
     1
  0
APPID
  5
11
330
9
100
AcDbSymbolTableRecord
100
AcDbRegAppTableRecord
  2
ACAD
 70
     0
  0
ENDTAB
  0
TABLE
  2
DIMSTYLE
  5
A
330
0
100
AcDbSymbolTable
 70
     1
  0
DIMSTYLE
105
2D
330
A
100
AcDbSymbolTableRecord
100
AcDbDimStyleTableRecord
  2
STANDARD
 70
     0
  3

  4

  5

  6

  7

 40
1.0
 41
0.18
 42
0.0625
 43
0.38
 44
0.18
 45
0.0
 46
0.0
 47
0.0
 48
0.0
140
0.18
141
0.09
142
0.0
143
25.4
144
1.0
145
0.0
146
1.0
147
0.09
 71
     0
 72
     0
 73
     1
 74
     1
 75
     0
 76
     0
 77
     0
 78
     0
170
     0
171
     2
172
     0
173
     0
174
     0
175
     0
176
     0
177
     0
178
     0
270
     2
271
     4
272
     4
273
     2
274
     2
340
10
275
     0
280
     0
281
     0
282
     0
283
     1
284
     0
285
     0
286
     0
287
     3
288
     0
  0
ENDTAB
  0
TABLE
  2
BLOCK_RECORD
  5
1
330
0
100
AcDbSymbolTable
 70
     0
  0
BLOCK_RECORD
  5
18
330
1
100
AcDbSymbolTableRecord
100
AcDbBlockTableRecord
  2
*MODEL_SPACE
  0
BLOCK_RECORD
  5
15
330
1
100
AcDbSymbolTableRecord
100
AcDbBlockTableRecord
  2
*PAPER_SPACE
  0
ENDTAB
  0
ENDSEC
  0
SECTION
  2
BLOCKS
  0
BLOCK
  5
24
330
18
100
AcDbEntity
  8
0
100
AcDbBlockBegin
  2
*MODEL_SPACE
 70
     0
 71
     0
 10
0.0
 20
0.0
 30
0.0
  3
*MODEL_SPACE
  1

  0
ENDBLK
  5
25
330
18
100
AcDbEntity
  8
0
100
AcDbBlockEnd
  0
BLOCK
  5
22
330
15
100
AcDbEntity
 67
     1
  8
0
100
AcDbBlockBegin
  2
*PAPER_SPACE
 70
     0
 71
     0
 10
0.0
 20
0.0
 30
0.0
  3
*PAPER_SPACE
  1

  0
ENDBLK
  5
23
330
15
100
AcDbEntity
 67
     1
  8
0
100
AcDbBlockEnd
  0
ENDSEC
  0
SECTION
  2
ENTITIES
  0
LINE
  5
28D
330
18
100
AcDbEntity
  8
GUIDE
100
AcDbLine
 10
-132.0
 20
135.675
 30
0.0
 11
-132.0
 21
111.269257
 31
0.0
  0
LINE
  5
28E
330
18
100
AcDbEntity
  8
GUIDE
100
AcDbLine
 10
-45.0
 20
135.675
 30
0.0
 11
-45.0
 21
128.472128
 31
0.0
  0
LINE
  5
28F
330
18
100
AcDbEntity
  8
GUIDE
100
AcDbLine
 10
-43.5
 20
135.675
 30
0.0
 11
-43.5
 21
128.472128
 31
0.0
  0
LINE
  5
290
330
18
100
AcDbEntity
  8
GUIDE
100
AcDbLine
 10
43.5
 20
111.269257
 30
0.0
 11
43.5
 21
118.472128
 31
0.0
  0
LINE
  5
291
330
18
100
AcDbEntity
  8
GUIDE
100
AcDbLine
 10
45.0
 20
111.269257
 30
0.0
 11
45.0
 21
118.472128
 31
0.0
  0
LINE
  5
292
330
18
100
AcDbEntity
  8
GUIDE
100
AcDbLine
 10
132.0
 20
111.269257
 30
0.0
 11
132.0
 21
135.675
 31
0.0
  0
LINE
  5
293
330
18
100
AcDbEntity
  8
GUIDE
100
AcDbLine
 10
-100.830743
 20
85.09999999999999
 30
0.0
 11
-76.169257
 21
85.09999999999999
 31
0.0
  0
LINE
  5
294
330
18
100
AcDbEntity
  8
GUIDE
100
AcDbLine
 10
-132.0
 20
113.5
 30
0.0
 11
-45.0
 21
113.5
 31
0.0
  0
LINE
  5
295
330
18
100
AcDbEntity
  8
GUIDE
100
AcDbLine
 10
-132.0
 20
135.675
 30
0.0
 11
-45.0
 21
135.675
 31
0.0
  0
LINE
  5
296
330
18
100
AcDbEntity
  8
GUIDE
100
AcDbLine
 10
-132.0
 20
111.269257
 30
0.0
 11
-100.830743
 21
85.09999999999999
 31
0.0
  0
LINE
  5
297
330
18
100
AcDbEntity
  8
GUIDE
100
AcDbLine
 10
-76.169257
 20
85.09999999999999
 30
0.0
 11
-45.0
 21
111.269257
 31
0.0
  0
LINE
  5
298
330
18
100
AcDbEntity
  8
GUIDE
100
AcDbLine
 10
-12.330743
 20
85.09999999999999
 30
0.0
 11
12.330743
 21
85.09999999999999
 31
0.0
  0
LINE
  5
299
330
18
100
AcDbEntity
  8
GUIDE
100
AcDbLine
 10
-43.5
 20
111.269257
 30
0.0
 11
-12.330743
 21
85.09999999999999
 31
0.0
  0
LINE
  5
29A
330
18
100
AcDbEntity
  8
GUIDE
100
AcDbLine
 10
12.330743
 20
85.09999999999999
 30
0.0
 11
43.5
 21
111.269257
 31
0.0
  0
LINE
  5
29B
330
18
100
AcDbEntity
  8
GUIDE
100
AcDbLine
 10
76.169257
 20
85.09999999999999
 30
0.0
 11
100.830743
 21
85.09999999999999
 31
0.0
  0
LINE
  5
29C
330
18
100
AcDbEntity
  8
GUIDE
100
AcDbLine
 10
45.0
 20
111.269257
 30
0.0
 11
76.169257
 21
85.09999999999999
 31
0.0
  0
LINE
  5
29D
330
18
100
AcDbEntity
  8
GUIDE
100
AcDbLine
 10
100.830743
 20
85.09999999999999
 30
0.0
 11
132.0
 21
111.269257
 31
0.0
  0
ARC
  5
29E
330
18
100
AcDbEntity
  8
GUIDE
100
AcDbCircle
 10
-123.3
 20
128.425
 30
0.0
 40
10.25
100
AcDbArc
 50
45.017042
 51
134.982958
  0
ARC
  5
29F
330
18
100
AcDbEntity
  8
GUIDE
100
AcDbCircle
 10
-34.8
 20
128.425
 30
0.0
 40
10.25
100
AcDbArc
 50
45.017042
 51
134.982958
  0
ARC
  5
2A0
330
18
100
AcDbEntity
  8
GUIDE
100
AcDbCircle
 10
53.7
 20
128.425
 30
0.0
 40
10.25
100
AcDbArc
 50
45.017042
 51
134.982958
  0
ARC
  5
2A1
330
18
100
AcDbEntity
  8
GUIDE
100
AcDbCircle
 10
123.3
 20
128.425
 30
0.0
 40
10.25
100
AcDbArc
 50
328.079275
 51
134.982958
  0
ARC
  5
2A2
330
18
100
AcDbEntity
  8
GUIDE
100
AcDbCircle
 10
-105.9
 20
128.425
 30
0.0
 40
10.25
100
AcDbArc
 50
45.017042
 51
134.982958
  0
ARC
  5
2A3
330
18
100
AcDbEntity
  8
GUIDE
100
AcDbCircle
 10
-88.5
 20
128.425
 30
0.0
 40
10.25
100
AcDbArc
 50
45.017042
 51
134.982958
  0
ARC
  5
2A4
330
18
100
AcDbEntity
  8
GUIDE
100
AcDbCircle
 10
-71.09999999999999
 20
128.425
 30
0.0
 40
10.25
100
AcDbArc
 50
45.017042
 51
134.982958
  0
ARC
  5
2A5
330
18
100
AcDbEntity
  8
GUIDE
100
AcDbCircle
 10
-17.4
 20
128.425
 30
0.0
 40
10.25
100
AcDbArc
 50
45.017042
 51
134.982958
  0
ARC
  5
2A6
330
18
100
AcDbEntity
  8
GUIDE
100
AcDbCircle
 10
0.0
 20
128.425
 30
0.0
 40
10.25
100
AcDbArc
 50
45.017042
 51
134.982958
  0
ARC
  5
2A7
330
18
100
AcDbEntity
  8
GUIDE
100
AcDbCircle
 10
17.4
 20
128.425
 30
0.0
 40
10.25
100
AcDbArc
 50
45.017042
 51
134.982958
  0
ARC
  5
2A8
330
18
100
AcDbEntity
  8
GUIDE
100
AcDbCircle
 10
71.09999999999999
 20
128.425
 30
0.0
 40
10.25
100
AcDbArc
 50
45.017042
 51
134.982958
  0
ARC
  5
2A9
330
18
100
AcDbEntity
  8
GUIDE
100
AcDbCircle
 10
88.5
 20
128.425
 30
0.0
 40
10.25
100
AcDbArc
 50
45.017042
 51
134.982958
  0
ARC
  5
2AA
330
18
100
AcDbEntity
  8
GUIDE
100
AcDbCircle
 10
105.9
 20
128.425
 30
0.0
 40
10.25
100
AcDbArc
 50
45.017042
 51
134.982958
  0
ARC
  5
2AB
330
18
100
AcDbEntity
  8
GUIDE
100
AcDbCircle
 10
34.8
 20
128.425
 30
0.0
 40
10.25
100
AcDbArc
 50
45.017042
 51
134.982958
  0
ARC
  5
2AC
330
18
100
AcDbEntity
  8
GUIDE
100
AcDbCircle
 10
-53.7
 20
128.425
 30
0.0
 40
10.25
100
AcDbArc
 50
45.017042
 51
134.982958
  0
ARC
  5
2AD
330
18
100
AcDbEntity
  8
GUIDE
100
AcDbCircle
 10
-123.3
 20
128.425
 30
0.0
 40
10.25
100
AcDbArc
 50
148.079275
 51
211.920725
  0
CIRCLE
  5
2AE
330
18
100
AcDbEntity
  8
GUIDE
100
AcDbCircle
 10
-88.5
 20
94.325
 30
0.0
 40
3.175
  0
CIRCLE
  5
2AF
330
18
100
AcDbEntity
  8
GUIDE
100
AcDbCircle
 10
0.0
 20
94.325
 30
0.0
 40
3.175
  0
CIRCLE
  5
2B0
330
18
100
AcDbEntity
  8
GUIDE
100
AcDbCircle
 10
88.5
 20
94.325
 30
0.0
 40
3.175
  0
LINE
  5
2B1
330
18
100
AcDbEntity
  8
GUIDE
100
AcDbLine
 10
45.0
 20
113.5
 30
0.0
 11
132.0
 21
113.5
 31
0.0
  0
LINE
  5
2B2
330
18
100
AcDbEntity
  8
GUIDE
100
AcDbLine
 10
45.0
 20
135.675
 30
0.0
 11
132.0
 21
135.675
 31
0.0
  0
ARC
  5
2B3
330
18
100
AcDbEntity
  8
GUIDE
100
AcDbCircle
 10
44.25
 20
128.472128
 30
0.0
 40
0.75
100
AcDbArc
 50
180.0
 51
0.0
  0
ARC
  5
2B4
330
18
100
AcDbEntity
  8
GUIDE
100
AcDbCircle
 10
44.25
 20
118.472128
 30
0.0
 40
0.75
100
AcDbArc
 50
0.0
 51
180.0
  0
LINE
  5
2B5
330
18
100
AcDbEntity
  8
GUIDE
100
AcDbLine
 10
43.5
 20
128.472128
 30
0.0
 11
43.5
 21
135.675
 31
0.0
  0
LINE
  5
2B6
330
18
100
AcDbEntity
  8
GUIDE
100
AcDbLine
 10
45.0
 20
128.472128
 30
0.0
 11
45.0
 21
135.675
 31
0.0
  0
LINE
  5
2B7
330
18
100
AcDbEntity
  8
GUIDE
100
AcDbLine
 10
-43.5
 20
113.5
 30
0.0
 11
43.5
 21
113.5
 31
0.0
  0
LINE
  5
2B8
330
18
100
AcDbEntity
  8
GUIDE
100
AcDbLine
 10
-43.5
 20
135.675
 30
0.0
 11
43.5
 21
135.675
 31
0.0
  0
ARC
  5
2B9
330
18
100
AcDbEntity
  8
GUIDE
100
AcDbCircle
 10
-44.25
 20
118.472128
 30
0.0
 40
0.75
100
AcDbArc
 50
0.0
 51
180.0
  0
ARC
  5
2BA
330
18
100
AcDbEntity
  8
GUIDE
100
AcDbCircle
 10
-44.25
 20
128.472128
 30
0.0
 40
0.75
100
AcDbArc
 50
180.0
 51
0.0
  0
LINE
  5
2BB
330
18
100
AcDbEntity
  8
GUIDE
100
AcDbLine
 10
-45.0
 20
118.472128
 30
0.0
 11
-45.0
 21
111.269257
 31
0.0
  0
LINE
  5
2BC
330
18
100
AcDbEntity
  8
GUIDE
100
AcDbLine
 10
-43.5
 20
118.472128
 30
0.0
 11
-43.5
 21
111.269257
 31
0.0
  0
LINE
  5
2BD
330
18
100
AcDbEntity
  8
GUIDE
100
AcDbLine
 10
-132.0
 20
7.5
 30
0.0
 11
-132.0
 21
12.5
 31
0.0
  0
LINE
  5
2BE
330
18
100
AcDbEntity
  8
GUIDE
100
AcDbLine
 10
-45.0
 20
12.5
 30
0.0
 11
-132.0
 21
12.5
 31
0.0
  0
LINE
  5
2BF
330
18
100
AcDbEntity
  8
GUIDE
100
AcDbLine
 10
-45.0
 20
42.6
 30
0.0
 11
-132.0
 21
42.6
 31
0.0
  0
LINE
  5
2C0
330
18
100
AcDbEntity
  8
GUIDE
100
AcDbLine
 10
-46.3625
 20
49.6
 30
0.0
 11
-130.6375
 21
49.6
 31
0.0
  0
LINE
  5
2C1
330
18
100
AcDbEntity
  8
GUIDE
100
AcDbLine
 10
-46.3625
 20
5.5
 30
0.0
 11
-130.6375
 21
5.5
 31
0.0
  0
LINE
  5
2C2
330
18
100
AcDbEntity
  8
GUIDE
100
AcDbLine
 10
-49.0
 20
55.1
 30
0.0
 11
-128.0
 21
55.1
 31
0.0
  0
LINE
  5
2C3
330
18
100
AcDbEntity
  8
GUIDE
100
AcDbLine
 10
-49.0
 20
0.0
 30
0.0
 11
-128.0
 21
0.0
 31
0.0
  0
LINE
  5
2C4
330
18
100
AcDbEntity
  8
GUIDE
100
AcDbLine
 10
-45.0
 20
7.5
 30
0.0
 11
-45.0
 21
12.5
 31
0.0
  0
LINE
  5
2C5
330
18
100
AcDbEntity
  8
GUIDE
100
AcDbLine
 10
-45.0
 20
42.6
 30
0.0
 11
-45.0
 21
47.6
 31
0.0
  0
LINE
  5
2C6
330
18
100
AcDbEntity
  8
GUIDE
100
AcDbLine
 10
-132.0
 20
42.6
 30
0.0
 11
-132.0
 21
47.6
 31
0.0
  0
LINE
  5
2C7
330
18
100
AcDbEntity
  8
GUIDE
100
AcDbLine
 10
-130.0
 20
53.1
 30
0.0
 11
-130.0
 21
51.064102
 31
0.0
  0
ARC
  5
2C8
330
18
100
AcDbEntity
  8
GUIDE
100
AcDbCircle
 10
-130.0
 20
47.6
 30
0.0
 40
2.0
100
AcDbArc
 50
120.0
 51
180.0
  0
ARC
  5
2C9
330
18
100
AcDbEntity
  8
GUIDE
100
AcDbCircle
 10
-128.0
 20
53.1
 30
0.0
 40
2.0
100
AcDbArc
 50
90.0
 51
180.0
  0
ARC
  5
2CA
330
18
100
AcDbEntity
  8
GUIDE
100
AcDbCircle
 10
-132.0
 20
51.064102
 30
0.0
 40
2.0
100
AcDbArc
 50
300.0
 51
0.0
  0
ARC
  5
2CB
330
18
100
AcDbEntity
  8
GUIDE
100
AcDbCircle
 10
-45.0
 20
51.064102
 30
0.0
 40
2.0
100
AcDbArc
 50
180.0
 51
240.0
  0
ARC
  5
2CC
330
18
100
AcDbEntity
  8
GUIDE
100
AcDbCircle
 10
-47.0
 20
47.6
 30
0.0
 40
2.0
100
AcDbArc
 50
360.0
 51
59.99999999999999
  0
LINE
  5
2CD
330
18
100
AcDbEntity
  8
GUIDE
100
AcDbLine
 10
-47.0
 20
53.1
 30
0.0
 11
-47.0
 21
51.064102
 31
0.0
  0
ARC
  5
2CE
330
18
100
AcDbEntity
  8
GUIDE
100
AcDbCircle
 10
-49.0
 20
53.1
 30
0.0
 40
2.0
100
AcDbArc
 50
0.0
 51
90.0
  0
ARC
  5
2CF
330
18
100
AcDbEntity
  8
GUIDE
100
AcDbCircle
 10
-132.0
 20
4.035898
 30
0.0
 40
2.0
100
AcDbArc
 50
0.0
 51
59.99999999999999
  0
ARC
  5
2D0
330
18
100
AcDbEntity
  8
GUIDE
100
AcDbCircle
 10
-130.0
 20
7.5
 30
0.0
 40
2.0
100
AcDbArc
 50
180.0
 51
240.0
  0
LINE
  5
2D1
330
18
100
AcDbEntity
  8
GUIDE
100
AcDbLine
 10
-130.0
 20
2.0
 30
0.0
 11
-130.0
 21
4.035898
 31
0.0
  0
ARC
  5
2D2
330
18
100
AcDbEntity
  8
GUIDE
100
AcDbCircle
 10
-128.0
 20
2.0
 30
0.0
 40
2.0
100
AcDbArc
 50
180.0
 51
270.0
  0
ARC
  5
2D3
330
18
100
AcDbEntity
  8
GUIDE
100
AcDbCircle
 10
-45.0
 20
4.035898
 30
0.0
 40
2.0
100
AcDbArc
 50
120.0
 51
180.0
  0
ARC
  5
2D4
330
18
100
AcDbEntity
  8
GUIDE
100
AcDbCircle
 10
-47.0
 20
7.5
 30
0.0
 40
2.0
100
AcDbArc
 50
300.0
 51
0.0
  0
ARC
  5
2D5
330
18
100
AcDbEntity
  8
GUIDE
100
AcDbCircle
 10
-49.0
 20
2.0
 30
0.0
 40
2.0
100
AcDbArc
 50
270.0
 51
0.0
  0
LINE
  5
2D6
330
18
100
AcDbEntity
  8
GUIDE
100
AcDbLine
 10
-47.0
 20
2.0
 30
0.0
 11
-47.0
 21
4.035898
 31
0.0
  0
LINE
  5
2D7
330
18
100
AcDbEntity
  8
GUIDE
100
AcDbLine
 10
-42.1375
 20
49.6
 30
0.0
 11
42.1375
 21
49.6
 31
0.0
  0
LINE
  5
2D8
330
18
100
AcDbEntity
  8
GUIDE
100
AcDbLine
 10
-39.5
 20
55.1
 30
0.0
 11
39.5
 21
55.1
 31
0.0
  0
ARC
  5
2D9
330
18
100
AcDbEntity
  8
GUIDE
100
AcDbCircle
 10
39.5
 20
53.1
 30
0.0
 40
2.0
100
AcDbArc
 50
0.0
 51
90.0
  0
LINE
  5
2DA
330
18
100
AcDbEntity
  8
GUIDE
100
AcDbLine
 10
43.5
 20
42.6
 30
0.0
 11
43.5
 21
47.6
 31
0.0
  0
LINE
  5
2DB
330
18
100
AcDbEntity
  8
GUIDE
100
AcDbLine
 10
-43.5
 20
42.6
 30
0.0
 11
43.5
 21
42.6
 31
0.0
  0
ARC
  5
2DC
330
18
100
AcDbEntity
  8
GUIDE
100
AcDbCircle
 10
43.5
 20
51.064102
 30
0.0
 40
2.0
100
AcDbArc
 50
180.0
 51
240.0
  0
ARC
  5
2DD
330
18
100
AcDbEntity
  8
GUIDE
100
AcDbCircle
 10
41.5
 20
47.6
 30
0.0
 40
2.0
100
AcDbArc
 50
360.0
 51
59.99999999999999
  0
ARC
  5
2DE
330
18
100
AcDbEntity
  8
GUIDE
100
AcDbCircle
 10
-43.5
 20
51.064102
 30
0.0
 40
2.0
100
AcDbArc
 50
300.0
 51
0.0
  0
LINE
  5
2DF
330
18
100
AcDbEntity
  8
GUIDE
100
AcDbLine
 10
-43.5
 20
42.6
 30
0.0
 11
-43.5
 21
47.6
 31
0.0
  0
ARC
  5
2E0
330
18
100
AcDbEntity
  8
GUIDE
100
AcDbCircle
 10
-41.5
 20
47.6
 30
0.0
 40
2.0
100
AcDbArc
 50
120.0
 51
180.0
  0
LINE
  5
2E1
330
18
100
AcDbEntity
  8
GUIDE
100
AcDbLine
 10
-42.1375
 20
5.5
 30
0.0
 11
42.1375
 21
5.5
 31
0.0
  0
LINE
  5
2E2
330
18
100
AcDbEntity
  8
GUIDE
100
AcDbLine
 10
-39.5
 20
0.0
 30
0.0
 11
39.5
 21
0.0
 31
0.0
  0
LINE
  5
2E3
330
18
100
AcDbEntity
  8
GUIDE
100
AcDbLine
 10
-43.5
 20
12.5
 30
0.0
 11
43.5
 21
12.5
 31
0.0
  0
LINE
  5
2E4
330
18
100
AcDbEntity
  8
GUIDE
100
AcDbLine
 10
41.5
 20
2.0
 30
0.0
 11
41.5
 21
4.035898
 31
0.0
  0
ARC
  5
2E5
330
18
100
AcDbEntity
  8
GUIDE
100
AcDbCircle
 10
39.5
 20
2.0
 30
0.0
 40
2.0
100
AcDbArc
 50
270.0
 51
0.0
  0
ARC
  5
2E6
330
18
100
AcDbEntity
  8
GUIDE
100
AcDbCircle
 10
41.5
 20
7.5
 30
0.0
 40
2.0
100
AcDbArc
 50
300.0
 51
0.0
  0
LINE
  5
2E7
330
18
100
AcDbEntity
  8
GUIDE
100
AcDbLine
 10
43.5
 20
7.5
 30
0.0
 11
43.5
 21
12.5
 31
0.0
  0
ARC
  5
2E8
330
18
100
AcDbEntity
  8
GUIDE
100
AcDbCircle
 10
43.5
 20
4.035898
 30
0.0
 40
2.0
100
AcDbArc
 50
120.0
 51
180.0
  0
LINE
  5
2E9
330
18
100
AcDbEntity
  8
GUIDE
100
AcDbLine
 10
-41.5
 20
2.0
 30
0.0
 11
-41.5
 21
4.035898
 31
0.0
  0
ARC
  5
2EA
330
18
100
AcDbEntity
  8
GUIDE
100
AcDbCircle
 10
-39.5
 20
2.0
 30
0.0
 40
2.0
100
AcDbArc
 50
180.0
 51
270.0
  0
LINE
  5
2EB
330
18
100
AcDbEntity
  8
GUIDE
100
AcDbLine
 10
-43.5
 20
7.5
 30
0.0
 11
-43.5
 21
12.5
 31
0.0
  0
ARC
  5
2EC
330
18
100
AcDbEntity
  8
GUIDE
100
AcDbCircle
 10
-41.5
 20
7.5
 30
0.0
 40
2.0
100
AcDbArc
 50
180.0
 51
240.0
  0
ARC
  5
2ED
330
18
100
AcDbEntity
  8
GUIDE
100
AcDbCircle
 10
-43.5
 20
4.035898
 30
0.0
 40
2.0
100
AcDbArc
 50
0.0
 51
59.99999999999999
  0
LINE
  5
2EE
330
18
100
AcDbEntity
  8
GUIDE
100
AcDbLine
 10
-45.0
 20
42.6
 30
0.0
 11
-43.5
 21
42.6
 31
0.0
  0
LINE
  5
2EF
330
18
100
AcDbEntity
  8
GUIDE
100
AcDbLine
 10
-46.3625
 20
49.6
 30
0.0
 11
-42.1375
 21
49.6
 31
0.0
  0
ARC
  5
2F0
330
18
100
AcDbEntity
  8
GUIDE
100
AcDbCircle
 10
-39.5
 20
53.1
 30
0.0
 40
2.0
100
AcDbArc
 50
90.0
 51
180.0
  0
LINE
  5
2F1
330
18
100
AcDbEntity
  8
GUIDE
100
AcDbLine
 10
-41.5
 20
53.1
 30
0.0
 11
-41.5
 21
51.064102
 31
0.0
  0
LINE
  5
2F2
330
18
100
AcDbEntity
  8
GUIDE
100
AcDbLine
 10
41.5
 20
53.1
 30
0.0
 11
41.5
 21
51.064102
 31
0.0
  0
LINE
  5
2F3
330
18
100
AcDbEntity
  8
GUIDE
100
AcDbLine
 10
-45.0
 20
12.5
 30
0.0
 11
-43.5
 21
12.5
 31
0.0
  0
LINE
  5
2F4
330
18
100
AcDbEntity
  8
GUIDE
100
AcDbLine
 10
-46.3625
 20
5.5
 30
0.0
 11
-42.1375
 21
5.5
 31
0.0
  0
LINE
  5
2F5
330
18
100
AcDbEntity
  8
GUIDE
100
AcDbLine
 10
132.0
 20
12.5
 30
0.0
 11
45.0
 21
12.5
 31
0.0
  0
LINE
  5
2F6
330
18
100
AcDbEntity
  8
GUIDE
100
AcDbLine
 10
128.0
 20
0.0
 30
0.0
 11
49.0
 21
0.0
 31
0.0
  0
LINE
  5
2F7
330
18
100
AcDbEntity
  8
GUIDE
100
AcDbLine
 10
130.6375
 20
5.5
 30
0.0
 11
46.3625
 21
5.5
 31
0.0
  0
LINE
  5
2F8
330
18
100
AcDbEntity
  8
GUIDE
100
AcDbLine
 10
132.0
 20
42.6
 30
0.0
 11
45.0
 21
42.6
 31
0.0
  0
LINE
  5
2F9
330
18
100
AcDbEntity
  8
GUIDE
100
AcDbLine
 10
128.0
 20
55.1
 30
0.0
 11
49.0
 21
55.1
 31
0.0
  0
LINE
  5
2FA
330
18
100
AcDbEntity
  8
GUIDE
100
AcDbLine
 10
130.6375
 20
49.6
 30
0.0
 11
46.3625
 21
49.6
 31
0.0
  0
LINE
  5
2FB
330
18
100
AcDbEntity
  8
GUIDE
100
AcDbLine
 10
132.0
 20
42.6
 30
0.0
 11
132.0
 21
47.6
 31
0.0
  0
ARC
  5
2FC
330
18
100
AcDbEntity
  8
GUIDE
100
AcDbCircle
 10
128.0
 20
53.1
 30
0.0
 40
2.0
100
AcDbArc
 50
0.0
 51
90.0
  0
ARC
  5
2FD
330
18
100
AcDbEntity
  8
GUIDE
100
AcDbCircle
 10
130.0
 20
47.6
 30
0.0
 40
2.0
100
AcDbArc
 50
360.0
 51
59.99999999999999
  0
ARC
  5
2FE
330
18
100
AcDbEntity
  8
GUIDE
100
AcDbCircle
 10
132.0
 20
51.064102
 30
0.0
 40
2.0
100
AcDbArc
 50
180.0
 51
240.0
  0
LINE
  5
2FF
330
18
100
AcDbEntity
  8
GUIDE
100
AcDbLine
 10
130.0
 20
53.1
 30
0.0
 11
130.0
 21
51.064102
 31
0.0
  0
LINE
  5
300
330
18
100
AcDbEntity
  8
GUIDE
100
AcDbLine
 10
132.0
 20
7.5
 30
0.0
 11
132.0
 21
12.5
 31
0.0
  0
ARC
  5
301
330
18
100
AcDbEntity
  8
GUIDE
100
AcDbCircle
 10
128.0
 20
2.0
 30
0.0
 40
2.0
100
AcDbArc
 50
270.0
 51
0.0
  0
ARC
  5
302
330
18
100
AcDbEntity
  8
GUIDE
100
AcDbCircle
 10
132.0
 20
4.035898
 30
0.0
 40
2.0
100
AcDbArc
 50
120.0
 51
180.0
  0
ARC
  5
303
330
18
100
AcDbEntity
  8
GUIDE
100
AcDbCircle
 10
130.0
 20
7.5
 30
0.0
 40
2.0
100
AcDbArc
 50
300.0
 51
0.0
  0
LINE
  5
304
330
18
100
AcDbEntity
  8
GUIDE
100
AcDbLine
 10
130.0
 20
2.0
 30
0.0
 11
130.0
 21
4.035898
 31
0.0
  0
LINE
  5
305
330
18
100
AcDbEntity
  8
GUIDE
100
AcDbLine
 10
45.0
 20
7.5
 30
0.0
 11
45.0
 21
12.5
 31
0.0
  0
ARC
  5
306
330
18
100
AcDbEntity
  8
GUIDE
100
AcDbCircle
 10
49.0
 20
2.0
 30
0.0
 40
2.0
100
AcDbArc
 50
180.0
 51
270.0
  0
ARC
  5
307
330
18
100
AcDbEntity
  8
GUIDE
100
AcDbCircle
 10
45.0
 20
4.035898
 30
0.0
 40
2.0
100
AcDbArc
 50
0.0
 51
59.99999999999999
  0
LINE
  5
308
330
18
100
AcDbEntity
  8
GUIDE
100
AcDbLine
 10
47.0
 20
2.0
 30
0.0
 11
47.0
 21
4.035898
 31
0.0
  0
ARC
  5
309
330
18
100
AcDbEntity
  8
GUIDE
100
AcDbCircle
 10
47.0
 20
7.5
 30
0.0
 40
2.0
100
AcDbArc
 50
180.0
 51
240.0
  0
LINE
  5
30A
330
18
100
AcDbEntity
  8
GUIDE
100
AcDbLine
 10
45.0
 20
42.6
 30
0.0
 11
45.0
 21
47.6
 31
0.0
  0
ARC
  5
30B
330
18
100
AcDbEntity
  8
GUIDE
100
AcDbCircle
 10
49.0
 20
53.1
 30
0.0
 40
2.0
100
AcDbArc
 50
90.0
 51
180.0
  0
ARC
  5
30C
330
18
100
AcDbEntity
  8
GUIDE
100
AcDbCircle
 10
45.0
 20
51.064102
 30
0.0
 40
2.0
100
AcDbArc
 50
300.0
 51
0.0
  0
ARC
  5
30D
330
18
100
AcDbEntity
  8
GUIDE
100
AcDbCircle
 10
47.0
 20
47.6
 30
0.0
 40
2.0
100
AcDbArc
 50
120.0
 51
180.0
  0
LINE
  5
30E
330
18
100
AcDbEntity
  8
GUIDE
100
AcDbLine
 10
47.0
 20
53.1
 30
0.0
 11
47.0
 21
51.064102
 31
0.0
  0
LINE
  5
30F
330
18
100
AcDbEntity
  8
GUIDE
100
AcDbLine
 10
42.1375
 20
49.6
 30
0.0
 11
46.3625
 21
49.6
 31
0.0
  0
LINE
  5
310
330
18
100
AcDbEntity
  8
GUIDE
100
AcDbLine
 10
43.5
 20
42.6
 30
0.0
 11
45.0
 21
42.6
 31
0.0
  0
LINE
  5
311
330
18
100
AcDbEntity
  8
GUIDE
100
AcDbLine
 10
43.5
 20
12.5
 30
0.0
 11
45.0
 21
12.5
 31
0.0
  0
LINE
  5
312
330
18
100
AcDbEntity
  8
GUIDE
100
AcDbLine
 10
42.1375
 20
5.5
 30
0.0
 11
46.3625
 21
5.5
 31
0.0
  0
LINE
  5
313
330
18
100
AcDbEntity
  8
GUIDE
100
AcDbLine
 10
-59.2
 20
40.8
 30
0.0
 11
-59.2
 21
25.3
 31
0.0
  0
LINE
  5
314
330
18
100
AcDbEntity
  8
GUIDE
100
AcDbLine
 10
-59.2
 20
25.3
 30
0.0
 11
-48.2
 21
25.3
 31
0.0
  0
LINE
  5
315
330
18
100
AcDbEntity
  8
GUIDE
100
AcDbLine
 10
-48.2
 20
25.3
 30
0.0
 11
-48.2
 21
40.8
 31
0.0
  0
LINE
  5
316
330
18
100
AcDbEntity
  8
GUIDE
100
AcDbLine
 10
-48.2
 20
40.8
 30
0.0
 11
-59.2
 21
40.8
 31
0.0
  0
LINE
  5
317
330
18
100
AcDbEntity
  8
GUIDE
100
AcDbLine
 10
-63.95
 20
25.3
 30
0.0
 11
-63.95
 21
17.3
 31
0.0
  0
LINE
  5
318
330
18
100
AcDbEntity
  8
GUIDE
100
AcDbLine
 10
-63.95
 20
17.3
 30
0.0
 11
-43.45
 21
17.3
 31
0.0
  0
LINE
  5
319
330
18
100
AcDbEntity
  8
GUIDE
100
AcDbLine
 10
-43.45
 20
17.3
 30
0.0
 11
-43.45
 21
25.3
 31
0.0
  0
LINE
  5
31A
330
18
100
AcDbEntity
  8
GUIDE
100
AcDbLine
 10
-43.45
 20
25.3
 30
0.0
 11
-63.95
 21
25.3
 31
0.0
  0
LINE
  5
31B
330
18
100
AcDbEntity
  8
GUIDE
100
AcDbLine
 10
-56.7
 20
14.3
 30
0.0
 11
-56.7
 21
12.5
 31
0.0
  0
LINE
  5
31C
330
18
100
AcDbEntity
  8
GUIDE
100
AcDbLine
 10
-56.7
 20
12.5
 30
0.0
 11
-50.7
 21
12.5
 31
0.0
  0
LINE
  5
31D
330
18
100
AcDbEntity
  8
GUIDE
100
AcDbLine
 10
-50.7
 20
12.5
 30
0.0
 11
-50.7
 21
14.3
 31
0.0
  0
LINE
  5
31E
330
18
100
AcDbEntity
  8
GUIDE
100
AcDbLine
 10
-50.7
 20
14.3
 30
0.0
 11
-56.7
 21
14.3
 31
0.0
  0
LINE
  5
31F
330
18
100
AcDbEntity
  8
GUIDE
100
AcDbLine
 10
-59.2
 20
17.3
 30
0.0
 11
-59.2
 21
14.3
 31
0.0
  0
LINE
  5
320
330
18
100
AcDbEntity
  8
GUIDE
100
AcDbLine
 10
-59.2
 20
14.3
 30
0.0
 11
-48.2
 21
14.3
 31
0.0
  0
LINE
  5
321
330
18
100
AcDbEntity
  8
GUIDE
100
AcDbLine
 10
-48.2
 20
14.3
 30
0.0
 11
-48.2
 21
17.3
 31
0.0
  0
LINE
  5
322
330
18
100
AcDbEntity
  8
GUIDE
100
AcDbLine
 10
-48.2
 20
17.3
 30
0.0
 11
-59.2
 21
17.3
 31
0.0
  0
LINE
  5
323
330
18
100
AcDbEntity
  8
GUIDE
100
AcDbLine
 10
-56.7
 20
42.6
 30
0.0
 11
-56.7
 21
40.8
 31
0.0
  0
LINE
  5
324
330
18
100
AcDbEntity
  8
GUIDE
100
AcDbLine
 10
-56.7
 20
40.8
 30
0.0
 11
-50.7
 21
40.8
 31
0.0
  0
LINE
  5
325
330
18
100
AcDbEntity
  8
GUIDE
100
AcDbLine
 10
-50.7
 20
40.8
 30
0.0
 11
-50.7
 21
42.6
 31
0.0
  0
LINE
  5
326
330
18
100
AcDbEntity
  8
GUIDE
100
AcDbLine
 10
-50.7
 20
42.6
 30
0.0
 11
-56.7
 21
42.6
 31
0.0
  0
LINE
  5
327
330
18
100
AcDbEntity
  8
GUIDE
100
AcDbLine
 10
-128.8
 20
40.8
 30
0.0
 11
-128.8
 21
25.3
 31
0.0
  0
LINE
  5
328
330
18
100
AcDbEntity
  8
GUIDE
100
AcDbLine
 10
-128.8
 20
25.3
 30
0.0
 11
-117.8
 21
25.3
 31
0.0
  0
LINE
  5
329
330
18
100
AcDbEntity
  8
GUIDE
100
AcDbLine
 10
-117.8
 20
25.3
 30
0.0
 11
-117.8
 21
40.8
 31
0.0
  0
LINE
  5
32A
330
18
100
AcDbEntity
  8
GUIDE
100
AcDbLine
 10
-117.8
 20
40.8
 30
0.0
 11
-128.8
 21
40.8
 31
0.0
  0
LINE
  5
32B
330
18
100
AcDbEntity
  8
GUIDE
100
AcDbLine
 10
-133.55
 20
25.3
 30
0.0
 11
-133.55
 21
17.3
 31
0.0
  0
LINE
  5
32C
330
18
100
AcDbEntity
  8
GUIDE
100
AcDbLine
 10
-133.55
 20
17.3
 30
0.0
 11
-113.05
 21
17.3
 31
0.0
  0
LINE
  5
32D
330
18
100
AcDbEntity
  8
GUIDE
100
AcDbLine
 10
-113.05
 20
17.3
 30
0.0
 11
-113.05
 21
25.3
 31
0.0
  0
LINE
  5
32E
330
18
100
AcDbEntity
  8
GUIDE
100
AcDbLine
 10
-113.05
 20
25.3
 30
0.0
 11
-133.55
 21
25.3
 31
0.0
  0
LINE
  5
32F
330
18
100
AcDbEntity
  8
GUIDE
100
AcDbLine
 10
-126.3
 20
14.3
 30
0.0
 11
-126.3
 21
12.5
 31
0.0
  0
LINE
  5
330
330
18
100
AcDbEntity
  8
GUIDE
100
AcDbLine
 10
-126.3
 20
12.5
 30
0.0
 11
-120.3
 21
12.5
 31
0.0
  0
LINE
  5
331
330
18
100
AcDbEntity
  8
GUIDE
100
AcDbLine
 10
-120.3
 20
12.5
 30
0.0
 11
-120.3
 21
14.3
 31
0.0
  0
LINE
  5
332
330
18
100
AcDbEntity
  8
GUIDE
100
AcDbLine
 10
-120.3
 20
14.3
 30
0.0
 11
-126.3
 21
14.3
 31
0.0
  0
LINE
  5
333
330
18
100
AcDbEntity
  8
GUIDE
100
AcDbLine
 10
-128.8
 20
17.3
 30
0.0
 11
-128.8
 21
14.3
 31
0.0
  0
LINE
  5
334
330
18
100
AcDbEntity
  8
GUIDE
100
AcDbLine
 10
-128.8
 20
14.3
 30
0.0
 11
-117.8
 21
14.3
 31
0.0
  0
LINE
  5
335
330
18
100
AcDbEntity
  8
GUIDE
100
AcDbLine
 10
-117.8
 20
14.3
 30
0.0
 11
-117.8
 21
17.3
 31
0.0
  0
LINE
  5
336
330
18
100
AcDbEntity
  8
GUIDE
100
AcDbLine
 10
-117.8
 20
17.3
 30
0.0
 11
-128.8
 21
17.3
 31
0.0
  0
LINE
  5
337
330
18
100
AcDbEntity
  8
GUIDE
100
AcDbLine
 10
-126.3
 20
42.6
 30
0.0
 11
-126.3
 21
40.8
 31
0.0
  0
LINE
  5
338
330
18
100
AcDbEntity
  8
GUIDE
100
AcDbLine
 10
-126.3
 20
40.8
 30
0.0
 11
-120.3
 21
40.8
 31
0.0
  0
LINE
  5
339
330
18
100
AcDbEntity
  8
GUIDE
100
AcDbLine
 10
-120.3
 20
40.8
 30
0.0
 11
-120.3
 21
42.6
 31
0.0
  0
LINE
  5
33A
330
18
100
AcDbEntity
  8
GUIDE
100
AcDbLine
 10
-120.3
 20
42.6
 30
0.0
 11
-126.3
 21
42.6
 31
0.0
  0
POLYLINE
  5
33B
330
18
100
AcDbEntity
  8
GUIDE
100
AcDb2dPolyline
 66
     1
 10
0.0
 20
0.0
 30
0.0
 70
     1
  0
VERTEX
  5
5C6
330
33B
100
AcDbEntity
  8
GUIDE
100
AcDbVertex
100
AcDb2dVertex
 10
-111.4
 20
14.3
 30
0.0
  0
VERTEX
  5
5C7
330
33B
100
AcDbEntity
  8
GUIDE
100
AcDbVertex
100
AcDb2dVertex
 10
-111.4
 20
29.8
 30
0.0
  0
VERTEX
  5
5C8
330
33B
100
AcDbEntity
  8
GUIDE
100
AcDbVertex
100
AcDb2dVertex
 10
-100.4
 20
29.8
 30
0.0
  0
VERTEX
  5
5C9
330
33B
100
AcDbEntity
  8
GUIDE
100
AcDbVertex
100
AcDb2dVertex
 10
-100.4
 20
14.3
 30
0.0
  0
SEQEND
  5
5C5
330
33B
100
AcDbEntity
  8
GUIDE
  0
POLYLINE
  5
341
330
18
100
AcDbEntity
  8
GUIDE
100
AcDb2dPolyline
 66
     1
 10
0.0
 20
0.0
 30
0.0
 70
     1
  0
VERTEX
  5
5CB
330
341
100
AcDbEntity
  8
GUIDE
100
AcDbVertex
100
AcDb2dVertex
 10
-116.15
 20
29.8
 30
0.0
  0
VERTEX
  5
5CC
330
341
100
AcDbEntity
  8
GUIDE
100
AcDbVertex
100
AcDb2dVertex
 10
-116.15
 20
37.8
 30
0.0
  0
VERTEX
  5
5CD
330
341
100
AcDbEntity
  8
GUIDE
100
AcDbVertex
100
AcDb2dVertex
 10
-95.65000000000001
 20
37.8
 30
0.0
  0
VERTEX
  5
5CE
330
341
100
AcDbEntity
  8
GUIDE
100
AcDbVertex
100
AcDb2dVertex
 10
-95.65000000000001
 20
29.8
 30
0.0
  0
SEQEND
  5
5CA
330
341
100
AcDbEntity
  8
GUIDE
  0
POLYLINE
  5
347
330
18
100
AcDbEntity
  8
GUIDE
100
AcDb2dPolyline
 66
     1
 10
0.0
 20
0.0
 30
0.0
 70
     1
  0
VERTEX
  5
5D0
330
347
100
AcDbEntity
  8
GUIDE
100
AcDbVertex
100
AcDb2dVertex
 10
-108.9
 20
40.8
 30
0.0
  0
VERTEX
  5
5D1
330
347
100
AcDbEntity
  8
GUIDE
100
AcDbVertex
100
AcDb2dVertex
 10
-108.9
 20
42.6
 30
0.0
  0
VERTEX
  5
5D2
330
347
100
AcDbEntity
  8
GUIDE
100
AcDbVertex
100
AcDb2dVertex
 10
-102.9
 20
42.6
 30
0.0
  0
VERTEX
  5
5D3
330
347
100
AcDbEntity
  8
GUIDE
100
AcDbVertex
100
AcDb2dVertex
 10
-102.9
 20
40.8
 30
0.0
  0
SEQEND
  5
5CF
330
347
100
AcDbEntity
  8
GUIDE
  0
POLYLINE
  5
34D
330
18
100
AcDbEntity
  8
GUIDE
100
AcDb2dPolyline
 66
     1
 10
0.0
 20
0.0
 30
0.0
 70
     1
  0
VERTEX
  5
5D5
330
34D
100
AcDbEntity
  8
GUIDE
100
AcDbVertex
100
AcDb2dVertex
 10
-111.4
 20
37.8
 30
0.0
  0
VERTEX
  5
5D6
330
34D
100
AcDbEntity
  8
GUIDE
100
AcDbVertex
100
AcDb2dVertex
 10
-111.4
 20
40.8
 30
0.0
  0
VERTEX
  5
5D7
330
34D
100
AcDbEntity
  8
GUIDE
100
AcDbVertex
100
AcDb2dVertex
 10
-100.4
 20
40.8
 30
0.0
  0
VERTEX
  5
5D8
330
34D
100
AcDbEntity
  8
GUIDE
100
AcDbVertex
100
AcDb2dVertex
 10
-100.4
 20
37.8
 30
0.0
  0
SEQEND
  5
5D4
330
34D
100
AcDbEntity
  8
GUIDE
  0
POLYLINE
  5
353
330
18
100
AcDbEntity
  8
GUIDE
100
AcDb2dPolyline
 66
     1
 10
0.0
 20
0.0
 30
0.0
 70
     1
  0
VERTEX
  5
5DA
330
353
100
AcDbEntity
  8
GUIDE
100
AcDbVertex
100
AcDb2dVertex
 10
-108.9
 20
12.5
 30
0.0
  0
VERTEX
  5
5DB
330
353
100
AcDbEntity
  8
GUIDE
100
AcDbVertex
100
AcDb2dVertex
 10
-108.9
 20
14.3
 30
0.0
  0
VERTEX
  5
5DC
330
353
100
AcDbEntity
  8
GUIDE
100
AcDbVertex
100
AcDb2dVertex
 10
-102.9
 20
14.3
 30
0.0
  0
VERTEX
  5
5DD
330
353
100
AcDbEntity
  8
GUIDE
100
AcDbVertex
100
AcDb2dVertex
 10
-102.9
 20
12.5
 30
0.0
  0
SEQEND
  5
5D9
330
353
100
AcDbEntity
  8
GUIDE
  0
POLYLINE
  5
359
330
18
100
AcDbEntity
  8
GUIDE
100
AcDb2dPolyline
 66
     1
 10
0.0
 20
0.0
 30
0.0
 70
     1
  0
VERTEX
  5
5DF
330
359
100
AcDbEntity
  8
GUIDE
100
AcDbVertex
100
AcDb2dVertex
 10
-76.59999999999999
 20
14.3
 30
0.0
  0
VERTEX
  5
5E0
330
359
100
AcDbEntity
  8
GUIDE
100
AcDbVertex
100
AcDb2dVertex
 10
-76.59999999999999
 20
29.8
 30
0.0
  0
VERTEX
  5
5E1
330
359
100
AcDbEntity
  8
GUIDE
100
AcDbVertex
100
AcDb2dVertex
 10
-65.59999999999999
 20
29.8
 30
0.0
  0
VERTEX
  5
5E2
330
359
100
AcDbEntity
  8
GUIDE
100
AcDbVertex
100
AcDb2dVertex
 10
-65.59999999999999
 20
14.3
 30
0.0
  0
SEQEND
  5
5DE
330
359
100
AcDbEntity
  8
GUIDE
  0
POLYLINE
  5
35F
330
18
100
AcDbEntity
  8
GUIDE
100
AcDb2dPolyline
 66
     1
 10
0.0
 20
0.0
 30
0.0
 70
     1
  0
VERTEX
  5
5E4
330
35F
100
AcDbEntity
  8
GUIDE
100
AcDbVertex
100
AcDb2dVertex
 10
-81.34999999999999
 20
29.8
 30
0.0
  0
VERTEX
  5
5E5
330
35F
100
AcDbEntity
  8
GUIDE
100
AcDbVertex
100
AcDb2dVertex
 10
-81.34999999999999
 20
37.8
 30
0.0
  0
VERTEX
  5
5E6
330
35F
100
AcDbEntity
  8
GUIDE
100
AcDbVertex
100
AcDb2dVertex
 10
-60.85
 20
37.8
 30
0.0
  0
VERTEX
  5
5E7
330
35F
100
AcDbEntity
  8
GUIDE
100
AcDbVertex
100
AcDb2dVertex
 10
-60.85
 20
29.8
 30
0.0
  0
SEQEND
  5
5E3
330
35F
100
AcDbEntity
  8
GUIDE
  0
POLYLINE
  5
365
330
18
100
AcDbEntity
  8
GUIDE
100
AcDb2dPolyline
 66
     1
 10
0.0
 20
0.0
 30
0.0
 70
     1
  0
VERTEX
  5
5E9
330
365
100
AcDbEntity
  8
GUIDE
100
AcDbVertex
100
AcDb2dVertex
 10
-74.09999999999999
 20
40.8
 30
0.0
  0
VERTEX
  5
5EA
330
365
100
AcDbEntity
  8
GUIDE
100
AcDbVertex
100
AcDb2dVertex
 10
-74.09999999999999
 20
42.6
 30
0.0
  0
VERTEX
  5
5EB
330
365
100
AcDbEntity
  8
GUIDE
100
AcDbVertex
100
AcDb2dVertex
 10
-68.09999999999999
 20
42.6
 30
0.0
  0
VERTEX
  5
5EC
330
365
100
AcDbEntity
  8
GUIDE
100
AcDbVertex
100
AcDb2dVertex
 10
-68.09999999999999
 20
40.8
 30
0.0
  0
SEQEND
  5
5E8
330
365
100
AcDbEntity
  8
GUIDE
  0
POLYLINE
  5
36B
330
18
100
AcDbEntity
  8
GUIDE
100
AcDb2dPolyline
 66
     1
 10
0.0
 20
0.0
 30
0.0
 70
     1
  0
VERTEX
  5
5EE
330
36B
100
AcDbEntity
  8
GUIDE
100
AcDbVertex
100
AcDb2dVertex
 10
-76.59999999999999
 20
37.8
 30
0.0
  0
VERTEX
  5
5EF
330
36B
100
AcDbEntity
  8
GUIDE
100
AcDbVertex
100
AcDb2dVertex
 10
-76.59999999999999
 20
40.8
 30
0.0
  0
VERTEX
  5
5F0
330
36B
100
AcDbEntity
  8
GUIDE
100
AcDbVertex
100
AcDb2dVertex
 10
-65.59999999999999
 20
40.8
 30
0.0
  0
VERTEX
  5
5F1
330
36B
100
AcDbEntity
  8
GUIDE
100
AcDbVertex
100
AcDb2dVertex
 10
-65.59999999999999
 20
37.8
 30
0.0
  0
SEQEND
  5
5ED
330
36B
100
AcDbEntity
  8
GUIDE
  0
POLYLINE
  5
371
330
18
100
AcDbEntity
  8
GUIDE
100
AcDb2dPolyline
 66
     1
 10
0.0
 20
0.0
 30
0.0
 70
     1
  0
VERTEX
  5
5F3
330
371
100
AcDbEntity
  8
GUIDE
100
AcDbVertex
100
AcDb2dVertex
 10
-74.09999999999999
 20
12.5
 30
0.0
  0
VERTEX
  5
5F4
330
371
100
AcDbEntity
  8
GUIDE
100
AcDbVertex
100
AcDb2dVertex
 10
-74.09999999999999
 20
14.3
 30
0.0
  0
VERTEX
  5
5F5
330
371
100
AcDbEntity
  8
GUIDE
100
AcDbVertex
100
AcDb2dVertex
 10
-68.09999999999999
 20
14.3
 30
0.0
  0
VERTEX
  5
5F6
330
371
100
AcDbEntity
  8
GUIDE
100
AcDbVertex
100
AcDb2dVertex
 10
-68.09999999999999
 20
12.5
 30
0.0
  0
SEQEND
  5
5F2
330
371
100
AcDbEntity
  8
GUIDE
  0
LINE
  5
377
330
18
100
AcDbEntity
  8
GUIDE
100
AcDbLine
 10
-94.0
 20
40.8
 30
0.0
 11
-94.0
 21
25.3
 31
0.0
  0
LINE
  5
378
330
18
100
AcDbEntity
  8
GUIDE
100
AcDbLine
 10
-94.0
 20
25.3
 30
0.0
 11
-83.0
 21
25.3
 31
0.0
  0
LINE
  5
379
330
18
100
AcDbEntity
  8
GUIDE
100
AcDbLine
 10
-83.0
 20
25.3
 30
0.0
 11
-83.0
 21
40.8
 31
0.0
  0
LINE
  5
37A
330
18
100
AcDbEntity
  8
GUIDE
100
AcDbLine
 10
-83.0
 20
40.8
 30
0.0
 11
-94.0
 21
40.8
 31
0.0
  0
LINE
  5
37B
330
18
100
AcDbEntity
  8
GUIDE
100
AcDbLine
 10
-98.75
 20
25.3
 30
0.0
 11
-98.75
 21
17.3
 31
0.0
  0
LINE
  5
37C
330
18
100
AcDbEntity
  8
GUIDE
100
AcDbLine
 10
-98.75
 20
17.3
 30
0.0
 11
-78.25
 21
17.3
 31
0.0
  0
LINE
  5
37D
330
18
100
AcDbEntity
  8
GUIDE
100
AcDbLine
 10
-78.25
 20
17.3
 30
0.0
 11
-78.25
 21
25.3
 31
0.0
  0
LINE
  5
37E
330
18
100
AcDbEntity
  8
GUIDE
100
AcDbLine
 10
-78.25
 20
25.3
 30
0.0
 11
-98.75
 21
25.3
 31
0.0
  0
LINE
  5
37F
330
18
100
AcDbEntity
  8
GUIDE
100
AcDbLine
 10
-91.5
 20
14.3
 30
0.0
 11
-91.5
 21
12.5
 31
0.0
  0
LINE
  5
380
330
18
100
AcDbEntity
  8
GUIDE
100
AcDbLine
 10
-91.5
 20
12.5
 30
0.0
 11
-85.5
 21
12.5
 31
0.0
  0
LINE
  5
381
330
18
100
AcDbEntity
  8
GUIDE
100
AcDbLine
 10
-85.5
 20
12.5
 30
0.0
 11
-85.5
 21
14.3
 31
0.0
  0
LINE
  5
382
330
18
100
AcDbEntity
  8
GUIDE
100
AcDbLine
 10
-85.5
 20
14.3
 30
0.0
 11
-91.5
 21
14.3
 31
0.0
  0
LINE
  5
383
330
18
100
AcDbEntity
  8
GUIDE
100
AcDbLine
 10
-94.0
 20
17.3
 30
0.0
 11
-94.0
 21
14.3
 31
0.0
  0
LINE
  5
384
330
18
100
AcDbEntity
  8
GUIDE
100
AcDbLine
 10
-94.0
 20
14.3
 30
0.0
 11
-83.0
 21
14.3
 31
0.0
  0
LINE
  5
385
330
18
100
AcDbEntity
  8
GUIDE
100
AcDbLine
 10
-83.0
 20
14.3
 30
0.0
 11
-83.0
 21
17.3
 31
0.0
  0
LINE
  5
386
330
18
100
AcDbEntity
  8
GUIDE
100
AcDbLine
 10
-83.0
 20
17.3
 30
0.0
 11
-94.0
 21
17.3
 31
0.0
  0
LINE
  5
387
330
18
100
AcDbEntity
  8
GUIDE
100
AcDbLine
 10
-91.5
 20
42.6
 30
0.0
 11
-91.5
 21
40.8
 31
0.0
  0
LINE
  5
388
330
18
100
AcDbEntity
  8
GUIDE
100
AcDbLine
 10
-91.5
 20
40.8
 30
0.0
 11
-85.5
 21
40.8
 31
0.0
  0
LINE
  5
389
330
18
100
AcDbEntity
  8
GUIDE
100
AcDbLine
 10
-85.5
 20
40.8
 30
0.0
 11
-85.5
 21
42.6
 31
0.0
  0
LINE
  5
38A
330
18
100
AcDbEntity
  8
GUIDE
100
AcDbLine
 10
-85.5
 20
42.6
 30
0.0
 11
-91.5
 21
42.6
 31
0.0
  0
LINE
  5
38B
330
18
100
AcDbEntity
  8
GUIDE
100
AcDbLine
 10
48.2
 20
40.8
 30
0.0
 11
48.2
 21
25.3
 31
0.0
  0
LINE
  5
38C
330
18
100
AcDbEntity
  8
GUIDE
100
AcDbLine
 10
48.2
 20
25.3
 30
0.0
 11
59.2
 21
25.3
 31
0.0
  0
LINE
  5
38D
330
18
100
AcDbEntity
  8
GUIDE
100
AcDbLine
 10
59.2
 20
25.3
 30
0.0
 11
59.2
 21
40.8
 31
0.0
  0
LINE
  5
38E
330
18
100
AcDbEntity
  8
GUIDE
100
AcDbLine
 10
59.2
 20
40.8
 30
0.0
 11
48.2
 21
40.8
 31
0.0
  0
LINE
  5
38F
330
18
100
AcDbEntity
  8
GUIDE
100
AcDbLine
 10
43.45
 20
25.3
 30
0.0
 11
43.45
 21
17.3
 31
0.0
  0
LINE
  5
390
330
18
100
AcDbEntity
  8
GUIDE
100
AcDbLine
 10
43.45
 20
17.3
 30
0.0
 11
63.95
 21
17.3
 31
0.0
  0
LINE
  5
391
330
18
100
AcDbEntity
  8
GUIDE
100
AcDbLine
 10
63.95
 20
17.3
 30
0.0
 11
63.95
 21
25.3
 31
0.0
  0
LINE
  5
392
330
18
100
AcDbEntity
  8
GUIDE
100
AcDbLine
 10
63.95
 20
25.3
 30
0.0
 11
43.45
 21
25.3
 31
0.0
  0
LINE
  5
393
330
18
100
AcDbEntity
  8
GUIDE
100
AcDbLine
 10
50.7
 20
14.3
 30
0.0
 11
50.7
 21
12.5
 31
0.0
  0
LINE
  5
394
330
18
100
AcDbEntity
  8
GUIDE
100
AcDbLine
 10
50.7
 20
12.5
 30
0.0
 11
56.7
 21
12.5
 31
0.0
  0
LINE
  5
395
330
18
100
AcDbEntity
  8
GUIDE
100
AcDbLine
 10
56.7
 20
12.5
 30
0.0
 11
56.7
 21
14.3
 31
0.0
  0
LINE
  5
396
330
18
100
AcDbEntity
  8
GUIDE
100
AcDbLine
 10
56.7
 20
14.3
 30
0.0
 11
50.7
 21
14.3
 31
0.0
  0
LINE
  5
397
330
18
100
AcDbEntity
  8
GUIDE
100
AcDbLine
 10
48.2
 20
17.3
 30
0.0
 11
48.2
 21
14.3
 31
0.0
  0
LINE
  5
398
330
18
100
AcDbEntity
  8
GUIDE
100
AcDbLine
 10
48.2
 20
14.3
 30
0.0
 11
59.2
 21
14.3
 31
0.0
  0
LINE
  5
399
330
18
100
AcDbEntity
  8
GUIDE
100
AcDbLine
 10
59.2
 20
14.3
 30
0.0
 11
59.2
 21
17.3
 31
0.0
  0
LINE
  5
39A
330
18
100
AcDbEntity
  8
GUIDE
100
AcDbLine
 10
59.2
 20
17.3
 30
0.0
 11
48.2
 21
17.3
 31
0.0
  0
LINE
  5
39B
330
18
100
AcDbEntity
  8
GUIDE
100
AcDbLine
 10
50.7
 20
42.6
 30
0.0
 11
50.7
 21
40.8
 31
0.0
  0
LINE
  5
39C
330
18
100
AcDbEntity
  8
GUIDE
100
AcDbLine
 10
50.7
 20
40.8
 30
0.0
 11
56.7
 21
40.8
 31
0.0
  0
LINE
  5
39D
330
18
100
AcDbEntity
  8
GUIDE
100
AcDbLine
 10
56.7
 20
40.8
 30
0.0
 11
56.7
 21
42.6
 31
0.0
  0
LINE
  5
39E
330
18
100
AcDbEntity
  8
GUIDE
100
AcDbLine
 10
56.7
 20
42.6
 30
0.0
 11
50.7
 21
42.6
 31
0.0
  0
POLYLINE
  5
39F
330
18
100
AcDbEntity
  8
GUIDE
100
AcDb2dPolyline
 66
     1
 10
0.0
 20
0.0
 30
0.0
 70
     1
  0
VERTEX
  5
5F8
330
39F
100
AcDbEntity
  8
GUIDE
100
AcDbVertex
100
AcDb2dVertex
 10
65.59999999999999
 20
14.3
 30
0.0
  0
VERTEX
  5
5F9
330
39F
100
AcDbEntity
  8
GUIDE
100
AcDbVertex
100
AcDb2dVertex
 10
65.59999999999999
 20
29.8
 30
0.0
  0
VERTEX
  5
5FA
330
39F
100
AcDbEntity
  8
GUIDE
100
AcDbVertex
100
AcDb2dVertex
 10
76.59999999999999
 20
29.8
 30
0.0
  0
VERTEX
  5
5FB
330
39F
100
AcDbEntity
  8
GUIDE
100
AcDbVertex
100
AcDb2dVertex
 10
76.59999999999999
 20
14.3
 30
0.0
  0
SEQEND
  5
5F7
330
39F
100
AcDbEntity
  8
GUIDE
  0
POLYLINE
  5
3A5
330
18
100
AcDbEntity
  8
GUIDE
100
AcDb2dPolyline
 66
     1
 10
0.0
 20
0.0
 30
0.0
 70
     1
  0
VERTEX
  5
5FD
330
3A5
100
AcDbEntity
  8
GUIDE
100
AcDbVertex
100
AcDb2dVertex
 10
60.85
 20
29.8
 30
0.0
  0
VERTEX
  5
5FE
330
3A5
100
AcDbEntity
  8
GUIDE
100
AcDbVertex
100
AcDb2dVertex
 10
60.85
 20
37.8
 30
0.0
  0
VERTEX
  5
5FF
330
3A5
100
AcDbEntity
  8
GUIDE
100
AcDbVertex
100
AcDb2dVertex
 10
81.34999999999999
 20
37.8
 30
0.0
  0
VERTEX
  5
600
330
3A5
100
AcDbEntity
  8
GUIDE
100
AcDbVertex
100
AcDb2dVertex
 10
81.34999999999999
 20
29.8
 30
0.0
  0
SEQEND
  5
5FC
330
3A5
100
AcDbEntity
  8
GUIDE
  0
POLYLINE
  5
3AB
330
18
100
AcDbEntity
  8
GUIDE
100
AcDb2dPolyline
 66
     1
 10
0.0
 20
0.0
 30
0.0
 70
     1
  0
VERTEX
  5
602
330
3AB
100
AcDbEntity
  8
GUIDE
100
AcDbVertex
100
AcDb2dVertex
 10
68.09999999999999
 20
40.8
 30
0.0
  0
VERTEX
  5
603
330
3AB
100
AcDbEntity
  8
GUIDE
100
AcDbVertex
100
AcDb2dVertex
 10
68.09999999999999
 20
42.6
 30
0.0
  0
VERTEX
  5
604
330
3AB
100
AcDbEntity
  8
GUIDE
100
AcDbVertex
100
AcDb2dVertex
 10
74.09999999999999
 20
42.6
 30
0.0
  0
VERTEX
  5
605
330
3AB
100
AcDbEntity
  8
GUIDE
100
AcDbVertex
100
AcDb2dVertex
 10
74.09999999999999
 20
40.8
 30
0.0
  0
SEQEND
  5
601
330
3AB
100
AcDbEntity
  8
GUIDE
  0
POLYLINE
  5
3B1
330
18
100
AcDbEntity
  8
GUIDE
100
AcDb2dPolyline
 66
     1
 10
0.0
 20
0.0
 30
0.0
 70
     1
  0
VERTEX
  5
607
330
3B1
100
AcDbEntity
  8
GUIDE
100
AcDbVertex
100
AcDb2dVertex
 10
65.59999999999999
 20
37.8
 30
0.0
  0
VERTEX
  5
608
330
3B1
100
AcDbEntity
  8
GUIDE
100
AcDbVertex
100
AcDb2dVertex
 10
65.59999999999999
 20
40.8
 30
0.0
  0
VERTEX
  5
609
330
3B1
100
AcDbEntity
  8
GUIDE
100
AcDbVertex
100
AcDb2dVertex
 10
76.59999999999999
 20
40.8
 30
0.0
  0
VERTEX
  5
60A
330
3B1
100
AcDbEntity
  8
GUIDE
100
AcDbVertex
100
AcDb2dVertex
 10
76.59999999999999
 20
37.8
 30
0.0
  0
SEQEND
  5
606
330
3B1
100
AcDbEntity
  8
GUIDE
  0
POLYLINE
  5
3B7
330
18
100
AcDbEntity
  8
GUIDE
100
AcDb2dPolyline
 66
     1
 10
0.0
 20
0.0
 30
0.0
 70
     1
  0
VERTEX
  5
60C
330
3B7
100
AcDbEntity
  8
GUIDE
100
AcDbVertex
100
AcDb2dVertex
 10
68.09999999999999
 20
12.5
 30
0.0
  0
VERTEX
  5
60D
330
3B7
100
AcDbEntity
  8
GUIDE
100
AcDbVertex
100
AcDb2dVertex
 10
68.09999999999999
 20
14.3
 30
0.0
  0
VERTEX
  5
60E
330
3B7
100
AcDbEntity
  8
GUIDE
100
AcDbVertex
100
AcDb2dVertex
 10
74.09999999999999
 20
14.3
 30
0.0
  0
VERTEX
  5
60F
330
3B7
100
AcDbEntity
  8
GUIDE
100
AcDbVertex
100
AcDb2dVertex
 10
74.09999999999999
 20
12.5
 30
0.0
  0
SEQEND
  5
60B
330
3B7
100
AcDbEntity
  8
GUIDE
  0
LINE
  5
3BD
330
18
100
AcDbEntity
  8
GUIDE
100
AcDbLine
 10
83.0
 20
40.8
 30
0.0
 11
83.0
 21
25.3
 31
0.0
  0
LINE
  5
3BE
330
18
100
AcDbEntity
  8
GUIDE
100
AcDbLine
 10
83.0
 20
25.3
 30
0.0
 11
94.0
 21
25.3
 31
0.0
  0
LINE
  5
3BF
330
18
100
AcDbEntity
  8
GUIDE
100
AcDbLine
 10
94.0
 20
25.3
 30
0.0
 11
94.0
 21
40.8
 31
0.0
  0
LINE
  5
3C0
330
18
100
AcDbEntity
  8
GUIDE
100
AcDbLine
 10
94.0
 20
40.8
 30
0.0
 11
83.0
 21
40.8
 31
0.0
  0
LINE
  5
3C1
330
18
100
AcDbEntity
  8
GUIDE
100
AcDbLine
 10
78.25
 20
25.3
 30
0.0
 11
78.25
 21
17.3
 31
0.0
  0
LINE
  5
3C2
330
18
100
AcDbEntity
  8
GUIDE
100
AcDbLine
 10
78.25
 20
17.3
 30
0.0
 11
98.75
 21
17.3
 31
0.0
  0
LINE
  5
3C3
330
18
100
AcDbEntity
  8
GUIDE
100
AcDbLine
 10
98.75
 20
17.3
 30
0.0
 11
98.75
 21
25.3
 31
0.0
  0
LINE
  5
3C4
330
18
100
AcDbEntity
  8
GUIDE
100
AcDbLine
 10
98.75
 20
25.3
 30
0.0
 11
78.25
 21
25.3
 31
0.0
  0
LINE
  5
3C5
330
18
100
AcDbEntity
  8
GUIDE
100
AcDbLine
 10
85.5
 20
14.3
 30
0.0
 11
85.5
 21
12.5
 31
0.0
  0
LINE
  5
3C6
330
18
100
AcDbEntity
  8
GUIDE
100
AcDbLine
 10
85.5
 20
12.5
 30
0.0
 11
91.5
 21
12.5
 31
0.0
  0
LINE
  5
3C7
330
18
100
AcDbEntity
  8
GUIDE
100
AcDbLine
 10
91.5
 20
12.5
 30
0.0
 11
91.5
 21
14.3
 31
0.0
  0
LINE
  5
3C8
330
18
100
AcDbEntity
  8
GUIDE
100
AcDbLine
 10
91.5
 20
14.3
 30
0.0
 11
85.5
 21
14.3
 31
0.0
  0
LINE
  5
3C9
330
18
100
AcDbEntity
  8
GUIDE
100
AcDbLine
 10
83.0
 20
17.3
 30
0.0
 11
83.0
 21
14.3
 31
0.0
  0
LINE
  5
3CA
330
18
100
AcDbEntity
  8
GUIDE
100
AcDbLine
 10
83.0
 20
14.3
 30
0.0
 11
94.0
 21
14.3
 31
0.0
  0
LINE
  5
3CB
330
18
100
AcDbEntity
  8
GUIDE
100
AcDbLine
 10
94.0
 20
14.3
 30
0.0
 11
94.0
 21
17.3
 31
0.0
  0
LINE
  5
3CC
330
18
100
AcDbEntity
  8
GUIDE
100
AcDbLine
 10
94.0
 20
17.3
 30
0.0
 11
83.0
 21
17.3
 31
0.0
  0
LINE
  5
3CD
330
18
100
AcDbEntity
  8
GUIDE
100
AcDbLine
 10
85.5
 20
42.6
 30
0.0
 11
85.5
 21
40.8
 31
0.0
  0
LINE
  5
3CE
330
18
100
AcDbEntity
  8
GUIDE
100
AcDbLine
 10
85.5
 20
40.8
 30
0.0
 11
91.5
 21
40.8
 31
0.0
  0
LINE
  5
3CF
330
18
100
AcDbEntity
  8
GUIDE
100
AcDbLine
 10
91.5
 20
40.8
 30
0.0
 11
91.5
 21
42.6
 31
0.0
  0
LINE
  5
3D0
330
18
100
AcDbEntity
  8
GUIDE
100
AcDbLine
 10
91.5
 20
42.6
 30
0.0
 11
85.5
 21
42.6
 31
0.0
  0
POLYLINE
  5
3D1
330
18
100
AcDbEntity
  8
GUIDE
100
AcDb2dPolyline
 66
     1
 10
0.0
 20
0.0
 30
0.0
 70
     1
  0
VERTEX
  5
611
330
3D1
100
AcDbEntity
  8
GUIDE
100
AcDbVertex
100
AcDb2dVertex
 10
100.4
 20
14.3
 30
0.0
  0
VERTEX
  5
612
330
3D1
100
AcDbEntity
  8
GUIDE
100
AcDbVertex
100
AcDb2dVertex
 10
100.4
 20
29.8
 30
0.0
  0
VERTEX
  5
613
330
3D1
100
AcDbEntity
  8
GUIDE
100
AcDbVertex
100
AcDb2dVertex
 10
111.4
 20
29.8
 30
0.0
  0
VERTEX
  5
614
330
3D1
100
AcDbEntity
  8
GUIDE
100
AcDbVertex
100
AcDb2dVertex
 10
111.4
 20
14.3
 30
0.0
  0
SEQEND
  5
610
330
3D1
100
AcDbEntity
  8
GUIDE
  0
POLYLINE
  5
3D7
330
18
100
AcDbEntity
  8
GUIDE
100
AcDb2dPolyline
 66
     1
 10
0.0
 20
0.0
 30
0.0
 70
     1
  0
VERTEX
  5
616
330
3D7
100
AcDbEntity
  8
GUIDE
100
AcDbVertex
100
AcDb2dVertex
 10
95.65000000000001
 20
29.8
 30
0.0
  0
VERTEX
  5
617
330
3D7
100
AcDbEntity
  8
GUIDE
100
AcDbVertex
100
AcDb2dVertex
 10
95.65000000000001
 20
37.8
 30
0.0
  0
VERTEX
  5
618
330
3D7
100
AcDbEntity
  8
GUIDE
100
AcDbVertex
100
AcDb2dVertex
 10
116.15
 20
37.8
 30
0.0
  0
VERTEX
  5
619
330
3D7
100
AcDbEntity
  8
GUIDE
100
AcDbVertex
100
AcDb2dVertex
 10
116.15
 20
29.8
 30
0.0
  0
SEQEND
  5
615
330
3D7
100
AcDbEntity
  8
GUIDE
  0
POLYLINE
  5
3DD
330
18
100
AcDbEntity
  8
GUIDE
100
AcDb2dPolyline
 66
     1
 10
0.0
 20
0.0
 30
0.0
 70
     1
  0
VERTEX
  5
61B
330
3DD
100
AcDbEntity
  8
GUIDE
100
AcDbVertex
100
AcDb2dVertex
 10
102.9
 20
40.8
 30
0.0
  0
VERTEX
  5
61C
330
3DD
100
AcDbEntity
  8
GUIDE
100
AcDbVertex
100
AcDb2dVertex
 10
102.9
 20
42.6
 30
0.0
  0
VERTEX
  5
61D
330
3DD
100
AcDbEntity
  8
GUIDE
100
AcDbVertex
100
AcDb2dVertex
 10
108.9
 20
42.6
 30
0.0
  0
VERTEX
  5
61E
330
3DD
100
AcDbEntity
  8
GUIDE
100
AcDbVertex
100
AcDb2dVertex
 10
108.9
 20
40.8
 30
0.0
  0
SEQEND
  5
61A
330
3DD
100
AcDbEntity
  8
GUIDE
  0
POLYLINE
  5
3E3
330
18
100
AcDbEntity
  8
GUIDE
100
AcDb2dPolyline
 66
     1
 10
0.0
 20
0.0
 30
0.0
 70
     1
  0
VERTEX
  5
620
330
3E3
100
AcDbEntity
  8
GUIDE
100
AcDbVertex
100
AcDb2dVertex
 10
100.4
 20
37.8
 30
0.0
  0
VERTEX
  5
621
330
3E3
100
AcDbEntity
  8
GUIDE
100
AcDbVertex
100
AcDb2dVertex
 10
100.4
 20
40.8
 30
0.0
  0
VERTEX
  5
622
330
3E3
100
AcDbEntity
  8
GUIDE
100
AcDbVertex
100
AcDb2dVertex
 10
111.4
 20
40.8
 30
0.0
  0
VERTEX
  5
623
330
3E3
100
AcDbEntity
  8
GUIDE
100
AcDbVertex
100
AcDb2dVertex
 10
111.4
 20
37.8
 30
0.0
  0
SEQEND
  5
61F
330
3E3
100
AcDbEntity
  8
GUIDE
  0
POLYLINE
  5
3E9
330
18
100
AcDbEntity
  8
GUIDE
100
AcDb2dPolyline
 66
     1
 10
0.0
 20
0.0
 30
0.0
 70
     1
  0
VERTEX
  5
625
330
3E9
100
AcDbEntity
  8
GUIDE
100
AcDbVertex
100
AcDb2dVertex
 10
102.9
 20
12.5
 30
0.0
  0
VERTEX
  5
626
330
3E9
100
AcDbEntity
  8
GUIDE
100
AcDbVertex
100
AcDb2dVertex
 10
102.9
 20
14.3
 30
0.0
  0
VERTEX
  5
627
330
3E9
100
AcDbEntity
  8
GUIDE
100
AcDbVertex
100
AcDb2dVertex
 10
108.9
 20
14.3
 30
0.0
  0
VERTEX
  5
628
330
3E9
100
AcDbEntity
  8
GUIDE
100
AcDbVertex
100
AcDb2dVertex
 10
108.9
 20
12.5
 30
0.0
  0
SEQEND
  5
624
330
3E9
100
AcDbEntity
  8
GUIDE
  0
LINE
  5
3EF
330
18
100
AcDbEntity
  8
GUIDE
100
AcDbLine
 10
117.8
 20
40.8
 30
0.0
 11
117.8
 21
25.3
 31
0.0
  0
LINE
  5
3F0
330
18
100
AcDbEntity
  8
GUIDE
100
AcDbLine
 10
117.8
 20
25.3
 30
0.0
 11
128.8
 21
25.3
 31
0.0
  0
LINE
  5
3F1
330
18
100
AcDbEntity
  8
GUIDE
100
AcDbLine
 10
128.8
 20
25.3
 30
0.0
 11
128.8
 21
40.8
 31
0.0
  0
LINE
  5
3F2
330
18
100
AcDbEntity
  8
GUIDE
100
AcDbLine
 10
128.8
 20
40.8
 30
0.0
 11
117.8
 21
40.8
 31
0.0
  0
LINE
  5
3F3
330
18
100
AcDbEntity
  8
GUIDE
100
AcDbLine
 10
113.05
 20
25.3
 30
0.0
 11
113.05
 21
17.3
 31
0.0
  0
LINE
  5
3F4
330
18
100
AcDbEntity
  8
GUIDE
100
AcDbLine
 10
113.05
 20
17.3
 30
0.0
 11
133.55
 21
17.3
 31
0.0
  0
LINE
  5
3F5
330
18
100
AcDbEntity
  8
GUIDE
100
AcDbLine
 10
133.55
 20
17.3
 30
0.0
 11
133.55
 21
25.3
 31
0.0
  0
LINE
  5
3F6
330
18
100
AcDbEntity
  8
GUIDE
100
AcDbLine
 10
133.55
 20
25.3
 30
0.0
 11
113.05
 21
25.3
 31
0.0
  0
LINE
  5
3F7
330
18
100
AcDbEntity
  8
GUIDE
100
AcDbLine
 10
120.3
 20
14.3
 30
0.0
 11
120.3
 21
12.5
 31
0.0
  0
LINE
  5
3F8
330
18
100
AcDbEntity
  8
GUIDE
100
AcDbLine
 10
120.3
 20
12.5
 30
0.0
 11
126.3
 21
12.5
 31
0.0
  0
LINE
  5
3F9
330
18
100
AcDbEntity
  8
GUIDE
100
AcDbLine
 10
126.3
 20
12.5
 30
0.0
 11
126.3
 21
14.3
 31
0.0
  0
LINE
  5
3FA
330
18
100
AcDbEntity
  8
GUIDE
100
AcDbLine
 10
126.3
 20
14.3
 30
0.0
 11
120.3
 21
14.3
 31
0.0
  0
LINE
  5
3FB
330
18
100
AcDbEntity
  8
GUIDE
100
AcDbLine
 10
117.8
 20
17.3
 30
0.0
 11
117.8
 21
14.3
 31
0.0
  0
LINE
  5
3FC
330
18
100
AcDbEntity
  8
GUIDE
100
AcDbLine
 10
117.8
 20
14.3
 30
0.0
 11
128.8
 21
14.3
 31
0.0
  0
LINE
  5
3FD
330
18
100
AcDbEntity
  8
GUIDE
100
AcDbLine
 10
128.8
 20
14.3
 30
0.0
 11
128.8
 21
17.3
 31
0.0
  0
LINE
  5
3FE
330
18
100
AcDbEntity
  8
GUIDE
100
AcDbLine
 10
128.8
 20
17.3
 30
0.0
 11
117.8
 21
17.3
 31
0.0
  0
LINE
  5
3FF
330
18
100
AcDbEntity
  8
GUIDE
100
AcDbLine
 10
120.3
 20
42.6
 30
0.0
 11
120.3
 21
40.8
 31
0.0
  0
LINE
  5
400
330
18
100
AcDbEntity
  8
GUIDE
100
AcDbLine
 10
120.3
 20
40.8
 30
0.0
 11
126.3
 21
40.8
 31
0.0
  0
LINE
  5
401
330
18
100
AcDbEntity
  8
GUIDE
100
AcDbLine
 10
126.3
 20
40.8
 30
0.0
 11
126.3
 21
42.6
 31
0.0
  0
LINE
  5
402
330
18
100
AcDbEntity
  8
GUIDE
100
AcDbLine
 10
126.3
 20
42.6
 30
0.0
 11
120.3
 21
42.6
 31
0.0
  0
POLYLINE
  5
403
330
18
100
AcDbEntity
  8
GUIDE
100
AcDb2dPolyline
 66
     1
 10
0.0
 20
0.0
 30
0.0
 70
     1
  0
VERTEX
  5
62A
330
403
100
AcDbEntity
  8
GUIDE
100
AcDbVertex
100
AcDb2dVertex
 10
-11.9
 20
40.8
 30
0.0
  0
VERTEX
  5
62B
330
403
100
AcDbEntity
  8
GUIDE
100
AcDbVertex
100
AcDb2dVertex
 10
-11.9
 20
25.3
 30
0.0
  0
VERTEX
  5
62C
330
403
100
AcDbEntity
  8
GUIDE
100
AcDbVertex
100
AcDb2dVertex
 10
-22.9
 20
25.3
 30
0.0
  0
VERTEX
  5
62D
330
403
100
AcDbEntity
  8
GUIDE
100
AcDbVertex
100
AcDb2dVertex
 10
-22.9
 20
40.8
 30
0.0
  0
SEQEND
  5
629
330
403
100
AcDbEntity
  8
GUIDE
  0
POLYLINE
  5
409
330
18
100
AcDbEntity
  8
GUIDE
100
AcDb2dPolyline
 66
     1
 10
0.0
 20
0.0
 30
0.0
 70
     1
  0
VERTEX
  5
62F
330
409
100
AcDbEntity
  8
GUIDE
100
AcDbVertex
100
AcDb2dVertex
 10
-7.15
 20
25.3
 30
0.0
  0
VERTEX
  5
630
330
409
100
AcDbEntity
  8
GUIDE
100
AcDbVertex
100
AcDb2dVertex
 10
-7.15
 20
17.3
 30
0.0
  0
VERTEX
  5
631
330
409
100
AcDbEntity
  8
GUIDE
100
AcDbVertex
100
AcDb2dVertex
 10
-27.65
 20
17.3
 30
0.0
  0
VERTEX
  5
632
330
409
100
AcDbEntity
  8
GUIDE
100
AcDbVertex
100
AcDb2dVertex
 10
-27.65
 20
25.3
 30
0.0
  0
SEQEND
  5
62E
330
409
100
AcDbEntity
  8
GUIDE
  0
POLYLINE
  5
40F
330
18
100
AcDbEntity
  8
GUIDE
100
AcDb2dPolyline
 66
     1
 10
0.0
 20
0.0
 30
0.0
 70
     1
  0
VERTEX
  5
634
330
40F
100
AcDbEntity
  8
GUIDE
100
AcDbVertex
100
AcDb2dVertex
 10
-14.4
 20
14.3
 30
0.0
  0
VERTEX
  5
635
330
40F
100
AcDbEntity
  8
GUIDE
100
AcDbVertex
100
AcDb2dVertex
 10
-14.4
 20
12.5
 30
0.0
  0
VERTEX
  5
636
330
40F
100
AcDbEntity
  8
GUIDE
100
AcDbVertex
100
AcDb2dVertex
 10
-20.4
 20
12.5
 30
0.0
  0
VERTEX
  5
637
330
40F
100
AcDbEntity
  8
GUIDE
100
AcDbVertex
100
AcDb2dVertex
 10
-20.4
 20
14.3
 30
0.0
  0
SEQEND
  5
633
330
40F
100
AcDbEntity
  8
GUIDE
  0
POLYLINE
  5
415
330
18
100
AcDbEntity
  8
GUIDE
100
AcDb2dPolyline
 66
     1
 10
0.0
 20
0.0
 30
0.0
 70
     1
  0
VERTEX
  5
639
330
415
100
AcDbEntity
  8
GUIDE
100
AcDbVertex
100
AcDb2dVertex
 10
-11.9
 20
17.3
 30
0.0
  0
VERTEX
  5
63A
330
415
100
AcDbEntity
  8
GUIDE
100
AcDbVertex
100
AcDb2dVertex
 10
-11.9
 20
14.3
 30
0.0
  0
VERTEX
  5
63B
330
415
100
AcDbEntity
  8
GUIDE
100
AcDbVertex
100
AcDb2dVertex
 10
-22.9
 20
14.3
 30
0.0
  0
VERTEX
  5
63C
330
415
100
AcDbEntity
  8
GUIDE
100
AcDbVertex
100
AcDb2dVertex
 10
-22.9
 20
17.3
 30
0.0
  0
SEQEND
  5
638
330
415
100
AcDbEntity
  8
GUIDE
  0
POLYLINE
  5
41B
330
18
100
AcDbEntity
  8
GUIDE
100
AcDb2dPolyline
 66
     1
 10
0.0
 20
0.0
 30
0.0
 70
     1
  0
VERTEX
  5
63E
330
41B
100
AcDbEntity
  8
GUIDE
100
AcDbVertex
100
AcDb2dVertex
 10
-14.4
 20
42.6
 30
0.0
  0
VERTEX
  5
63F
330
41B
100
AcDbEntity
  8
GUIDE
100
AcDbVertex
100
AcDb2dVertex
 10
-14.4
 20
40.8
 30
0.0
  0
VERTEX
  5
640
330
41B
100
AcDbEntity
  8
GUIDE
100
AcDbVertex
100
AcDb2dVertex
 10
-20.4
 20
40.8
 30
0.0
  0
VERTEX
  5
641
330
41B
100
AcDbEntity
  8
GUIDE
100
AcDbVertex
100
AcDb2dVertex
 10
-20.4
 20
42.6
 30
0.0
  0
SEQEND
  5
63D
330
41B
100
AcDbEntity
  8
GUIDE
  0
LINE
  5
421
330
18
100
AcDbEntity
  8
GUIDE
100
AcDbLine
 10
-29.3
 20
14.3
 30
0.0
 11
-29.3
 21
29.8
 31
0.0
  0
LINE
  5
422
330
18
100
AcDbEntity
  8
GUIDE
100
AcDbLine
 10
-29.3
 20
29.8
 30
0.0
 11
-40.3
 21
29.8
 31
0.0
  0
LINE
  5
423
330
18
100
AcDbEntity
  8
GUIDE
100
AcDbLine
 10
-40.3
 20
29.8
 30
0.0
 11
-40.3
 21
14.3
 31
0.0
  0
LINE
  5
424
330
18
100
AcDbEntity
  8
GUIDE
100
AcDbLine
 10
-40.3
 20
14.3
 30
0.0
 11
-29.3
 21
14.3
 31
0.0
  0
LINE
  5
425
330
18
100
AcDbEntity
  8
GUIDE
100
AcDbLine
 10
-24.55
 20
29.8
 30
0.0
 11
-24.55
 21
37.8
 31
0.0
  0
LINE
  5
426
330
18
100
AcDbEntity
  8
GUIDE
100
AcDbLine
 10
-24.55
 20
37.8
 30
0.0
 11
-45.05
 21
37.8
 31
0.0
  0
LINE
  5
427
330
18
100
AcDbEntity
  8
GUIDE
100
AcDbLine
 10
-45.05
 20
37.8
 30
0.0
 11
-45.05
 21
29.8
 31
0.0
  0
LINE
  5
428
330
18
100
AcDbEntity
  8
GUIDE
100
AcDbLine
 10
-45.05
 20
29.8
 30
0.0
 11
-24.55
 21
29.8
 31
0.0
  0
LINE
  5
429
330
18
100
AcDbEntity
  8
GUIDE
100
AcDbLine
 10
-31.8
 20
40.8
 30
0.0
 11
-31.8
 21
42.6
 31
0.0
  0
LINE
  5
42A
330
18
100
AcDbEntity
  8
GUIDE
100
AcDbLine
 10
-31.8
 20
42.6
 30
0.0
 11
-37.8
 21
42.6
 31
0.0
  0
LINE
  5
42B
330
18
100
AcDbEntity
  8
GUIDE
100
AcDbLine
 10
-37.8
 20
42.6
 30
0.0
 11
-37.8
 21
40.8
 31
0.0
  0
LINE
  5
42C
330
18
100
AcDbEntity
  8
GUIDE
100
AcDbLine
 10
-37.8
 20
40.8
 30
0.0
 11
-31.8
 21
40.8
 31
0.0
  0
LINE
  5
42D
330
18
100
AcDbEntity
  8
GUIDE
100
AcDbLine
 10
-29.3
 20
37.8
 30
0.0
 11
-29.3
 21
40.8
 31
0.0
  0
LINE
  5
42E
330
18
100
AcDbEntity
  8
GUIDE
100
AcDbLine
 10
-29.3
 20
40.8
 30
0.0
 11
-40.3
 21
40.8
 31
0.0
  0
LINE
  5
42F
330
18
100
AcDbEntity
  8
GUIDE
100
AcDbLine
 10
-40.3
 20
40.8
 30
0.0
 11
-40.3
 21
37.8
 31
0.0
  0
LINE
  5
430
330
18
100
AcDbEntity
  8
GUIDE
100
AcDbLine
 10
-40.3
 20
37.8
 30
0.0
 11
-29.3
 21
37.8
 31
0.0
  0
LINE
  5
431
330
18
100
AcDbEntity
  8
GUIDE
100
AcDbLine
 10
-31.8
 20
12.5
 30
0.0
 11
-31.8
 21
14.3
 31
0.0
  0
LINE
  5
432
330
18
100
AcDbEntity
  8
GUIDE
100
AcDbLine
 10
-31.8
 20
14.3
 30
0.0
 11
-37.8
 21
14.3
 31
0.0
  0
LINE
  5
433
330
18
100
AcDbEntity
  8
GUIDE
100
AcDbLine
 10
-37.8
 20
14.3
 30
0.0
 11
-37.8
 21
12.5
 31
0.0
  0
LINE
  5
434
330
18
100
AcDbEntity
  8
GUIDE
100
AcDbLine
 10
-37.8
 20
12.5
 30
0.0
 11
-31.8
 21
12.5
 31
0.0
  0
LINE
  5
435
330
18
100
AcDbEntity
  8
GUIDE
100
AcDbLine
 10
40.3
 20
14.3
 30
0.0
 11
40.3
 21
29.8
 31
0.0
  0
LINE
  5
436
330
18
100
AcDbEntity
  8
GUIDE
100
AcDbLine
 10
40.3
 20
29.8
 30
0.0
 11
29.3
 21
29.8
 31
0.0
  0
LINE
  5
437
330
18
100
AcDbEntity
  8
GUIDE
100
AcDbLine
 10
29.3
 20
29.8
 30
0.0
 11
29.3
 21
14.3
 31
0.0
  0
LINE
  5
438
330
18
100
AcDbEntity
  8
GUIDE
100
AcDbLine
 10
29.3
 20
14.3
 30
0.0
 11
40.3
 21
14.3
 31
0.0
  0
LINE
  5
439
330
18
100
AcDbEntity
  8
GUIDE
100
AcDbLine
 10
45.05
 20
29.8
 30
0.0
 11
45.05
 21
37.8
 31
0.0
  0
LINE
  5
43A
330
18
100
AcDbEntity
  8
GUIDE
100
AcDbLine
 10
45.05
 20
37.8
 30
0.0
 11
24.55
 21
37.8
 31
0.0
  0
LINE
  5
43B
330
18
100
AcDbEntity
  8
GUIDE
100
AcDbLine
 10
24.55
 20
37.8
 30
0.0
 11
24.55
 21
29.8
 31
0.0
  0
LINE
  5
43C
330
18
100
AcDbEntity
  8
GUIDE
100
AcDbLine
 10
24.55
 20
29.8
 30
0.0
 11
45.05
 21
29.8
 31
0.0
  0
LINE
  5
43D
330
18
100
AcDbEntity
  8
GUIDE
100
AcDbLine
 10
37.8
 20
40.8
 30
0.0
 11
37.8
 21
42.6
 31
0.0
  0
LINE
  5
43E
330
18
100
AcDbEntity
  8
GUIDE
100
AcDbLine
 10
37.8
 20
42.6
 30
0.0
 11
31.8
 21
42.6
 31
0.0
  0
LINE
  5
43F
330
18
100
AcDbEntity
  8
GUIDE
100
AcDbLine
 10
31.8
 20
42.6
 30
0.0
 11
31.8
 21
40.8
 31
0.0
  0
LINE
  5
440
330
18
100
AcDbEntity
  8
GUIDE
100
AcDbLine
 10
31.8
 20
40.8
 30
0.0
 11
37.8
 21
40.8
 31
0.0
  0
LINE
  5
441
330
18
100
AcDbEntity
  8
GUIDE
100
AcDbLine
 10
40.3
 20
37.8
 30
0.0
 11
40.3
 21
40.8
 31
0.0
  0
LINE
  5
442
330
18
100
AcDbEntity
  8
GUIDE
100
AcDbLine
 10
40.3
 20
40.8
 30
0.0
 11
29.3
 21
40.8
 31
0.0
  0
LINE
  5
443
330
18
100
AcDbEntity
  8
GUIDE
100
AcDbLine
 10
29.3
 20
40.8
 30
0.0
 11
29.3
 21
37.8
 31
0.0
  0
LINE
  5
444
330
18
100
AcDbEntity
  8
GUIDE
100
AcDbLine
 10
29.3
 20
37.8
 30
0.0
 11
40.3
 21
37.8
 31
0.0
  0
LINE
  5
445
330
18
100
AcDbEntity
  8
GUIDE
100
AcDbLine
 10
37.8
 20
12.5
 30
0.0
 11
37.8
 21
14.3
 31
0.0
  0
LINE
  5
446
330
18
100
AcDbEntity
  8
GUIDE
100
AcDbLine
 10
37.8
 20
14.3
 30
0.0
 11
31.8
 21
14.3
 31
0.0
  0
LINE
  5
447
330
18
100
AcDbEntity
  8
GUIDE
100
AcDbLine
 10
31.8
 20
14.3
 30
0.0
 11
31.8
 21
12.5
 31
0.0
  0
LINE
  5
448
330
18
100
AcDbEntity
  8
GUIDE
100
AcDbLine
 10
31.8
 20
12.5
 30
0.0
 11
37.8
 21
12.5
 31
0.0
  0
POLYLINE
  5
449
330
18
100
AcDbEntity
  8
GUIDE
100
AcDb2dPolyline
 66
     1
 10
0.0
 20
0.0
 30
0.0
 70
     1
  0
VERTEX
  5
643
330
449
100
AcDbEntity
  8
GUIDE
100
AcDbVertex
100
AcDb2dVertex
 10
22.9
 20
40.8
 30
0.0
  0
VERTEX
  5
644
330
449
100
AcDbEntity
  8
GUIDE
100
AcDbVertex
100
AcDb2dVertex
 10
22.9
 20
25.3
 30
0.0
  0
VERTEX
  5
645
330
449
100
AcDbEntity
  8
GUIDE
100
AcDbVertex
100
AcDb2dVertex
 10
11.9
 20
25.3
 30
0.0
  0
VERTEX
  5
646
330
449
100
AcDbEntity
  8
GUIDE
100
AcDbVertex
100
AcDb2dVertex
 10
11.9
 20
40.8
 30
0.0
  0
SEQEND
  5
642
330
449
100
AcDbEntity
  8
GUIDE
  0
POLYLINE
  5
44F
330
18
100
AcDbEntity
  8
GUIDE
100
AcDb2dPolyline
 66
     1
 10
0.0
 20
0.0
 30
0.0
 70
     1
  0
VERTEX
  5
648
330
44F
100
AcDbEntity
  8
GUIDE
100
AcDbVertex
100
AcDb2dVertex
 10
27.65
 20
25.3
 30
0.0
  0
VERTEX
  5
649
330
44F
100
AcDbEntity
  8
GUIDE
100
AcDbVertex
100
AcDb2dVertex
 10
27.65
 20
17.3
 30
0.0
  0
VERTEX
  5
64A
330
44F
100
AcDbEntity
  8
GUIDE
100
AcDbVertex
100
AcDb2dVertex
 10
7.15
 20
17.3
 30
0.0
  0
VERTEX
  5
64B
330
44F
100
AcDbEntity
  8
GUIDE
100
AcDbVertex
100
AcDb2dVertex
 10
7.15
 20
25.3
 30
0.0
  0
SEQEND
  5
647
330
44F
100
AcDbEntity
  8
GUIDE
  0
POLYLINE
  5
455
330
18
100
AcDbEntity
  8
GUIDE
100
AcDb2dPolyline
 66
     1
 10
0.0
 20
0.0
 30
0.0
 70
     1
  0
VERTEX
  5
64D
330
455
100
AcDbEntity
  8
GUIDE
100
AcDbVertex
100
AcDb2dVertex
 10
20.4
 20
14.3
 30
0.0
  0
VERTEX
  5
64E
330
455
100
AcDbEntity
  8
GUIDE
100
AcDbVertex
100
AcDb2dVertex
 10
20.4
 20
12.5
 30
0.0
  0
VERTEX
  5
64F
330
455
100
AcDbEntity
  8
GUIDE
100
AcDbVertex
100
AcDb2dVertex
 10
14.4
 20
12.5
 30
0.0
  0
VERTEX
  5
650
330
455
100
AcDbEntity
  8
GUIDE
100
AcDbVertex
100
AcDb2dVertex
 10
14.4
 20
14.3
 30
0.0
  0
SEQEND
  5
64C
330
455
100
AcDbEntity
  8
GUIDE
  0
POLYLINE
  5
45B
330
18
100
AcDbEntity
  8
GUIDE
100
AcDb2dPolyline
 66
     1
 10
0.0
 20
0.0
 30
0.0
 70
     1
  0
VERTEX
  5
652
330
45B
100
AcDbEntity
  8
GUIDE
100
AcDbVertex
100
AcDb2dVertex
 10
22.9
 20
17.3
 30
0.0
  0
VERTEX
  5
653
330
45B
100
AcDbEntity
  8
GUIDE
100
AcDbVertex
100
AcDb2dVertex
 10
22.9
 20
14.3
 30
0.0
  0
VERTEX
  5
654
330
45B
100
AcDbEntity
  8
GUIDE
100
AcDbVertex
100
AcDb2dVertex
 10
11.9
 20
14.3
 30
0.0
  0
VERTEX
  5
655
330
45B
100
AcDbEntity
  8
GUIDE
100
AcDbVertex
100
AcDb2dVertex
 10
11.9
 20
17.3
 30
0.0
  0
SEQEND
  5
651
330
45B
100
AcDbEntity
  8
GUIDE
  0
POLYLINE
  5
461
330
18
100
AcDbEntity
  8
GUIDE
100
AcDb2dPolyline
 66
     1
 10
0.0
 20
0.0
 30
0.0
 70
     1
  0
VERTEX
  5
657
330
461
100
AcDbEntity
  8
GUIDE
100
AcDbVertex
100
AcDb2dVertex
 10
20.4
 20
42.6
 30
0.0
  0
VERTEX
  5
658
330
461
100
AcDbEntity
  8
GUIDE
100
AcDbVertex
100
AcDb2dVertex
 10
20.4
 20
40.8
 30
0.0
  0
VERTEX
  5
659
330
461
100
AcDbEntity
  8
GUIDE
100
AcDbVertex
100
AcDb2dVertex
 10
14.4
 20
40.8
 30
0.0
  0
VERTEX
  5
65A
330
461
100
AcDbEntity
  8
GUIDE
100
AcDbVertex
100
AcDb2dVertex
 10
14.4
 20
42.6
 30
0.0
  0
SEQEND
  5
656
330
461
100
AcDbEntity
  8
GUIDE
  0
LINE
  5
467
330
18
100
AcDbEntity
  8
GUIDE
100
AcDbLine
 10
5.5
 20
14.3
 30
0.0
 11
5.5
 21
29.8
 31
0.0
  0
LINE
  5
468
330
18
100
AcDbEntity
  8
GUIDE
100
AcDbLine
 10
5.5
 20
29.8
 30
0.0
 11
-5.5
 21
29.8
 31
0.0
  0
LINE
  5
469
330
18
100
AcDbEntity
  8
GUIDE
100
AcDbLine
 10
-5.5
 20
29.8
 30
0.0
 11
-5.5
 21
14.3
 31
0.0
  0
LINE
  5
46A
330
18
100
AcDbEntity
  8
GUIDE
100
AcDbLine
 10
-5.5
 20
14.3
 30
0.0
 11
5.5
 21
14.3
 31
0.0
  0
LINE
  5
46B
330
18
100
AcDbEntity
  8
GUIDE
100
AcDbLine
 10
10.25
 20
29.8
 30
0.0
 11
10.25
 21
37.8
 31
0.0
  0
LINE
  5
46C
330
18
100
AcDbEntity
  8
GUIDE
100
AcDbLine
 10
10.25
 20
37.8
 30
0.0
 11
-10.25
 21
37.8
 31
0.0
  0
LINE
  5
46D
330
18
100
AcDbEntity
  8
GUIDE
100
AcDbLine
 10
-10.25
 20
37.8
 30
0.0
 11
-10.25
 21
29.8
 31
0.0
  0
LINE
  5
46E
330
18
100
AcDbEntity
  8
GUIDE
100
AcDbLine
 10
-10.25
 20
29.8
 30
0.0
 11
10.25
 21
29.8
 31
0.0
  0
LINE
  5
46F
330
18
100
AcDbEntity
  8
GUIDE
100
AcDbLine
 10
3.0
 20
40.8
 30
0.0
 11
3.0
 21
42.6
 31
0.0
  0
LINE
  5
470
330
18
100
AcDbEntity
  8
GUIDE
100
AcDbLine
 10
3.0
 20
42.6
 30
0.0
 11
-3.0
 21
42.6
 31
0.0
  0
LINE
  5
471
330
18
100
AcDbEntity
  8
GUIDE
100
AcDbLine
 10
-3.0
 20
42.6
 30
0.0
 11
-3.0
 21
40.8
 31
0.0
  0
LINE
  5
472
330
18
100
AcDbEntity
  8
GUIDE
100
AcDbLine
 10
-3.0
 20
40.8
 30
0.0
 11
3.0
 21
40.8
 31
0.0
  0
LINE
  5
473
330
18
100
AcDbEntity
  8
GUIDE
100
AcDbLine
 10
5.5
 20
37.8
 30
0.0
 11
5.5
 21
40.8
 31
0.0
  0
LINE
  5
474
330
18
100
AcDbEntity
  8
GUIDE
100
AcDbLine
 10
5.5
 20
40.8
 30
0.0
 11
-5.5
 21
40.8
 31
0.0
  0
LINE
  5
475
330
18
100
AcDbEntity
  8
GUIDE
100
AcDbLine
 10
-5.5
 20
40.8
 30
0.0
 11
-5.5
 21
37.8
 31
0.0
  0
LINE
  5
476
330
18
100
AcDbEntity
  8
GUIDE
100
AcDbLine
 10
-5.5
 20
37.8
 30
0.0
 11
5.5
 21
37.8
 31
0.0
  0
LINE
  5
477
330
18
100
AcDbEntity
  8
GUIDE
100
AcDbLine
 10
3.0
 20
12.5
 30
0.0
 11
3.0
 21
14.3
 31
0.0
  0
LINE
  5
478
330
18
100
AcDbEntity
  8
GUIDE
100
AcDbLine
 10
3.0
 20
14.3
 30
0.0
 11
-3.0
 21
14.3
 31
0.0
  0
LINE
  5
479
330
18
100
AcDbEntity
  8
GUIDE
100
AcDbLine
 10
-3.0
 20
14.3
 30
0.0
 11
-3.0
 21
12.5
 31
0.0
  0
LINE
  5
47A
330
18
100
AcDbEntity
  8
GUIDE
100
AcDbLine
 10
-3.0
 20
12.5
 30
0.0
 11
3.0
 21
12.5
 31
0.0
  0
POLYLINE
  5
47B
330
18
100
AcDbEntity
  8
GUIDE
100
AcDb2dPolyline
 66
     1
 10
0.0
 20
0.0
 30
0.0
 70
     1
  0
VERTEX
  5
65C
330
47B
100
AcDbEntity
  8
GUIDE
100
AcDbVertex
100
AcDb2dVertex
 10
259.603188
 20
40.41724
 30
0.0
  0
VERTEX
  5
65D
330
47B
100
AcDbEntity
  8
GUIDE
100
AcDbVertex
100
AcDb2dVertex
 10
259.603188
 20
42.21724
 30
0.0
  0
VERTEX
  5
65E
330
47B
100
AcDbEntity
  8
GUIDE
100
AcDbVertex
100
AcDb2dVertex
 10
265.603188
 20
42.21724
 30
0.0
  0
VERTEX
  5
65F
330
47B
100
AcDbEntity
  8
GUIDE
100
AcDbVertex
100
AcDb2dVertex
 10
265.603188
 20
40.41724
 30
0.0
  0
SEQEND
  5
65B
330
47B
100
AcDbEntity
  8
GUIDE
  0
LINE
  5
481
330
18
100
AcDbEntity
  8
GUIDE
100
AcDbLine
 10
245.678188
 20
37.81724
 30
0.0
 11
245.678188
 21
30.16724
 31
0.0
  0
ARC
  5
482
330
18
100
AcDbEntity
  8
GUIDE
100
AcDbCircle
 10
250.949499
 20
38.075735
 30
0.0
 40
5.277645
100
AcDbArc
 50
128.304663
 51
182.807428
  0
ARC
  5
483
330
18
100
AcDbEntity
  8
GUIDE
100
AcDbCircle
 10
250.949499
 20
16.258745
 30
0.0
 40
5.277645
100
AcDbArc
 50
177.192572
 51
231.695337
  0
LINE
  5
484
330
18
100
AcDbEntity
  8
GUIDE
100
AcDbLine
 10
240.253188
 20
9.66724
 30
0.0
 11
240.253188
 21
44.66724
 31
0.0
  0
ARC
  5
485
330
18
100
AcDbEntity
  8
GUIDE
100
AcDbCircle
 10
239.940688
 20
45.91724
 30
0.0
 40
1.8125
100
AcDbArc
 50
316.397181
 51
43.602819
  0
LINE
  5
486
330
18
100
AcDbEntity
  8
GUIDE
100
AcDbLine
 10
241.253188
 20
47.16724
 30
0.0
 11
240.253188
 21
47.16724
 31
0.0
  0
LINE
  5
487
330
18
100
AcDbEntity
  8
GUIDE
100
AcDbLine
 10
241.253188
 20
44.66724
 30
0.0
 11
240.253188
 21
44.66724
 31
0.0
  0
LINE
  5
488
330
18
100
AcDbEntity
  8
GUIDE
100
AcDbLine
 10
241.253188
 20
9.66724
 30
0.0
 11
240.253188
 21
9.66724
 31
0.0
  0
LINE
  5
489
330
18
100
AcDbEntity
  8
GUIDE
100
AcDbLine
 10
241.253188
 20
7.16724
 30
0.0
 11
240.253188
 21
7.16724
 31
0.0
  0
ARC
  5
48A
330
18
100
AcDbEntity
  8
GUIDE
100
AcDbCircle
 10
239.940688
 20
8.41724
 30
0.0
 40
1.8125
100
AcDbArc
 50
316.397181
 51
43.602819
  0
POLYLINE
  5
48B
330
18
100
AcDbEntity
  8
GUIDE
100
AcDb2dPolyline
 66
     1
 10
0.0
 20
0.0
 30
0.0
  0
VERTEX
  5
661
330
48B
100
AcDbEntity
  8
GUIDE
100
AcDbVertex
100
AcDb2dVertex
 10
269.853188
 20
49.21724
 30
0.0
  0
VERTEX
  5
662
330
48B
100
AcDbEntity
  8
GUIDE
100
AcDbVertex
100
AcDb2dVertex
 10
269.853188
 20
43.21724
 30
0.0
 42
-0.414214
  0
VERTEX
  5
663
330
48B
100
AcDbEntity
  8
GUIDE
100
AcDbVertex
100
AcDb2dVertex
 10
268.853188
 20
42.21724
 30
0.0
  0
VERTEX
  5
664
330
48B
100
AcDbEntity
  8
GUIDE
100
AcDbVertex
100
AcDb2dVertex
 10
247.678188
 20
42.21724
 30
0.0
  0
SEQEND
  5
660
330
48B
100
AcDbEntity
  8
GUIDE
  0
POLYLINE
  5
491
330
18
100
AcDbEntity
  8
GUIDE
100
AcDb2dPolyline
 66
     1
 10
0.0
 20
0.0
 30
0.0
  0
VERTEX
  5
666
330
491
100
AcDbEntity
  8
GUIDE
100
AcDbVertex
100
AcDb2dVertex
 10
247.678188
 20
12.11724
 30
0.0
  0
VERTEX
  5
667
330
491
100
AcDbEntity
  8
GUIDE
100
AcDbVertex
100
AcDb2dVertex
 10
268.853188
 20
12.11724
 30
0.0
 42
-0.365938
  0
VERTEX
  5
668
330
491
100
AcDbEntity
  8
GUIDE
100
AcDbVertex
100
AcDb2dVertex
 10
269.853188
 20
10.86724
 30
0.0
  0
VERTEX
  5
669
330
491
100
AcDbEntity
  8
GUIDE
100
AcDbVertex
100
AcDb2dVertex
 10
269.853188
 20
5.11724
 30
0.0
  0
SEQEND
  5
665
330
491
100
AcDbEntity
  8
GUIDE
  0
POLYLINE
  5
497
330
18
100
AcDbEntity
  8
GUIDE
100
AcDb2dPolyline
 66
     1
 10
0.0
 20
0.0
 30
0.0
 70
     1
  0
VERTEX
  5
66B
330
497
100
AcDbEntity
  8
GUIDE
100
AcDbVertex
100
AcDb2dVertex
 10
252.353188
 20
29.41724
 30
0.0
  0
VERTEX
  5
66C
330
497
100
AcDbEntity
  8
GUIDE
100
AcDbVertex
100
AcDb2dVertex
 10
252.353188
 20
37.41724
 30
0.0
  0
VERTEX
  5
66D
330
497
100
AcDbEntity
  8
GUIDE
100
AcDbVertex
100
AcDb2dVertex
 10
272.853188
 20
37.41724
 30
0.0
  0
VERTEX
  5
66E
330
497
100
AcDbEntity
  8
GUIDE
100
AcDbVertex
100
AcDb2dVertex
 10
272.853188
 20
29.41724
 30
0.0
  0
SEQEND
  5
66A
330
497
100
AcDbEntity
  8
GUIDE
  0
LINE
  5
49D
330
18
100
AcDbEntity
  8
GUIDE
100
AcDbLine
 10
219.278188
 20
54.71724
 30
0.0
 11
219.278188
 21
49.16724
 31
0.0
  0
LINE
  5
49E
330
18
100
AcDbEntity
  8
GUIDE
100
AcDbLine
 10
243.447445
 20
54.71724
 30
0.0
 11
219.278188
 21
54.71724
 31
0.0
  0
LINE
  5
49F
330
18
100
AcDbEntity
  8
GUIDE
100
AcDbLine
 10
219.278188
 20
-0.38276
 30
0.0
 11
243.447445
 21
-0.38276
 31
0.0
  0
LINE
  5
4A0
330
18
100
AcDbEntity
  8
GUIDE
100
AcDbLine
 10
219.278188
 20
-0.38276
 30
0.0
 11
243.447445
 21
-0.38276
 31
0.0
  0
LINE
  5
4A1
330
18
100
AcDbEntity
  8
GUIDE
100
AcDbLine
 10
269.853188
 20
49.21724
 30
0.0
 11
247.678188
 21
49.21724
 31
0.0
  0
LINE
  5
4A2
330
18
100
AcDbEntity
  8
GUIDE
100
AcDbLine
 10
269.853188
 20
5.11724
 30
0.0
 11
247.678188
 21
5.11724
 31
0.0
  0
LINE
  5
4A3
330
18
100
AcDbEntity
  8
GUIDE
100
AcDbLine
 10
247.678188
 20
49.21724
 30
0.0
 11
243.447445
 21
54.71724
 31
0.0
  0
LINE
  5
4A4
330
18
100
AcDbEntity
  8
GUIDE
100
AcDbLine
 10
247.678188
 20
5.11724
 30
0.0
 11
243.447445
 21
-0.38276
 31
0.0
  0
LINE
  5
4A5
330
18
100
AcDbEntity
  8
GUIDE
100
AcDbLine
 10
225.328188
 20
7.16724
 30
0.0
 11
225.328188
 21
47.16724
 31
0.0
  0
LINE
  5
4A6
330
18
100
AcDbEntity
  8
GUIDE
100
AcDbLine
 10
240.253188
 20
47.16724
 30
0.0
 11
221.278188
 21
47.16724
 31
0.0
  0
LINE
  5
4A7
330
18
100
AcDbEntity
  8
GUIDE
100
AcDbLine
 10
221.278188
 20
7.16724
 30
0.0
 11
240.253188
 21
7.16724
 31
0.0
  0
LINE
  5
4A8
330
18
100
AcDbEntity
  8
GUIDE
100
AcDbLine
 10
219.278188
 20
5.16724
 30
0.0
 11
219.278188
 21
-0.38276
 31
0.0
  0
ARC
  5
4A9
330
18
100
AcDbEntity
  8
GUIDE
100
AcDbCircle
 10
245.678188
 20
27.16724
 30
0.0
 40
3.0
100
AcDbArc
 50
90.0
 51
270.0
  0
LINE
  5
4AA
330
18
100
AcDbEntity
  8
GUIDE
100
AcDbLine
 10
245.678188
 20
24.16724
 30
0.0
 11
245.678188
 21
16.51724
 31
0.0
  0
POLYLINE
  5
4AB
330
18
100
AcDbEntity
  8
GUIDE
100
AcDb2dPolyline
 66
     1
 10
0.0
 20
0.0
 30
0.0
 70
     1
  0
VERTEX
  5
670
330
4AB
100
AcDbEntity
  8
GUIDE
100
AcDbVertex
100
AcDb2dVertex
 10
257.103188
 20
37.41724
 30
0.0
  0
VERTEX
  5
671
330
4AB
100
AcDbEntity
  8
GUIDE
100
AcDbVertex
100
AcDb2dVertex
 10
257.103188
 20
40.41724
 30
0.0
  0
VERTEX
  5
672
330
4AB
100
AcDbEntity
  8
GUIDE
100
AcDbVertex
100
AcDb2dVertex
 10
268.103188
 20
40.41724
 30
0.0
  0
VERTEX
  5
673
330
4AB
100
AcDbEntity
  8
GUIDE
100
AcDbVertex
100
AcDb2dVertex
 10
268.103188
 20
37.41724
 30
0.0
  0
SEQEND
  5
66F
330
4AB
100
AcDbEntity
  8
GUIDE
  0
POLYLINE
  5
4B1
330
18
100
AcDbEntity
  8
GUIDE
100
AcDb2dPolyline
 66
     1
 10
0.0
 20
0.0
 30
0.0
 70
     1
  0
VERTEX
  5
675
330
4B1
100
AcDbEntity
  8
GUIDE
100
AcDbVertex
100
AcDb2dVertex
 10
257.103188
 20
13.91724
 30
0.0
  0
VERTEX
  5
676
330
4B1
100
AcDbEntity
  8
GUIDE
100
AcDbVertex
100
AcDb2dVertex
 10
257.103188
 20
29.41724
 30
0.0
  0
VERTEX
  5
677
330
4B1
100
AcDbEntity
  8
GUIDE
100
AcDbVertex
100
AcDb2dVertex
 10
268.103188
 20
29.41724
 30
0.0
  0
VERTEX
  5
678
330
4B1
100
AcDbEntity
  8
GUIDE
100
AcDbVertex
100
AcDb2dVertex
 10
268.103188
 20
13.91724
 30
0.0
  0
SEQEND
  5
674
330
4B1
100
AcDbEntity
  8
GUIDE
  0
POLYLINE
  5
4B7
330
18
100
AcDbEntity
  8
GUIDE
100
AcDb2dPolyline
 66
     1
 10
0.0
 20
0.0
 30
0.0
 70
     1
  0
VERTEX
  5
67A
330
4B7
100
AcDbEntity
  8
GUIDE
100
AcDbVertex
100
AcDb2dVertex
 10
259.603188
 20
12.11724
 30
0.0
  0
VERTEX
  5
67B
330
4B7
100
AcDbEntity
  8
GUIDE
100
AcDbVertex
100
AcDb2dVertex
 10
259.603188
 20
13.91724
 30
0.0
  0
VERTEX
  5
67C
330
4B7
100
AcDbEntity
  8
GUIDE
100
AcDbVertex
100
AcDb2dVertex
 10
265.603188
 20
13.91724
 30
0.0
  0
VERTEX
  5
67D
330
4B7
100
AcDbEntity
  8
GUIDE
100
AcDbVertex
100
AcDb2dVertex
 10
265.603188
 20
12.11724
 30
0.0
  0
SEQEND
  5
679
330
4B7
100
AcDbEntity
  8
GUIDE
  0
ARC
  5
4BD
330
18
100
AcDbEntity
  8
GUIDE
100
AcDbCircle
 10
221.278188
 20
5.16724
 30
0.0
 40
2.0
100
AcDbArc
 50
90.0
 51
180.0
  0
ARC
  5
4BE
330
18
100
AcDbEntity
  8
GUIDE
100
AcDbCircle
 10
221.278188
 20
49.16724
 30
0.0
 40
2.0
100
AcDbArc
 50
180.0
 51
270.0
  0
POLYLINE
  5
4BF
330
18
100
AcDbEntity
  8
GUIDE
100
AcDb2dPolyline
 66
     1
 10
0.0
 20
0.0
 30
0.0
  0
VERTEX
  5
67F
330
4BF
100
AcDbEntity
  8
GUIDE
100
AcDbVertex
100
AcDb2dVertex
 10
252.353188
 20
24.11724
 30
0.0
  0
VERTEX
  5
680
330
4BF
100
AcDbEntity
  8
GUIDE
100
AcDbVertex
100
AcDb2dVertex
 10
252.353188
 20
16.11724
 30
0.0
  0
VERTEX
  5
681
330
4BF
100
AcDbEntity
  8
GUIDE
100
AcDbVertex
100
AcDb2dVertex
 10
257.103188
 20
16.11724
 30
0.0
  0
SEQEND
  5
67E
330
4BF
100
AcDbEntity
  8
GUIDE
  0
POLYLINE
  5
4C4
330
18
100
AcDbEntity
  8
GUIDE
100
AcDb2dPolyline
 66
     1
 10
0.0
 20
0.0
 30
0.0
  0
VERTEX
  5
683
330
4C4
100
AcDbEntity
  8
GUIDE
100
AcDbVertex
100
AcDb2dVertex
 10
268.103188
 20
16.11724
 30
0.0
  0
VERTEX
  5
684
330
4C4
100
AcDbEntity
  8
GUIDE
100
AcDbVertex
100
AcDb2dVertex
 10
272.853188
 20
16.11724
 30
0.0
  0
VERTEX
  5
685
330
4C4
100
AcDbEntity
  8
GUIDE
100
AcDbVertex
100
AcDb2dVertex
 10
272.853188
 20
24.11724
 30
0.0
  0
VERTEX
  5
686
330
4C4
100
AcDbEntity
  8
GUIDE
100
AcDbVertex
100
AcDb2dVertex
 10
268.103188
 20
24.11724
 30
0.0
  0
SEQEND
  5
682
330
4C4
100
AcDbEntity
  8
GUIDE
  0
POLYLINE
  5
4CA
330
18
100
AcDbEntity
  8
GUIDE
100
AcDb2dPolyline
 66
     1
 10
0.0
 20
0.0
 30
0.0
  0
VERTEX
  5
688
330
4CA
100
AcDbEntity
  8
GUIDE
100
AcDbVertex
100
AcDb2dVertex
 10
257.103188
 20
24.11724
 30
0.0
  0
VERTEX
  5
689
330
4CA
100
AcDbEntity
  8
GUIDE
100
AcDbVertex
100
AcDb2dVertex
 10
252.353188
 20
24.11724
 30
0.0
  0
SEQEND
  5
687
330
4CA
100
AcDbEntity
  8
GUIDE
  0
POLYLINE
  5
4CE
330
18
100
AcDbEntity
  8
GUIDE
100
AcDb2dPolyline
 66
     1
 10
0.0
 20
0.0
 30
0.0
  0
VERTEX
  5
68B
330
4CE
100
AcDbEntity
  8
GUIDE
100
AcDbVertex
100
AcDb2dVertex
 10
231.678188
 20
7.16724
 30
0.0
  0
VERTEX
  5
68C
330
4CE
100
AcDbEntity
  8
GUIDE
100
AcDbVertex
100
AcDb2dVertex
 10
231.678188
 20
47.16724
 30
0.0
  0
SEQEND
  5
68A
330
4CE
100
AcDbEntity
  8
GUIDE
  0
ENDSEC
  0
SECTION
  2
OBJECTS
  0
DICTIONARY
  5
C
330
0
100
AcDbDictionary
  3
ACAD_GROUP
350
D
  3
ACAD_LAYOUT
350
4D3
  3
ACAD_MLINESTYLE
350
E
1001
ACAD
1000
TREAT_AS_HARD
1070
     0
  0
DICTIONARY
  5
68D
330
4D2
100
AcDbDictionary
  3
ACAD_XREC_ROUNDTRIP
360
68E
  0
DICTIONARY
  5
D
102
{ACAD_REACTORS
330
C
102
}
330
C
100
AcDbDictionary
1001
ACAD
1000
TREAT_AS_HARD
1070
     0
  0
DICTIONARY
  5
4D3
102
{ACAD_REACTORS
330
C
102
}
330
C
100
AcDbDictionary
1001
ACAD
1000
TREAT_AS_HARD
1070
     0
  0
DICTIONARY
  5
E
102
{ACAD_REACTORS
330
C
102
}
330
C
100
AcDbDictionary
  3
STANDARD
350
1B
1001
ACAD
1000
TREAT_AS_HARD
1070
     0
  0
XRECORD
  5
68E
102
{ACAD_REACTORS
330
68D
102
}
330
68D
100
AcDbXrecord
102
UCS
 74
     0
 71
     1
 10
0.0
 20
0.0
 30
0.0
 10
1.0
 20
0.0
 30
0.0
 10
0.0
 20
1.0
 30
0.0
146
0.0
 79
     0
102
VIEW
281
     0
  0
MLINESTYLE
  5
1B
102
{ACAD_REACTORS
330
E
102
}
330
E
100
AcDbMlineStyle
  2
STANDARD
 70
     0
  3

 62
     0
 51
90.0
 52
90.0
 71
     2
 49
0.5
 62
   256
  6
BYLAYER
 49
-0.5
 62
   256
  6
BYLAYER
  0
ENDSEC
  0
EOF
