  0
SECTION
  2
HEADER
  9
$ACADVER
  1
AC1009
  9
$DWGCODEPAGE
  3
ansi_1252
  9
$INSBASE
 10
0.0
 20
0.0
 30
0.0
  9
$EXTMIN
 10
-1557.8667
 20
-2261.5128
 30
0.0
  9
$EXTMAX
 10
1557.8667
 20
2261.5128
 30
0.0
  9
$LIMMIN
 10
0.0
 20
0.0
  9
$LIMMAX
 10
12.0
 20
9.0
  9
$ORTHOMODE
 70
     0
  9
$REGENMODE
 70
     1
  9
$FILLMODE
 70
     1
  9
$QTEXTMODE
 70
     0
  9
$MIRRTEXT
 70
     1
  9
$DRAGMODE
 70
     2
  9
$LTSCALE
 40
16.416357
  9
$OSMODE
 70
    37
  9
$ATTMODE
 70
     1
  9
$TEXTSIZE
 40
0.2
  9
$TRACEWID
 40
0.05
  9
$TEXTSTYLE
  7
STANDARD
  9
$CLAYER
  8
0
  9
$CELTYPE
  6
BYBLOCK
  9
$CECOLOR
 62
   256
  9
$DIMSCALE
 40
1.0
  9
$DIMASZ
 40
0.18
  9
$DIMEXO
 40
0.0625
  9
$DIMDLI
 40
0.38
  9
$DIMRND
 40
0.0
  9
$DIMDLE
 40
0.0
  9
$DIMEXE
 40
0.18
  9
$DIMTP
 40
0.0
  9
$DIMTM
 40
0.0
  9
$DIMTXT
 40
0.18
  9
$DIMCEN
 40
0.09
  9
$DIMTSZ
 40
0.0
  9
$DIMTOL
 70
     0
  9
$DIMLIM
 70
     0
  9
$DIMTIH
 70
     1
  9
$DIMTOH
 70
     1
  9
$DIMSE1
 70
     0
  9
$DIMSE2
 70
     0
  9
$DIMTAD
 70
     0
  9
$DIMZIN
 70
     0
  9
$DIMBLK
  1

  9
$DIMASO
 70
     1
  9
$DIMSHO
 70
     1
  9
$DIMPOST
  1

  9
$DIMAPOST
  1

  9
$DIMALT
 70
     0
  9
$DIMALTD
 70
     2
  9
$DIMALTF
 40
25.4
  9
$DIMLFAC
 40
1.0
  9
$DIMTOFL
 70
     0
  9
$DIMTVP
 40
0.0
  9
$DIMTIX
 70
     0
  9
$DIMSOXD
 70
     0
  9
$DIMSAH
 70
     0
  9
$DIMBLK1
  1

  9
$DIMBLK2
  1

  9
$DIMSTYLE
  2
STANDARD
  9
$DIMCLRD
 70
     0
  9
$DIMCLRE
 70
     0
  9
$DIMCLRT
 70
     0
  9
$DIMTFAC
 40
1.0
  9
$DIMGAP
 40
0.09
  9
$LUNITS
 70
     2
  9
$LUPREC
 70
     4
  9
$SKETCHINC
 40
0.1
  9
$FILLETRAD
 40
0.5
  9
$AUNITS
 70
     0
  9
$AUPREC
 70
     0
  9
$MENU
  1
.
  9
$ELEVATION
 40
0.0
  9
$PELEVATION
 40
0.0
  9
$THICKNESS
 40
0.0
  9
$LIMCHECK
 70
     0
  9
$CHAMFERA
 40
0.5
  9
$CHAMFERB
 40
0.5
  9
$SKPOLY
 70
     0
  9
$TDCREATE
 40
2453619.496228912
  9
$TDUPDATE
 40
2453619.496228924
  9
$TDINDWG
 40
0.0000000116
  9
$TDUSRTIMER
 40
0.0000000116
  9
$USRTIMER
 70
     1
  9
$ANGBASE
 50
0.0
  9
$ANGDIR
 70
     0
  9
$PDMODE
 70
     0
  9
$PDSIZE
 40
0.0
  9
$PLINEWID
 40
0.0
  9
$COORDS
 70
     1
  9
$SPLFRAME
 70
     0
  9
$SPLINETYPE
 70
     6
  9
$SPLINESEGS
 70
     8
  9
$ATTDIA
 70
     0
  9
$ATTREQ
 70
     1
  9
$HANDLING
 70
     1
  9
$HANDSEED
  5
280
  9
$SURFTAB1
 70
     6
  9
$SURFTAB2
 70
     6
  9
$SURFTYPE
 70
     6
  9
$SURFU
 70
     6
  9
$SURFV
 70
     6
  9
$UCSNAME
  2

  9
$UCSORG
 10
0.0
 20
0.0
 30
0.0
  9
$UCSXDIR
 10
1.0
 20
0.0
 30
0.0
  9
$UCSYDIR
 10
0.0
 20
1.0
 30
0.0
  9
$PUCSNAME
  2

  9
$PUCSORG
 10
0.0
 20
0.0
 30
0.0
  9
$PUCSXDIR
 10
1.0
 20
0.0
 30
0.0
  9
$PUCSYDIR
 10
0.0
 20
1.0
 30
0.0
  9
$USERI1
 70
     0
  9
$USERI2
 70
     0
  9
$USERI3
 70
     0
  9
$USERI4
 70
     0
  9
$USERI5
 70
     0
  9
$USERR1
 40
0.0
  9
$USERR2
 40
0.0
  9
$USERR3
 40
0.0
  9
$USERR4
 40
0.0
  9
$USERR5
 40
0.0
  9
$WORLDVIEW
 70
     1
  9
$SHADEDGE
 70
     3
  9
$SHADEDIF
 70
    70
  9
$TILEMODE
 70
     1
  9
$MAXACTVP
 70
    64
  9
$PLIMCHECK
 70
     0
  9
$PEXTMIN
 10
1.000000000000000E+20
 20
1.000000000000000E+20
 30
1.000000000000000E+20
  9
$PEXTMAX
 10
-1.000000000000000E+20
 20
-1.000000000000000E+20
 30
-1.000000000000000E+20
  9
$PLIMMIN
 10
0.0
 20
0.0
  9
$PLIMMAX
 10
12.0
 20
9.0
  9
$UNITMODE
 70
     0
  9
$VISRETAIN
 70
     1
  9
$PLINEGEN
 70
     0
  9
$PSLTSCALE
 70
     1
  0
ENDSEC
  0
SECTION
  2
TABLES
  0
TABLE
  2
VPORT
 70
     1
  0
VPORT
  2
*ACTIVE
 70
     0
 10
0.0
 20
0.0
 11
1.0
 21
1.0
 12
10.42990654205607
 22
4.5
 13
0.0
 23
0.0
 14
0.5
 24
0.5
 15
0.5
 25
0.5
 16
0.0
 26
0.0
 36
1.0
 17
0.0
 27
0.0
 37
0.0
 40
9.0
 41
1.972972972850329
 42
50.0
 43
0.0
 44
0.0
 50
0.0
 51
0.0
 71
     0
 72
   100
 73
     1
 74
     3
 75
     0
 76
     0
 77
     0
 78
     0
  0
ENDTAB
  0
TABLE
  2
LTYPE
 70
     9
  0
LTYPE
  2
CONTINUOUS
 70
     0
  3
Solid Line
 72
    65
 73
     0
 40
0.0
  0
LTYPE
  2
MCDASH1
 70
     0
  3
MiniCad+ Generated
 72
    65
 73
     2
 40
6.025989000000001
 49
4.017197
 49
-2.008792
  0
LTYPE
  2
MCDASH2
 70
     0
  3
MiniCad+ Generated
 72
    65
 73
     2
 40
12.051978
 49
8.034781000000001
 49
-4.017197
  0
LTYPE
  2
MCDASH3
 70
     0
  3
MiniCad+ Generated
 72
    65
 73
     4
 40
32.137962
 49
20.086371
 49
-4.017197
 49
4.017197
 49
-4.017197
  0
LTYPE
  2
MCDASH4
 70
     0
  3
MiniCad+ Generated
 72
    65
 73
     6
 40
40.172356
 49
20.086371
 49
-4.017197
 49
4.017197
 49
-4.017197
 49
4.017197
 49
-4.017197
  0
LTYPE
  2
MCDASH5
 70
     0
  3
MiniCad+ Generated
 72
    65
 73
     2
 40
4.017197
 49
0.000388
 49
-4.016809
  0
LTYPE
  2
MCDASH6
 70
     0
  3
MiniCad+ Generated
 72
    65
 73
     4
 40
16.069175
 49
8.034781000000001
 49
-4.017197
 49
0.000388
 49
-4.016809
  0
LTYPE
  2
MCDASH7
 70
     0
  3
MiniCad+ Generated
 72
    65
 73
     6
 40
28.121153
 49
8.034781000000001
 49
-4.017197
 49
8.034781000000001
 49
-4.017197
 49
0.000388
 49
-4.016809
  0
LTYPE
  2
MCDASH8
 70
     0
  3
MiniCad+ Generated
 72
    65
 73
     6
 40
20.086372
 49
8.034781000000001
 49
-4.017197
 49
0.000388
 49
-4.016809
 49
0.000388
 49
-4.016809
  0
ENDTAB
  0
TABLE
  2
LAYER
 70
     2
  0
LAYER
  2
0
 70
     0
 62
     7
  6
CONTINUOUS
  0
LAYER
  2
LUCIDO-1
 70
     0
 62
     7
  6
CONTINUOUS
  0
ENDTAB
  0
TABLE
  2
STYLE
 70
     1
  0
STYLE
  2
STANDARD
 70
     0
 40
0.0
 41
1.0
 50
0.0
 71
     0
 42
0.2
  3
txt
  4

  0
ENDTAB
  0
TABLE
  2
VIEW
 70
     0
  0
ENDTAB
  0
TABLE
  2
UCS
 70
     0
  0
ENDTAB
  0
TABLE
  2
APPID
 70
     1
  0
APPID
  2
ACAD
 70
     0
  0
ENDTAB
  0
TABLE
  2
DIMSTYLE
 70
     1
  0
DIMSTYLE
  2
STANDARD
 70
     0
  3

  4

  5

  6

  7

 40
1.0
 41
0.18
 42
0.0625
 43
0.38
 44
0.18
 45
0.0
 46
0.0
 47
0.0
 48
0.0
140
0.18
141
0.09
142
0.0
143
25.4
144
1.0
145
0.0
146
1.0
147
0.09
 71
     0
 72
     0
 73
     1
 74
     1
 75
     0
 76
     0
 77
     0
 78
     0
170
     0
171
     2
172
     0
173
     0
174
     0
175
     0
176
     0
177
     0
178
     0
  0
ENDTAB
  0
ENDSEC
  0
SECTION
  2
BLOCKS
  0
BLOCK
  8
0
  2
$MODEL_SPACE
 70
     0
 10
0.0
 20
0.0
 30
0.0
  3
$MODEL_SPACE
  1

  0
ENDBLK
  5
27B
  8
0
  0
BLOCK
 67
     1
  8
0
  2
$PAPER_SPACE
 70
     0
 10
0.0
 20
0.0
 30
0.0
  3
$PAPER_SPACE
  1

  0
ENDBLK
  5
279
 67
     1
  8
0
  0
BLOCK
  8
0
  2
$ARROW1$
 70
     0
 10
0.0
 20
0.0
 30
0.0
  3
$ARROW1$
  1

  0
POLYLINE
  5
2E
  8
0
 66
     1
 10
0.0
 20
0.0
 30
0.0
 70
     1
  0
VERTEX
  5
149
  8
0
 10
-25.4
 20
4.318
 30
0.0
  0
VERTEX
  5
14A
  8
0
 10
-25.4
 20
-4.318
 30
0.0
  0
VERTEX
  5
14B
  8
0
 10
0.0
 20
0.0
 30
0.0
  0
SEQEND
  5
246
  8
0
  0
ENDBLK
  5
248
  8
0
  0
BLOCK
  8
0
  2
$ARROW2$
 70
     0
 10
0.0
 20
0.0
 30
0.0
  3
$ARROW2$
  1

  0
POLYLINE
  5
36
  8
0
 66
     1
 10
0.0
 20
0.0
 30
0.0
 70
     1
  0
VERTEX
  5
14D
  8
0
 10
-25.4
 20
12.7
 30
0.0
  0
VERTEX
  5
14E
  8
0
 10
-25.4
 20
-12.7
 30
0.0
  0
VERTEX
  5
14F
  8
0
 10
0.0
 20
0.0
 30
0.0
  0
SEQEND
  5
249
  8
0
  0
ENDBLK
  5
24B
  8
0
  0
BLOCK
  8
0
  2
$ARROW3$
 70
     0
 10
0.0
 20
0.0
 30
0.0
  3
$ARROW3$
  1

  0
POLYLINE
  5
3E
  8
0
 66
     1
 10
0.0
 20
0.0
 30
0.0
 70
     1
  0
VERTEX
  5
151
  8
0
 10
-6.35
 20
0.0
 30
0.0
  0
VERTEX
  5
152
  8
0
 10
-6.2535
 20
-1.1028
 30
0.0
  0
VERTEX
  5
153
  8
0
 10
-5.967
 20
-2.172
 30
0.0
  0
VERTEX
  5
154
  8
0
 10
-5.4992
 20
-3.1751
 30
0.0
  0
VERTEX
  5
155
  8
0
 10
-4.8643
 20
-4.0818
 30
0.0
  0
VERTEX
  5
156
  8
0
 10
-4.0816
 20
-4.8644
 30
0.0
  0
VERTEX
  5
157
  8
0
 10
-3.175
 20
-5.4993
 30
0.0
  0
VERTEX
  5
158
  8
0
 10
-2.1718
 20
-5.9671
 30
0.0
  0
VERTEX
  5
159
  8
0
 10
-1.1026
 20
-6.2535
 30
0.0
  0
VERTEX
  5
15A
  8
0
 10
0.0001
 20
-6.35
 30
0.0
  0
VERTEX
  5
15B
  8
0
 10
0.0
 20
-6.35
 30
0.0
  0
VERTEX
  5
15C
  8
0
 10
1.1027
 20
-6.2535
 30
0.0
  0
VERTEX
  5
15D
  8
0
 10
2.1719
 20
-5.967
 30
0.0
  0
VERTEX
  5
15E
  8
0
 10
3.175
 20
-5.4992
 30
0.0
  0
VERTEX
  5
15F
  8
0
 10
4.0817
 20
-4.8644
 30
0.0
  0
VERTEX
  5
160
  8
0
 10
4.8644
 20
-4.0816
 30
0.0
  0
VERTEX
  5
161
  8
0
 10
5.4993
 20
-3.175
 30
0.0
  0
VERTEX
  5
162
  8
0
 10
5.9671
 20
-2.1718
 30
0.0
  0
VERTEX
  5
163
  8
0
 10
6.2535
 20
-1.1026
 30
0.0
  0
VERTEX
  5
164
  8
0
 10
6.35
 20
0.0
 30
0.0
  0
VERTEX
  5
165
  8
0
 10
6.2535
 20
1.1026
 30
0.0
  0
VERTEX
  5
166
  8
0
 10
5.967
 20
2.1719
 30
0.0
  0
VERTEX
  5
167
  8
0
 10
5.4992
 20
3.175
 30
0.0
  0
VERTEX
  5
168
  8
0
 10
4.8644
 20
4.0817
 30
0.0
  0
VERTEX
  5
169
  8
0
 10
4.0817
 20
4.8644
 30
0.0
  0
VERTEX
  5
16A
  8
0
 10
3.175
 20
5.4992
 30
0.0
  0
VERTEX
  5
16B
  8
0
 10
2.1718
 20
5.9671
 30
0.0
  0
VERTEX
  5
16C
  8
0
 10
1.1026
 20
6.2535
 30
0.0
  0
VERTEX
  5
16D
  8
0
 10
0.0
 20
6.35
 30
0.0
  0
VERTEX
  5
16E
  8
0
 10
-1.1026
 20
6.2535
 30
0.0
  0
VERTEX
  5
16F
  8
0
 10
-2.1719
 20
5.967
 30
0.0
  0
VERTEX
  5
170
  8
0
 10
-3.175
 20
5.4992
 30
0.0
  0
VERTEX
  5
171
  8
0
 10
-4.0817
 20
4.8644
 30
0.0
  0
VERTEX
  5
172
  8
0
 10
-4.8644
 20
4.0817
 30
0.0
  0
VERTEX
  5
173
  8
0
 10
-5.4993
 20
3.175
 30
0.0
  0
VERTEX
  5
174
  8
0
 10
-5.9671
 20
2.1718
 30
0.0
  0
VERTEX
  5
175
  8
0
 10
-6.2535
 20
1.1026
 30
0.0
  0
VERTEX
  5
176
  8
0
 10
-6.35
 20
0.0
 30
0.0
  0
SEQEND
  5
24C
  8
0
  0
ENDBLK
  5
24E
  8
0
  0
BLOCK
  8
0
  2
$ARROW4$
 70
     0
 10
0.0
 20
0.0
 30
0.0
  3
$ARROW4$
  1

  0
LINE
  5
69
  8
0
 10
12.7
 20
12.7
 30
0.0
 11
-12.7
 21
-12.7
 31
0.0
  0
ENDBLK
  5
250
  8
0
  0
BLOCK
  8
0
  2
$ARROW5$
 70
     0
 10
0.0
 20
0.0
 30
0.0
  3
$ARROW5$
  1

  0
LINE
  5
6D
  8
0
 10
12.7
 20
12.7
 30
0.0
 11
-12.7
 21
-12.7
 31
0.0
  0
LINE
  5
6E
  8
0
 10
-12.7
 20
12.7
 30
0.0
 11
12.7
 21
-12.7
 31
0.0
  0
ENDBLK
  5
252
  8
0
  0
BLOCK
  8
0
  2
63911A
 70
     0
 10
0.0
 20
0.0
 30
0.0
  3
63911A
  1

  0
POLYLINE
  5
72
  8
0
 62
     6
 66
     1
 10
0.0
 20
0.0
 30
0.0
 40
5.003706
 41
5.003706
  0
VERTEX
  5
178
  8
0
 62
     6
 10
0.0
 20
-8.5
 30
0.0
  0
VERTEX
  5
179
  8
0
 62
     6
 10
0.0
 20
8.5
 30
0.0
  0
SEQEND
  5
253
  8
0
 62
     6
  0
POLYLINE
  5
76
  8
0
 62
     6
 66
     1
 10
0.0
 20
0.0
 30
0.0
 40
5.003706
 41
5.003706
  0
VERTEX
  5
17B
  8
0
 62
     6
 10
-1.5
 20
-10.0
 30
0.0
  0
VERTEX
  5
17C
  8
0
 62
     6
 10
-8.5
 20
-10.0
 30
0.0
  0
SEQEND
  5
254
  8
0
 62
     6
  0
POLYLINE
  5
7A
  8
0
 62
     6
 66
     1
 10
0.0
 20
0.0
 30
0.0
 40
5.003706
 41
5.003706
  0
VERTEX
  5
17E
  8
0
 62
     6
 10
-1.5
 20
10.0
 30
0.0
  0
VERTEX
  5
17F
  8
0
 62
     6
 10
-8.5
 20
10.0
 30
0.0
  0
SEQEND
  5
255
  8
0
 62
     6
  0
POLYLINE
  5
7E
  8
0
 62
     6
 66
     1
 10
0.0
 20
0.0
 30
0.0
 40
5.003706
 41
5.003706
  0
VERTEX
  5
181
  8
0
 62
     6
 10
-10.0
 20
-8.5
 30
0.0
  0
VERTEX
  5
182
  8
0
 62
     6
 10
-10.0
 20
-3.6422
 30
0.0
  0
SEQEND
  5
256
  8
0
 62
     6
  0
POLYLINE
  5
82
  8
0
 62
     6
 66
     1
 10
0.0
 20
0.0
 30
0.0
 40
5.003706
 41
5.003706
  0
VERTEX
  5
184
  8
0
 62
     6
 10
-10.0
 20
3.6422
 30
0.0
  0
VERTEX
  5
185
  8
0
 62
     6
 10
-10.0
 20
8.5
 30
0.0
  0
SEQEND
  5
257
  8
0
 62
     6
  0
POLYLINE
  5
86
  8
0
 62
     6
 66
     1
 10
0.0
 20
0.0
 30
0.0
 40
5.003706
 41
5.003706
  0
VERTEX
  5
187
  8
0
 62
     6
 10
-10.0
 20
-8.5
 30
0.0
  0
VERTEX
  5
188
  8
0
 62
     6
 10
-10.0
 20
-8.3666
 30
0.0
  0
SEQEND
  5
258
  8
0
 62
     6
  0
POLYLINE
  5
8A
  8
0
 62
     6
 66
     1
 10
0.0
 20
0.0
 30
0.0
 40
5.003706
 41
5.003706
  0
VERTEX
  5
18A
  8
0
 62
     6
 10
-10.0
 20
8.5
 30
0.0
  0
VERTEX
  5
18B
  8
0
 62
     6
 10
-10.0
 20
8.3666
 30
0.0
  0
SEQEND
  5
259
  8
0
 62
     6
  0
POLYLINE
  5
8E
  8
0
 62
     6
 66
     1
 10
0.0
 20
0.0
 30
0.0
 40
5.003706
 41
5.003706
  0
VERTEX
  5
18D
  8
0
 62
     6
 10
-1.5
 20
-7.75
 30
0.0
  0
VERTEX
  5
18E
  8
0
 62
     6
 10
-1.5
 20
7.75
 30
0.0
  0
SEQEND
  5
25A
  8
0
 62
     6
  0
POLYLINE
  5
92
  8
0
 62
     6
 66
     1
 10
0.0
 20
0.0
 30
0.0
 40
5.003706
 41
5.003706
  0
VERTEX
  5
190
  8
0
 62
     6
 10
-2.25
 20
8.5
 30
0.0
  0
VERTEX
  5
191
  8
0
 62
     6
 10
-7.75
 20
8.5
 30
0.0
  0
SEQEND
  5
25B
  8
0
 62
     6
  0
POLYLINE
  5
96
  8
0
 62
     6
 66
     1
 10
0.0
 20
0.0
 30
0.0
 40
5.003706
 41
5.003706
  0
VERTEX
  5
193
  8
0
 62
     6
 10
-2.25
 20
-8.5
 30
0.0
  0
VERTEX
  5
194
  8
0
 62
     6
 10
-7.75
 20
-8.5
 30
0.0
  0
SEQEND
  5
25C
  8
0
 62
     6
  0
POLYLINE
  5
9A
  8
0
 62
     6
 66
     1
 10
0.0
 20
0.0
 30
0.0
 40
5.003706
 41
5.003706
  0
VERTEX
  5
196
  8
0
 62
     6
 10
-8.5
 20
-7.75
 30
0.0
  0
VERTEX
  5
197
  8
0
 62
     6
 10
-8.5
 20
-3.6422
 30
0.0
  0
SEQEND
  5
25D
  8
0
 62
     6
  0
POLYLINE
  5
9E
  8
0
 62
     6
 66
     1
 10
0.0
 20
0.0
 30
0.0
 40
5.003706
 41
5.003706
  0
VERTEX
  5
199
  8
0
 62
     6
 10
-8.5
 20
3.6422
 30
0.0
  0
VERTEX
  5
19A
  8
0
 62
     6
 10
-8.5
 20
7.75
 30
0.0
  0
SEQEND
  5
25E
  8
0
 62
     6
  0
POLYLINE
  5
A2
  8
0
 62
     6
 66
     1
 10
0.0
 20
0.0
 30
0.0
 40
5.003706
 41
5.003706
  0
VERTEX
  5
19C
  8
0
 62
     6
 10
-1.5
 20
10.0
 30
0.0
  0
VERTEX
  5
19D
  8
0
 62
     6
 10
-1.2395
 20
9.9772
 30
0.0
  0
VERTEX
  5
19E
  8
0
 62
     6
 10
-0.987
 20
9.9095
 30
0.0
  0
VERTEX
  5
19F
  8
0
 62
     6
 10
-0.75
 20
9.799
 30
0.0
  0
VERTEX
  5
1A0
  8
0
 62
     6
 10
-0.5358000000000001
 20
9.649100000000001
 30
0.0
  0
VERTEX
  5
1A1
  8
0
 62
     6
 10
-0.3509
 20
9.4642
 30
0.0
  0
VERTEX
  5
1A2
  8
0
 62
     6
 10
-0.201
 20
9.25
 30
0.0
  0
VERTEX
  5
1A3
  8
0
 62
     6
 10
-0.0905
 20
9.013
 30
0.0
  0
VERTEX
  5
1A4
  8
0
 62
     6
 10
-0.0228
 20
8.7605
 30
0.0
  0
VERTEX
  5
1A5
  8
0
 62
     6
 10
0.0
 20
8.5
 30
0.0
  0
SEQEND
  5
25F
  8
0
 62
     6
  0
POLYLINE
  5
AE
  8
0
 62
     6
 66
     1
 10
0.0
 20
0.0
 30
0.0
 40
5.003706
 41
5.003706
  0
VERTEX
  5
1A7
  8
0
 62
     6
 10
-10.0
 20
8.5
 30
0.0
  0
VERTEX
  5
1A8
  8
0
 62
     6
 10
-9.9772
 20
8.7605
 30
0.0
  0
VERTEX
  5
1A9
  8
0
 62
     6
 10
-9.9095
 20
9.013
 30
0.0
  0
VERTEX
  5
1AA
  8
0
 62
     6
 10
-9.799
 20
9.25
 30
0.0
  0
VERTEX
  5
1AB
  8
0
 62
     6
 10
-9.649100000000001
 20
9.4642
 30
0.0
  0
VERTEX
  5
1AC
  8
0
 62
     6
 10
-9.4642
 20
9.649100000000001
 30
0.0
  0
VERTEX
  5
1AD
  8
0
 62
     6
 10
-9.25
 20
9.799
 30
0.0
  0
VERTEX
  5
1AE
  8
0
 62
     6
 10
-9.013
 20
9.9095
 30
0.0
  0
VERTEX
  5
1AF
  8
0
 62
     6
 10
-8.7605
 20
9.9772
 30
0.0
  0
VERTEX
  5
1B0
  8
0
 62
     6
 10
-8.5
 20
10.0
 30
0.0
  0
SEQEND
  5
260
  8
0
 62
     6
  0
POLYLINE
  5
BA
  8
0
 62
     6
 66
     1
 10
0.0
 20
0.0
 30
0.0
 40
5.003706
 41
5.003706
  0
VERTEX
  5
1B2
  8
0
 62
     6
 10
-8.5
 20
-10.0
 30
0.0
  0
VERTEX
  5
1B3
  8
0
 62
     6
 10
-8.7605
 20
-9.9772
 30
0.0
  0
VERTEX
  5
1B4
  8
0
 62
     6
 10
-9.013
 20
-9.9095
 30
0.0
  0
VERTEX
  5
1B5
  8
0
 62
     6
 10
-9.25
 20
-9.799
 30
0.0
  0
VERTEX
  5
1B6
  8
0
 62
     6
 10
-9.4642
 20
-9.649100000000001
 30
0.0
  0
VERTEX
  5
1B7
  8
0
 62
     6
 10
-9.648999999999999
 20
-9.4642
 30
0.0
  0
VERTEX
  5
1B8
  8
0
 62
     6
 10
-9.799
 20
-9.25
 30
0.0
  0
VERTEX
  5
1B9
  8
0
 62
     6
 10
-9.9095
 20
-9.013
 30
0.0
  0
VERTEX
  5
1BA
  8
0
 62
     6
 10
-9.9772
 20
-8.7605
 30
0.0
  0
VERTEX
  5
1BB
  8
0
 62
     6
 10
-10.0
 20
-8.5
 30
0.0
  0
SEQEND
  5
261
  8
0
 62
     6
  0
POLYLINE
  5
C6
  8
0
 62
     6
 66
     1
 10
0.0
 20
0.0
 30
0.0
 40
5.003706
 41
5.003706
  0
VERTEX
  5
1BD
  8
0
 62
     6
 10
-8.5
 20
3.6422
 30
0.0
  0
VERTEX
  5
1BE
  8
0
 62
     6
 10
-10.0
 20
3.6422
 30
0.0
  0
SEQEND
  5
262
  8
0
 62
     6
  0
POLYLINE
  5
CA
  8
0
 62
     6
 66
     1
 10
0.0
 20
0.0
 30
0.0
 40
5.003706
 41
5.003706
  0
VERTEX
  5
1C0
  8
0
 62
     6
 10
-8.5
 20
-3.6422
 30
0.0
  0
VERTEX
  5
1C1
  8
0
 62
     6
 10
-10.0
 20
-3.6422
 30
0.0
  0
SEQEND
  5
263
  8
0
 62
     6
  0
POLYLINE
  5
CE
  8
0
 62
     6
 66
     1
 10
0.0
 20
0.0
 30
0.0
 40
3.335804
 41
3.335804
  0
VERTEX
  5
1C3
  8
0
 62
     6
 10
-1.5
 20
-7.75
 30
0.0
  0
VERTEX
  5
1C4
  8
0
 62
     6
 10
-1.5114
 20
-7.8802
 30
0.0
  0
VERTEX
  5
1C5
  8
0
 62
     6
 10
-1.5452
 20
-8.006500000000001
 30
0.0
  0
VERTEX
  5
1C6
  8
0
 62
     6
 10
-1.6005
 20
-8.125
 30
0.0
  0
VERTEX
  5
1C7
  8
0
 62
     6
 10
-1.6755
 20
-8.232100000000001
 30
0.0
  0
VERTEX
  5
1C8
  8
0
 62
     6
 10
-1.7679
 20
-8.324500000000001
 30
0.0
  0
VERTEX
  5
1C9
  8
0
 62
     6
 10
-1.875
 20
-8.3995
 30
0.0
  0
VERTEX
  5
1CA
  8
0
 62
     6
 10
-1.9935
 20
-8.454800000000001
 30
0.0
  0
VERTEX
  5
1CB
  8
0
 62
     6
 10
-2.1198
 20
-8.4886
 30
0.0
  0
VERTEX
  5
1CC
  8
0
 62
     6
 10
-2.25
 20
-8.5
 30
0.0
  0
SEQEND
  5
264
  8
0
 62
     6
  0
POLYLINE
  5
DA
  8
0
 62
     6
 66
     1
 10
0.0
 20
0.0
 30
0.0
 40
3.335804
 41
3.335804
  0
VERTEX
  5
1CE
  8
0
 62
     6
 10
-7.75
 20
-8.5
 30
0.0
  0
VERTEX
  5
1CF
  8
0
 62
     6
 10
-7.8802
 20
-8.4886
 30
0.0
  0
VERTEX
  5
1D0
  8
0
 62
     6
 10
-8.006500000000001
 20
-8.454800000000001
 30
0.0
  0
VERTEX
  5
1D1
  8
0
 62
     6
 10
-8.125
 20
-8.3995
 30
0.0
  0
VERTEX
  5
1D2
  8
0
 62
     6
 10
-8.232100000000001
 20
-8.324500000000001
 30
0.0
  0
VERTEX
  5
1D3
  8
0
 62
     6
 10
-8.324500000000001
 20
-8.232100000000001
 30
0.0
  0
VERTEX
  5
1D4
  8
0
 62
     6
 10
-8.3995
 20
-8.125
 30
0.0
  0
VERTEX
  5
1D5
  8
0
 62
     6
 10
-8.454800000000001
 20
-8.006500000000001
 30
0.0
  0
VERTEX
  5
1D6
  8
0
 62
     6
 10
-8.4886
 20
-7.8802
 30
0.0
  0
VERTEX
  5
1D7
  8
0
 62
     6
 10
-8.5
 20
-7.75
 30
0.0
  0
SEQEND
  5
265
  8
0
 62
     6
  0
POLYLINE
  5
E6
  8
0
 62
     6
 66
     1
 10
0.0
 20
0.0
 30
0.0
 40
3.335804
 41
3.335804
  0
VERTEX
  5
1D9
  8
0
 62
     6
 10
-2.25
 20
8.5
 30
0.0
  0
VERTEX
  5
1DA
  8
0
 62
     6
 10
-2.1198
 20
8.4886
 30
0.0
  0
VERTEX
  5
1DB
  8
0
 62
     6
 10
-1.9935
 20
8.454800000000001
 30
0.0
  0
VERTEX
  5
1DC
  8
0
 62
     6
 10
-1.875
 20
8.3995
 30
0.0
  0
VERTEX
  5
1DD
  8
0
 62
     6
 10
-1.7679
 20
8.324500000000001
 30
0.0
  0
VERTEX
  5
1DE
  8
0
 62
     6
 10
-1.6755
 20
8.232100000000001
 30
0.0
  0
VERTEX
  5
1DF
  8
0
 62
     6
 10
-1.6005
 20
8.125
 30
0.0
  0
VERTEX
  5
1E0
  8
0
 62
     6
 10
-1.5452
 20
8.006500000000001
 30
0.0
  0
VERTEX
  5
1E1
  8
0
 62
     6
 10
-1.5114
 20
7.8802
 30
0.0
  0
VERTEX
  5
1E2
  8
0
 62
     6
 10
-1.5
 20
7.75
 30
0.0
  0
SEQEND
  5
266
  8
0
 62
     6
  0
POLYLINE
  5
F2
  8
0
 62
     6
 66
     1
 10
0.0
 20
0.0
 30
0.0
 40
3.335804
 41
3.335804
  0
VERTEX
  5
1E4
  8
0
 62
     6
 10
-8.5
 20
7.75
 30
0.0
  0
VERTEX
  5
1E5
  8
0
 62
     6
 10
-8.4886
 20
7.8802
 30
0.0
  0
VERTEX
  5
1E6
  8
0
 62
     6
 10
-8.454800000000001
 20
8.006500000000001
 30
0.0
  0
VERTEX
  5
1E7
  8
0
 62
     6
 10
-8.3995
 20
8.125
 30
0.0
  0
VERTEX
  5
1E8
  8
0
 62
     6
 10
-8.324500000000001
 20
8.232100000000001
 30
0.0
  0
VERTEX
  5
1E9
  8
0
 62
     6
 10
-8.232100000000001
 20
8.324500000000001
 30
0.0
  0
VERTEX
  5
1EA
  8
0
 62
     6
 10
-8.125
 20
8.3995
 30
0.0
  0
VERTEX
  5
1EB
  8
0
 62
     6
 10
-8.006500000000001
 20
8.454800000000001
 30
0.0
  0
VERTEX
  5
1EC
  8
0
 62
     6
 10
-7.8802
 20
8.4886
 30
0.0
  0
VERTEX
  5
1ED
  8
0
 62
     6
 10
-7.75
 20
8.5
 30
0.0
  0
SEQEND
  5
267
  8
0
 62
     6
  0
POLYLINE
  5
FE
  8
0
 62
     6
 66
     1
 10
0.0
 20
0.0
 30
0.0
 40
3.335804
 41
3.335804
  0
VERTEX
  5
1EF
  8
0
 62
     6
 10
0.0
 20
-8.5
 30
0.0
  0
VERTEX
  5
1F0
  8
0
 62
     6
 10
-0.0228
 20
-8.7605
 30
0.0
  0
VERTEX
  5
1F1
  8
0
 62
     6
 10
-0.0905
 20
-9.013
 30
0.0
  0
VERTEX
  5
1F2
  8
0
 62
     6
 10
-0.201
 20
-9.25
 30
0.0
  0
VERTEX
  5
1F3
  8
0
 62
     6
 10
-0.3509
 20
-9.4642
 30
0.0
  0
VERTEX
  5
1F4
  8
0
 62
     6
 10
-0.5358000000000001
 20
-9.649100000000001
 30
0.0
  0
VERTEX
  5
1F5
  8
0
 62
     6
 10
-0.75
 20
-9.799
 30
0.0
  0
VERTEX
  5
1F6
  8
0
 62
     6
 10
-0.987
 20
-9.9095
 30
0.0
  0
VERTEX
  5
1F7
  8
0
 62
     6
 10
-1.2395
 20
-9.9772
 30
0.0
  0
VERTEX
  5
1F8
  8
0
 62
     6
 10
-1.5
 20
-10.0
 30
0.0
  0
SEQEND
  5
268
  8
0
 62
     6
  0
POLYLINE
  5
10A
  8
0
 62
     6
 66
     1
 10
0.0
 20
0.0
 30
0.0
 40
3.335804
 41
3.335804
  0
VERTEX
  5
1FA
  8
0
 62
     6
 10
1.1
 20
0.0
 30
0.0
  0
VERTEX
  5
1FB
  8
0
 62
     6
 10
-10.0
 20
0.0
 30
0.0
  0
SEQEND
  5
269
  8
0
 62
     6
  0
ENDBLK
  5
26B
  8
0
  0
BLOCK
  8
0
  2
63911B
 70
     0
 10
0.0
 20
0.0
 30
0.0
  3
63911B
  1

  0
POLYLINE
  5
111
  8
0
 62
     6
 66
     1
 10
0.0
 20
0.0
 30
0.0
 40
3.335804
 41
3.335804
  0
VERTEX
  5
1FD
  8
0
 62
     6
 10
0.0
 20
0.0
 30
0.0
  0
VERTEX
  5
1FE
  8
0
 62
     6
 10
3000.0
 20
0.0
 30
0.0
  0
SEQEND
  5
26C
  8
0
 62
     6
  0
POLYLINE
  5
115
  8
0
 62
     6
 66
     1
 10
0.0
 20
0.0
 30
0.0
 40
3.335804
 41
3.335804
  0
VERTEX
  5
200
  8
0
 62
     6
 10
0.0
 20
20.0
 30
0.0
  0
VERTEX
  5
201
  8
0
 62
     6
 10
3000.0
 20
20.0
 30
0.0
  0
SEQEND
  5
26D
  8
0
 62
     6
  0
POLYLINE
  5
119
  8
0
 62
     6
 66
     1
 10
0.0
 20
0.0
 30
0.0
 40
3.335804
 41
3.335804
  0
VERTEX
  5
203
  8
0
 62
     6
 10
0.0
 20
20.0
 30
0.0
  0
VERTEX
  5
204
  8
0
 62
     6
 10
0.0
 20
0.0
 30
0.0
  0
SEQEND
  5
26E
  8
0
 62
     6
  0
POLYLINE
  5
11D
  8
0
 62
     6
 66
     1
 10
0.0
 20
0.0
 30
0.0
 40
3.335804
 41
3.335804
  0
VERTEX
  5
206
  8
0
 62
     6
 10
3000.0
 20
20.0
 30
0.0
  0
VERTEX
  5
207
  8
0
 62
     6
 10
3000.0
 20
0.0
 30
0.0
  0
SEQEND
  5
26F
  8
0
 62
     6
  0
ENDBLK
  5
271
  8
0
  0
BLOCK
  8
0
  2
63911C
 70
     0
 10
0.0
 20
0.0
 30
0.0
  3
63911C
  1

  0
POLYLINE
  5
124
  8
0
 62
     6
 66
     1
 10
0.0
 20
0.0
 30
0.0
 40
3.335804
 41
3.335804
  0
VERTEX
  5
209
  8
0
 62
     6
 10
0.0
 20
10.0
 30
0.0
  0
VERTEX
  5
20A
  8
0
 62
     6
 10
3000.0
 20
10.0
 30
0.0
  0
SEQEND
  5
272
  8
0
 62
     6
  0
POLYLINE
  5
128
  8
0
 62
     6
 66
     1
 10
0.0
 20
0.0
 30
0.0
 40
3.335804
 41
3.335804
  0
VERTEX
  5
20C
  8
0
 62
     6
 10
0.0
 20
0.0
 30
0.0
  0
VERTEX
  5
20D
  8
0
 62
     6
 10
3000.0
 20
0.0
 30
0.0
  0
SEQEND
  5
273
  8
0
 62
     6
  0
POLYLINE
  5
12C
  8
0
 62
     6
 66
     1
 10
0.0
 20
0.0
 30
0.0
 40
3.335804
 41
3.335804
  0
VERTEX
  5
20F
  8
0
 62
     6
 10
0.0
 20
10.0
 30
0.0
  0
VERTEX
  5
210
  8
0
 62
     6
 10
0.0
 20
0.0
 30
0.0
  0
SEQEND
  5
274
  8
0
 62
     6
  0
POLYLINE
  5
130
  8
0
 62
     6
 66
     1
 10
0.0
 20
0.0
 30
0.0
 40
3.335804
 41
3.335804
  0
VERTEX
  5
212
  8
0
 62
     6
 10
3000.0
 20
10.0
 30
0.0
  0
VERTEX
  5
213
  8
0
 62
     6
 10
3000.0
 20
0.0
 30
0.0
  0
SEQEND
  5
275
  8
0
 62
     6
  0
ENDBLK
  5
277
  8
0
  0
ENDSEC
  0
SECTION
  2
ENTITIES
  0
INSERT
  5
135
  8
LUCIDO-1
  2
63911A
 10
-1495.7683
 20
14.25
 30
0.0
  0
INSERT
  5
136
  8
LUCIDO-1
  2
63911B
 10
-1484.2683
 20
4.25
 30
0.0
  0
INSERT
  5
137
  8
LUCIDO-1
  2
63911C
 10
-1484.2683
 20
-24.25
 30
0.0
  0
ENDSEC
  0
EOF
