  0
SECTION
  2
HEADER
  9
$ACADVER
  1
AC1009
  9
$DWGCODEPAGE
  3
ansi_1252
  9
$INSBASE
 10
0.0
 20
0.0
 30
0.0
  9
$EXTMIN
 10
-427.0375
 20
-619.9187500000001
 30
0.0
  9
$EXTMAX
 10
427.0375
 20
619.9187500000001
 30
0.0
  9
$LIMMIN
 10
0.0
 20
0.0
  9
$LIMMAX
 10
12.0
 20
9.0
  9
$ORTHOMODE
 70
     0
  9
$REGENMODE
 70
     1
  9
$FILLMODE
 70
     1
  9
$QTEXTMODE
 70
     0
  9
$MIRRTEXT
 70
     1
  9
$DRAGMODE
 70
     2
  9
$LTSCALE
 40
4.5
  9
$OSMODE
 70
    37
  9
$ATTMODE
 70
     1
  9
$TEXTSIZE
 40
0.2
  9
$TRACEWID
 40
0.05
  9
$TEXTSTYLE
  7
STANDARD
  9
$CLAYER
  8
0
  9
$CELTYPE
  6
BYBLOCK
  9
$CECOLOR
 62
   256
  9
$DIMSCALE
 40
1.0
  9
$DIMASZ
 40
0.18
  9
$DIMEXO
 40
0.0625
  9
$DIMDLI
 40
0.38
  9
$DIMRND
 40
0.0
  9
$DIMDLE
 40
0.0
  9
$DIMEXE
 40
0.18
  9
$DIMTP
 40
0.0
  9
$DIMTM
 40
0.0
  9
$DIMTXT
 40
0.18
  9
$DIMCEN
 40
0.09
  9
$DIMTSZ
 40
0.0
  9
$DIMTOL
 70
     0
  9
$DIMLIM
 70
     0
  9
$DIMTIH
 70
     1
  9
$DIMTOH
 70
     1
  9
$DIMSE1
 70
     0
  9
$DIMSE2
 70
     0
  9
$DIMTAD
 70
     0
  9
$DIMZIN
 70
     0
  9
$DIMBLK
  1

  9
$DIMASO
 70
     1
  9
$DIMSHO
 70
     1
  9
$DIMPOST
  1

  9
$DIMAPOST
  1

  9
$DIMALT
 70
     0
  9
$DIMALTD
 70
     2
  9
$DIMALTF
 40
25.4
  9
$DIMLFAC
 40
1.0
  9
$DIMTOFL
 70
     0
  9
$DIMTVP
 40
0.0
  9
$DIMTIX
 70
     0
  9
$DIMSOXD
 70
     0
  9
$DIMSAH
 70
     0
  9
$DIMBLK1
  1

  9
$DIMBLK2
  1

  9
$DIMSTYLE
  2
STANDARD
  9
$DIMCLRD
 70
     0
  9
$DIMCLRE
 70
     0
  9
$DIMCLRT
 70
     0
  9
$DIMTFAC
 40
1.0
  9
$DIMGAP
 40
0.09
  9
$LUNITS
 70
     2
  9
$LUPREC
 70
     4
  9
$SKETCHINC
 40
0.1
  9
$FILLETRAD
 40
0.5
  9
$AUNITS
 70
     0
  9
$AUPREC
 70
     0
  9
$MENU
  1
.
  9
$ELEVATION
 40
0.0
  9
$PELEVATION
 40
0.0
  9
$THICKNESS
 40
0.0
  9
$LIMCHECK
 70
     0
  9
$CHAMFERA
 40
0.5
  9
$CHAMFERB
 40
0.5
  9
$SKPOLY
 70
     0
  9
$TDCREATE
 40
2453619.496222303
  9
$TDUPDATE
 40
2453619.496222315
  9
$TDINDWG
 40
0.0000000116
  9
$TDUSRTIMER
 40
0.0000000116
  9
$USRTIMER
 70
     1
  9
$ANGBASE
 50
0.0
  9
$ANGDIR
 70
     0
  9
$PDMODE
 70
     0
  9
$PDSIZE
 40
0.0
  9
$PLINEWID
 40
0.0
  9
$COORDS
 70
     1
  9
$SPLFRAME
 70
     0
  9
$SPLINETYPE
 70
     6
  9
$SPLINESEGS
 70
     8
  9
$ATTDIA
 70
     0
  9
$ATTREQ
 70
     1
  9
$HANDLING
 70
     1
  9
$HANDSEED
  5
5D8
  9
$SURFTAB1
 70
     6
  9
$SURFTAB2
 70
     6
  9
$SURFTYPE
 70
     6
  9
$SURFU
 70
     6
  9
$SURFV
 70
     6
  9
$UCSNAME
  2

  9
$UCSORG
 10
0.0
 20
0.0
 30
0.0
  9
$UCSXDIR
 10
1.0
 20
0.0
 30
0.0
  9
$UCSYDIR
 10
0.0
 20
1.0
 30
0.0
  9
$PUCSNAME
  2

  9
$PUCSORG
 10
0.0
 20
0.0
 30
0.0
  9
$PUCSXDIR
 10
1.0
 20
0.0
 30
0.0
  9
$PUCSYDIR
 10
0.0
 20
1.0
 30
0.0
  9
$USERI1
 70
     0
  9
$USERI2
 70
     0
  9
$USERI3
 70
     0
  9
$USERI4
 70
     0
  9
$USERI5
 70
     0
  9
$USERR1
 40
0.0
  9
$USERR2
 40
0.0
  9
$USERR3
 40
0.0
  9
$USERR4
 40
0.0
  9
$USERR5
 40
0.0
  9
$WORLDVIEW
 70
     1
  9
$SHADEDGE
 70
     3
  9
$SHADEDIF
 70
    70
  9
$TILEMODE
 70
     1
  9
$MAXACTVP
 70
    64
  9
$PLIMCHECK
 70
     0
  9
$PEXTMIN
 10
1.000000000000000E+20
 20
1.000000000000000E+20
 30
1.000000000000000E+20
  9
$PEXTMAX
 10
-1.000000000000000E+20
 20
-1.000000000000000E+20
 30
-1.000000000000000E+20
  9
$PLIMMIN
 10
0.0
 20
0.0
  9
$PLIMMAX
 10
12.0
 20
9.0
  9
$UNITMODE
 70
     0
  9
$VISRETAIN
 70
     1
  9
$PLINEGEN
 70
     0
  9
$PSLTSCALE
 70
     1
  0
ENDSEC
  0
SECTION
  2
TABLES
  0
TABLE
  2
VPORT
 70
     1
  0
VPORT
  2
*ACTIVE
 70
     0
 10
0.0
 20
0.0
 11
1.0
 21
1.0
 12
10.42990654205607
 22
4.5
 13
0.0
 23
0.0
 14
0.5
 24
0.5
 15
0.5
 25
0.5
 16
0.0
 26
0.0
 36
1.0
 17
0.0
 27
0.0
 37
0.0
 40
9.0
 41
1.972972972850329
 42
50.0
 43
0.0
 44
0.0
 50
0.0
 51
0.0
 71
     0
 72
   100
 73
     1
 74
     3
 75
     0
 76
     0
 77
     0
 78
     0
  0
ENDTAB
  0
TABLE
  2
LTYPE
 70
     9
  0
LTYPE
  2
CONTINUOUS
 70
     0
  3
Solid Line
 72
    65
 73
     0
 40
0.0
  0
LTYPE
  2
MCDASH1
 70
     0
  3
MiniCad+ Generated
 72
    65
 73
     6
 40
8.740551
 49
2.497134
 49
-1.248761
 49
2.497134
 49
-1.248761
 49
0.000388
 49
-1.248373
  0
LTYPE
  2
MCDASH2
 70
     0
  3
MiniCad+ Generated
 72
    65
 73
     4
 40
9.989699999999999
 49
6.243417
 49
-1.248761
 49
1.248761
 49
-1.248761
  0
LTYPE
  2
MCDASH3
 70
     0
  3
MiniCad+ Generated
 72
    65
 73
     4
 40
4.994656
 49
2.497134
 49
-1.248761
 49
0.000388
 49
-1.248373
  0
LTYPE
  2
MCDASH4
 70
     0
  3
MiniCad+ Generated
 72
    65
 73
     2
 40
3.745895
 49
2.497134
 49
-1.248761
  0
LTYPE
  2
MCDASH5
 70
     0
  3
MiniCad+ Generated
 72
    65
 73
     6
 40
6.243417
 49
2.497134
 49
-1.248761
 49
0.000388
 49
-1.248373
 49
0.000388
 49
-1.248373
  0
LTYPE
  2
MCDASH6
 70
     0
  3
MiniCad+ Generated
 72
    65
 73
     4
 40
2.497522
 49
0.000388
 49
-1.248373
 49
0.000388
 49
-1.248373
  0
LTYPE
  2
MCDASH7
 70
     0
  3
MiniCad+ Generated
 72
    65
 73
     2
 40
1.873141
 49
1.248761
 49
-0.6243800000000001
  0
LTYPE
  2
MCDASH8
 70
     0
  3
MiniCad+ Generated
 72
    65
 73
     6
 40
12.487222
 49
6.243417
 49
-1.248761
 49
1.248761
 49
-1.248761
 49
1.248761
 49
-1.248761
  0
ENDTAB
  0
TABLE
  2
LAYER
 70
     2
  0
LAYER
  2
0
 70
     0
 62
     7
  6
CONTINUOUS
  0
LAYER
  2
1
 70
     0
 62
     7
  6
CONTINUOUS
  0
ENDTAB
  0
TABLE
  2
STYLE
 70
     1
  0
STYLE
  2
STANDARD
 70
     0
 40
0.0
 41
1.0
 50
0.0
 71
     0
 42
0.2
  3
txt
  4

  0
ENDTAB
  0
TABLE
  2
VIEW
 70
     0
  0
ENDTAB
  0
TABLE
  2
UCS
 70
     0
  0
ENDTAB
  0
TABLE
  2
APPID
 70
     1
  0
APPID
  2
ACAD
 70
     0
  0
ENDTAB
  0
TABLE
  2
DIMSTYLE
 70
     1
  0
DIMSTYLE
  2
STANDARD
 70
     0
  3

  4

  5

  6

  7

 40
1.0
 41
0.18
 42
0.0625
 43
0.38
 44
0.18
 45
0.0
 46
0.0
 47
0.0
 48
0.0
140
0.18
141
0.09
142
0.0
143
25.4
144
1.0
145
0.0
146
1.0
147
0.09
 71
     0
 72
     0
 73
     1
 74
     1
 75
     0
 76
     0
 77
     0
 78
     0
170
     0
171
     2
172
     0
173
     0
174
     0
175
     0
176
     0
177
     0
178
     0
  0
ENDTAB
  0
ENDSEC
  0
SECTION
  2
BLOCKS
  0
BLOCK
  8
0
  2
$MODEL_SPACE
 70
     0
 10
0.0
 20
0.0
 30
0.0
  3
$MODEL_SPACE
  1

  0
ENDBLK
  5
5D3
  8
0
  0
BLOCK
 67
     1
  8
0
  2
$PAPER_SPACE
 70
     0
 10
0.0
 20
0.0
 30
0.0
  3
$PAPER_SPACE
  1

  0
ENDBLK
  5
5D1
 67
     1
  8
0
  0
BLOCK
  8
0
  2
$ARROW1$
 70
     0
 10
0.0
 20
0.0
 30
0.0
  3
$ARROW1$
  1

  0
SOLID
  5
2E
  8
0
 62
     0
 10
-25.4
 20
4.318
 30
0.0
 11
-25.4
 21
-4.318
 31
0.0
 12
0.0
 22
0.0
 32
0.0
 13
0.0
 23
0.0
 33
0.0
  0
ENDBLK
  5
562
  8
0
  0
BLOCK
  8
0
  2
$ARROW2$
 70
     0
 10
0.0
 20
0.0
 30
0.0
  3
$ARROW2$
  1

  0
SOLID
  5
32
  8
0
 62
     0
 10
-25.4
 20
12.7
 30
0.0
 11
-25.4
 21
-12.7
 31
0.0
 12
0.0
 22
0.0
 32
0.0
 13
0.0
 23
0.0
 33
0.0
  0
ENDBLK
  5
564
  8
0
  0
BLOCK
  8
0
  2
$ARROW3$
 70
     0
 10
0.0
 20
0.0
 30
0.0
  3
$ARROW3$
  1

  0
POLYLINE
  5
36
  8
0
  6
BYBLOCK
 62
     0
 66
     1
 10
0.0
 20
0.0
 30
0.0
 70
     1
 40
0.5
 41
0.5
  0
VERTEX
  5
2FB
  8
0
  6
BYBLOCK
 62
     0
 10
-6.35
 20
0.0
 30
0.0
 42
1.0
  0
VERTEX
  5
2FC
  8
0
  6
BYBLOCK
 62
     0
 10
6.35
 20
0.0
 30
0.0
 42
1.0
  0
SEQEND
  5
565
  8
0
  6
BYBLOCK
 62
     0
  0
ENDBLK
  5
567
  8
0
  0
BLOCK
  8
0
  2
$ARROW4$
 70
     0
 10
0.0
 20
0.0
 30
0.0
  3
$ARROW4$
  1

  0
LINE
  5
3D
  8
0
  6
BYBLOCK
 62
     0
 10
12.7
 20
12.7
 30
0.0
 11
-12.7
 21
-12.7
 31
0.0
  0
ENDBLK
  5
569
  8
0
  0
BLOCK
  8
0
  2
$ARROW5$
 70
     0
 10
0.0
 20
0.0
 30
0.0
  3
$ARROW5$
  1

  0
LINE
  5
41
  8
0
  6
BYBLOCK
 62
     0
 10
12.7
 20
12.7
 30
0.0
 11
-12.7
 21
-12.7
 31
0.0
  0
LINE
  5
42
  8
0
  6
BYBLOCK
 62
     0
 10
-12.7
 20
12.7
 30
0.0
 11
12.7
 21
-12.7
 31
0.0
  0
ENDBLK
  5
56B
  8
0
  0
BLOCK
  8
0
  2
619_SOPRA
 70
     0
 10
0.0
 20
0.0
 30
0.0
  3
619_SOPRA
  1

  0
POLYLINE
  5
46
  8
0
 62
     3
 66
     1
 10
0.0
 20
0.0
 30
0.0
 40
0.5715
 41
0.5715
  0
VERTEX
  5
2FE
  8
0
 62
     3
 10
12.6899
 20
224.10897
 30
0.0
  0
VERTEX
  5
2FF
  8
0
 62
     3
 10
-14.8101
 20
224.08106
 30
0.0
  0
SEQEND
  5
56C
  8
0
 62
     3
  0
POLYLINE
  5
4A
  8
0
 62
     3
 66
     1
 10
0.0
 20
0.0
 30
0.0
 40
0.5715
 41
0.5715
  0
VERTEX
  5
301
  8
0
 62
     3
 10
11.41752
 20
0.1076
 30
0.0
  0
VERTEX
  5
302
  8
0
 62
     3
 10
-9.398199999999999
 20
0.08643
 30
0.0
  0
SEQEND
  5
56D
  8
0
 62
     3
  0
POLYLINE
  5
4E
  8
0
 62
     3
 66
     1
 10
0.0
 20
0.0
 30
0.0
 40
0.5715
 41
0.5715
  0
VERTEX
  5
304
  8
0
 62
     3
 10
-13.21046
 20
-224.28717
 30
0.0
  0
VERTEX
  5
305
  8
0
 62
     3
 10
14.28947
 20
-224.33664
 30
0.0
  0
SEQEND
  5
56E
  8
0
 62
     3
  0
POLYLINE
  5
52
  8
0
 62
     3
 66
     1
 10
0.0
 20
0.0
 30
0.0
 40
1.0287
 41
1.0287
  0
VERTEX
  5
307
  8
0
 62
     3
 10
26.93805
 20
-29.43815
 30
0.0
  0
VERTEX
  5
308
  8
0
 62
     3
 10
29.13485
 20
-27.78199
 30
0.0
  0
VERTEX
  5
309
  8
0
 62
     3
 10
31.59587
 20
-26.55721
 30
0.0
  0
VERTEX
  5
30A
  8
0
 62
     3
 10
34.24016
 20
-25.80403
 30
0.0
  0
VERTEX
  5
30B
  8
0
 62
     3
 10
36.98161
 20
-25.54807
 30
0.0
  0
SEQEND
  5
56F
  8
0
 62
     3
  0
POLYLINE
  5
59
  8
0
 62
     3
 66
     1
 10
0.0
 20
0.0
 30
0.0
 40
1.0287
 41
1.0287
  0
VERTEX
  5
30D
  8
0
 62
     3
 10
25.86533
 20
-37.3021
 30
0.0
  0
VERTEX
  5
30E
  8
0
 62
     3
 10
26.11684
 20
-34.56024
 30
0.0
  0
VERTEX
  5
30F
  8
0
 62
     3
 10
26.86571
 20
-31.9147
 30
0.0
  0
VERTEX
  5
310
  8
0
 62
     3
 10
28.08643
 20
-29.45179
 30
0.0
  0
VERTEX
  5
311
  8
0
 62
     3
 10
29.73905
 20
-27.2522
 30
0.0
  0
SEQEND
  5
570
  8
0
 62
     3
  0
POLYLINE
  5
60
  8
0
 62
     3
 66
     1
 10
0.0
 20
0.0
 30
0.0
 40
1.0287
 41
1.0287
  0
VERTEX
  5
313
  8
0
 62
     3
 10
-25.81335
 20
36.93477
 30
0.0
  0
VERTEX
  5
314
  8
0
 62
     3
 10
-26.05705
 20
34.19223
 30
0.0
  0
VERTEX
  5
315
  8
0
 62
     3
 10
-26.79858
 20
31.54455
 30
0.0
  0
VERTEX
  5
316
  8
0
 62
     3
 10
-28.01236
 20
29.07824
 30
0.0
  0
VERTEX
  5
317
  8
0
 62
     3
 10
-29.65881
 20
26.87407
 30
0.0
  0
SEQEND
  5
571
  8
0
 62
     3
  0
POLYLINE
  5
67
  8
0
 62
     3
 66
     1
 10
0.0
 20
0.0
 30
0.0
 40
1.0287
 41
1.0287
  0
VERTEX
  5
319
  8
0
 62
     3
 10
36.80505
 20
26.00691
 30
0.0
  0
VERTEX
  5
31A
  8
0
 62
     3
 10
34.06193
 20
26.24412
 30
0.0
  0
VERTEX
  5
31B
  8
0
 62
     3
 10
31.41248
 20
26.97919
 30
0.0
  0
VERTEX
  5
31C
  8
0
 62
     3
 10
28.94324
 20
28.18704
 30
0.0
  0
VERTEX
  5
31D
  8
0
 62
     3
 10
26.73515
 20
29.82825
 30
0.0
  0
SEQEND
  5
572
  8
0
 62
     3
  0
POLYLINE
  5
6E
  8
0
 62
     3
 66
     1
 10
0.0
 20
0.0
 30
0.0
 40
1.0287
 41
1.0287
  0
VERTEX
  5
31F
  8
0
 62
     3
 10
-29.52756
 20
-27.14566
 30
0.0
  0
VERTEX
  5
320
  8
0
 62
     3
 10
-27.88278
 20
-29.3511
 30
0.0
  0
VERTEX
  5
321
  8
0
 62
     3
 10
-26.67096
 20
-31.81845
 30
0.0
  0
VERTEX
  5
322
  8
0
 62
     3
 10
-25.93153
 20
-34.46658
 30
0.0
  0
VERTEX
  5
323
  8
0
 62
     3
 10
-25.68993
 20
-37.20942
 30
0.0
  0
SEQEND
  5
573
  8
0
 62
     3
  0
POLYLINE
  5
75
  8
0
 62
     3
 66
     1
 10
0.0
 20
0.0
 30
0.0
 40
1.0287
 41
1.0287
  0
VERTEX
  5
325
  8
0
 62
     3
 10
29.60796
 20
26.93429
 30
0.0
  0
VERTEX
  5
326
  8
0
 62
     3
 10
27.95704
 20
29.1351
 30
0.0
  0
VERTEX
  5
327
  8
0
 62
     3
 10
26.73822
 20
31.59897
 30
0.0
  0
VERTEX
  5
328
  8
0
 62
     3
 10
25.99131
 20
34.24509
 30
0.0
  0
VERTEX
  5
329
  8
0
 62
     3
 10
25.74203
 20
36.98717
 30
0.0
  0
SEQEND
  5
574
  8
0
 62
     3
  0
POLYLINE
  5
7C
  8
0
 62
     3
 66
     1
 10
0.0
 20
0.0
 30
0.0
 40
1.0287
 41
1.0287
  0
VERTEX
  5
32B
  8
0
 62
     3
 10
26.93805
 20
-29.43815
 30
0.0
  0
VERTEX
  5
32C
  8
0
 62
     3
 10
29.13485
 20
-27.78199
 30
0.0
  0
VERTEX
  5
32D
  8
0
 62
     3
 10
31.59587
 20
-26.55721
 30
0.0
  0
VERTEX
  5
32E
  8
0
 62
     3
 10
34.24016
 20
-25.80403
 30
0.0
  0
VERTEX
  5
32F
  8
0
 62
     3
 10
36.98161
 20
-25.54807
 30
0.0
  0
SEQEND
  5
575
  8
0
 62
     3
  0
POLYLINE
  5
83
  8
0
 62
     3
 66
     1
 10
0.0
 20
0.0
 30
0.0
 40
1.0287
 41
1.0287
  0
VERTEX
  5
331
  8
0
 62
     3
 10
25.86533
 20
-37.3021
 30
0.0
  0
VERTEX
  5
332
  8
0
 62
     3
 10
26.11684
 20
-34.56024
 30
0.0
  0
VERTEX
  5
333
  8
0
 62
     3
 10
26.86571
 20
-31.9147
 30
0.0
  0
VERTEX
  5
334
  8
0
 62
     3
 10
28.08643
 20
-29.45179
 30
0.0
  0
VERTEX
  5
335
  8
0
 62
     3
 10
29.73905
 20
-27.2522
 30
0.0
  0
SEQEND
  5
576
  8
0
 62
     3
  0
POLYLINE
  5
8A
  8
0
 62
     3
 66
     1
 10
0.0
 20
0.0
 30
0.0
 40
1.0287
 41
1.0287
  0
VERTEX
  5
337
  8
0
 62
     3
 10
-25.81335
 20
36.93477
 30
0.0
  0
VERTEX
  5
338
  8
0
 62
     3
 10
-26.05705
 20
34.19223
 30
0.0
  0
VERTEX
  5
339
  8
0
 62
     3
 10
-26.79858
 20
31.54455
 30
0.0
  0
VERTEX
  5
33A
  8
0
 62
     3
 10
-28.01236
 20
29.07824
 30
0.0
  0
VERTEX
  5
33B
  8
0
 62
     3
 10
-29.65881
 20
26.87407
 30
0.0
  0
SEQEND
  5
577
  8
0
 62
     3
  0
POLYLINE
  5
91
  8
0
 62
     3
 66
     1
 10
0.0
 20
0.0
 30
0.0
 40
1.0287
 41
1.0287
  0
VERTEX
  5
33D
  8
0
 62
     3
 10
36.80505
 20
26.00691
 30
0.0
  0
VERTEX
  5
33E
  8
0
 62
     3
 10
34.06193
 20
26.24412
 30
0.0
  0
VERTEX
  5
33F
  8
0
 62
     3
 10
31.41248
 20
26.97919
 30
0.0
  0
VERTEX
  5
340
  8
0
 62
     3
 10
28.94324
 20
28.18704
 30
0.0
  0
VERTEX
  5
341
  8
0
 62
     3
 10
26.73515
 20
29.82825
 30
0.0
  0
SEQEND
  5
578
  8
0
 62
     3
  0
POLYLINE
  5
98
  8
0
 62
     3
 66
     1
 10
0.0
 20
0.0
 30
0.0
 40
1.0287
 41
1.0287
  0
VERTEX
  5
343
  8
0
 62
     3
 10
-29.52756
 20
-27.14566
 30
0.0
  0
VERTEX
  5
344
  8
0
 62
     3
 10
-27.88278
 20
-29.3511
 30
0.0
  0
VERTEX
  5
345
  8
0
 62
     3
 10
-26.67096
 20
-31.81845
 30
0.0
  0
VERTEX
  5
346
  8
0
 62
     3
 10
-25.93153
 20
-34.46658
 30
0.0
  0
VERTEX
  5
347
  8
0
 62
     3
 10
-25.68993
 20
-37.20942
 30
0.0
  0
SEQEND
  5
579
  8
0
 62
     3
  0
POLYLINE
  5
9F
  8
0
 62
     3
 66
     1
 10
0.0
 20
0.0
 30
0.0
 40
1.0287
 41
1.0287
  0
VERTEX
  5
349
  8
0
 62
     3
 10
29.60796
 20
26.93429
 30
0.0
  0
VERTEX
  5
34A
  8
0
 62
     3
 10
27.95704
 20
29.1351
 30
0.0
  0
VERTEX
  5
34B
  8
0
 62
     3
 10
26.73822
 20
31.59897
 30
0.0
  0
VERTEX
  5
34C
  8
0
 62
     3
 10
25.99131
 20
34.24509
 30
0.0
  0
VERTEX
  5
34D
  8
0
 62
     3
 10
25.74203
 20
36.98717
 30
0.0
  0
SEQEND
  5
57A
  8
0
 62
     3
  0
POLYLINE
  5
A6
  8
0
 62
     3
 66
     1
 10
0.0
 20
0.0
 30
0.0
 40
1.0287
 41
1.0287
  0
VERTEX
  5
34F
  8
0
 62
     3
 10
-25.81335
 20
36.93477
 30
0.0
  0
VERTEX
  5
350
  8
0
 62
     3
 10
-25.81749
 20
38.06906
 30
0.0
  0
SEQEND
  5
57B
  8
0
 62
     3
  0
POLYLINE
  5
AA
  8
0
 62
     3
 66
     1
 10
0.0
 20
0.0
 30
0.0
 40
1.0287
 41
1.0287
  0
VERTEX
  5
352
  8
0
 62
     3
 10
-25.81335
 20
36.93477
 30
0.0
  0
VERTEX
  5
353
  8
0
 62
     3
 10
-25.81778
 20
38.15607
 30
0.0
  0
SEQEND
  5
57C
  8
0
 62
     3
  0
POLYLINE
  5
AE
  8
0
 62
     3
 66
     1
 10
0.0
 20
0.0
 30
0.0
 40
1.0287
 41
1.0287
  0
VERTEX
  5
355
  8
0
 62
     3
 10
38.29255
 20
-12.46165
 30
0.0
  0
VERTEX
  5
356
  8
0
 62
     3
 10
36.21447
 20
-17.70768
 30
0.0
  0
VERTEX
  5
357
  8
0
 62
     3
 10
33.41878
 20
-22.60924
 30
0.0
  0
VERTEX
  5
358
  8
0
 62
     3
 10
29.9606
 20
-27.06905
 30
0.0
  0
SEQEND
  5
57D
  8
0
 62
     3
  0
POLYLINE
  5
B4
  8
0
 62
     3
 66
     1
 10
0.0
 20
0.0
 30
0.0
 40
1.0287
 41
1.0287
  0
VERTEX
  5
35A
  8
0
 62
     3
 10
29.63731
 20
26.96101
 30
0.0
  0
VERTEX
  5
35B
  8
0
 62
     3
 10
33.12274
 20
22.52377
 30
0.0
  0
VERTEX
  5
35C
  8
0
 62
     3
 10
35.9495
 20
17.63923
 30
0.0
  0
VERTEX
  5
35D
  8
0
 62
     3
 10
38.06051
 20
12.40587
 30
0.0
  0
SEQEND
  5
57E
  8
0
 62
     3
  0
POLYLINE
  5
BA
  8
0
 62
     3
 66
     1
 10
0.0
 20
0.0
 30
0.0
 40
1.0287
 41
1.0287
  0
VERTEX
  5
35F
  8
0
 62
     3
 10
-29.36415
 20
-27.37951
 30
0.0
  0
VERTEX
  5
360
  8
0
 62
     3
 10
-32.86854
 20
-22.9566
 30
0.0
  0
VERTEX
  5
361
  8
0
 62
     3
 10
-35.71551
 20
-18.08449
 30
0.0
  0
VERTEX
  5
362
  8
0
 62
     3
 10
-37.84864
 20
-12.86007
 30
0.0
  0
SEQEND
  5
57F
  8
0
 62
     3
  0
POLYLINE
  5
C0
  8
0
 62
     3
 66
     1
 10
0.0
 20
0.0
 30
0.0
 40
1.0287
 41
1.0287
  0
VERTEX
  5
364
  8
0
 62
     3
 10
38.29255
 20
-12.46165
 30
0.0
  0
VERTEX
  5
365
  8
0
 62
     3
 10
36.21447
 20
-17.70768
 30
0.0
  0
VERTEX
  5
366
  8
0
 62
     3
 10
33.41878
 20
-22.60924
 30
0.0
  0
VERTEX
  5
367
  8
0
 62
     3
 10
29.9606
 20
-27.06905
 30
0.0
  0
SEQEND
  5
580
  8
0
 62
     3
  0
POLYLINE
  5
C6
  8
0
 62
     3
 66
     1
 10
0.0
 20
0.0
 30
0.0
 40
1.0287
 41
1.0287
  0
VERTEX
  5
369
  8
0
 62
     3
 10
29.63731
 20
26.96101
 30
0.0
  0
VERTEX
  5
36A
  8
0
 62
     3
 10
33.12274
 20
22.52377
 30
0.0
  0
VERTEX
  5
36B
  8
0
 62
     3
 10
35.9495
 20
17.63923
 30
0.0
  0
VERTEX
  5
36C
  8
0
 62
     3
 10
38.06051
 20
12.40587
 30
0.0
  0
SEQEND
  5
581
  8
0
 62
     3
  0
POLYLINE
  5
CC
  8
0
 62
     3
 66
     1
 10
0.0
 20
0.0
 30
0.0
 40
1.0287
 41
1.0287
  0
VERTEX
  5
36E
  8
0
 62
     3
 10
-29.36415
 20
-27.37951
 30
0.0
  0
VERTEX
  5
36F
  8
0
 62
     3
 10
-32.86854
 20
-22.9566
 30
0.0
  0
VERTEX
  5
370
  8
0
 62
     3
 10
-35.71551
 20
-18.08449
 30
0.0
  0
VERTEX
  5
371
  8
0
 62
     3
 10
-37.84864
 20
-12.86007
 30
0.0
  0
SEQEND
  5
582
  8
0
 62
     3
  0
POLYLINE
  5
D2
  8
0
 62
     3
 66
     1
 10
0.0
 20
0.0
 30
0.0
 40
1.0287
 41
1.0287
  0
VERTEX
  5
373
  8
0
 62
     3
 10
20.75114
 20
-224.37938
 30
0.0
  0
VERTEX
  5
374
  8
0
 62
     3
 10
20.43427
 20
-228.02575
 30
0.0
  0
VERTEX
  5
375
  8
0
 62
     3
 10
19.48867
 20
-231.56204
 30
0.0
  0
VERTEX
  5
376
  8
0
 62
     3
 10
17.94336
 20
-234.88068
 30
0.0
  0
VERTEX
  5
377
  8
0
 62
     3
 10
15.84545
 20
-237.88025
 30
0.0
  0
VERTEX
  5
378
  8
0
 62
     3
 10
13.2585
 20
-240.47003
 30
0.0
  0
VERTEX
  5
379
  8
0
 62
     3
 10
10.26116
 20
-242.5713
 30
0.0
  0
VERTEX
  5
37A
  8
0
 62
     3
 10
6.94454
 20
-244.11999
 30
0.0
  0
VERTEX
  5
37B
  8
0
 62
     3
 10
3.40904
 20
-245.06939
 30
0.0
  0
VERTEX
  5
37C
  8
0
 62
     3
 10
-0.23731
 20
-245.39048
 30
0.0
  0
VERTEX
  5
37D
  8
0
 62
     3
 10
-3.88407
 20
-245.07346
 30
0.0
  0
VERTEX
  5
37E
  8
0
 62
     3
 10
-7.42036
 20
-244.12786
 30
0.0
  0
VERTEX
  5
37F
  8
0
 62
     3
 10
-10.73873
 20
-242.58271
 30
0.0
  0
VERTEX
  5
380
  8
0
 62
     3
 10
-13.73854
 20
-240.48463
 30
0.0
  0
VERTEX
  5
381
  8
0
 62
     3
 10
-16.32837
 20
-237.89771
 30
0.0
  0
VERTEX
  5
382
  8
0
 62
     3
 10
-18.42961
 20
-234.90034
 30
0.0
  0
VERTEX
  5
383
  8
0
 62
     3
 10
-19.97833
 20
-231.58376
 30
0.0
  0
VERTEX
  5
384
  8
0
 62
     3
 10
-20.92769
 20
-228.04858
 30
0.0
  0
VERTEX
  5
385
  8
0
 62
     3
 10
-21.24866
 20
-224.40151
 30
0.0
  0
SEQEND
  5
583
  8
0
 62
     3
  0
POLYLINE
  5
E7
  8
0
 62
     3
 66
     1
 10
0.0
 20
0.0
 30
0.0
 40
1.0287
 41
1.0287
  0
VERTEX
  5
387
  8
0
 62
     3
 10
-21.22576
 20
224.07455
 30
0.0
  0
VERTEX
  5
388
  8
0
 62
     3
 10
-20.91045
 20
227.72135
 30
0.0
  0
VERTEX
  5
389
  8
0
 62
     3
 10
-19.96665
 20
231.25812
 30
0.0
  0
VERTEX
  5
38A
  8
0
 62
     3
 10
-18.42294
 20
234.57747
 30
0.0
  0
VERTEX
  5
38B
  8
0
 62
     3
 10
-16.32636
 20
237.57811
 30
0.0
  0
VERTEX
  5
38C
  8
0
 62
     3
 10
-13.74072
 20
240.16905
 30
0.0
  0
VERTEX
  5
38D
  8
0
 62
     3
 10
-10.74435
 20
242.2717
 30
0.0
  0
VERTEX
  5
38E
  8
0
 62
     3
 10
-7.42813
 20
243.82215
 30
0.0
  0
VERTEX
  5
38F
  8
0
 62
     3
 10
-3.8933
 20
244.77313
 30
0.0
  0
VERTEX
  5
390
  8
0
 62
     3
 10
-0.2471
 20
245.09585
 30
0.0
  0
VERTEX
  5
391
  8
0
 62
     3
 10
3.39972
 20
244.78058
 30
0.0
  0
VERTEX
  5
392
  8
0
 62
     3
 10
6.93649
 20
243.83674
 30
0.0
  0
VERTEX
  5
393
  8
0
 62
     3
 10
10.25586
 20
242.29303
 30
0.0
  0
VERTEX
  5
394
  8
0
 62
     3
 10
13.25649
 20
240.19648
 30
0.0
  0
VERTEX
  5
395
  8
0
 62
     3
 10
15.84743
 20
237.6108
 30
0.0
  0
VERTEX
  5
396
  8
0
 62
     3
 10
17.95004
 20
234.61445
 30
0.0
  0
VERTEX
  5
397
  8
0
 62
     3
 10
19.50051
 20
231.2982
 30
0.0
  0
VERTEX
  5
398
  8
0
 62
     3
 10
20.45153
 20
227.76337
 30
0.0
  0
VERTEX
  5
399
  8
0
 62
     3
 10
20.77412
 20
224.1171
 30
0.0
  0
SEQEND
  5
584
  8
0
 62
     3
  0
POLYLINE
  5
FC
  8
0
 62
     3
 66
     1
 10
0.0
 20
0.0
 30
0.0
 40
1.0287
 41
1.0287
  0
VERTEX
  5
39B
  8
0
 62
     3
 10
-2.06578
 20
66.62983
 30
0.0
  0
VERTEX
  5
39C
  8
0
 62
     3
 10
-2.63741
 20
67.02912000000001
 30
0.0
  0
VERTEX
  5
39D
  8
0
 62
     3
 10
-3.13091
 20
67.52163
 30
0.0
  0
VERTEX
  5
39E
  8
0
 62
     3
 10
-3.53137
 20
68.09242
 30
0.0
  0
VERTEX
  5
39F
  8
0
 62
     3
 10
-3.82673
 20
68.72403
 30
0.0
  0
VERTEX
  5
3A0
  8
0
 62
     3
 10
-4.0078
 20
69.39735
 30
0.0
  0
VERTEX
  5
3A1
  8
0
 62
     3
 10
-4.06931
 20
70.09189000000001
 30
0.0
  0
VERTEX
  5
3A2
  8
0
 62
     3
 10
-4.00921
 20
70.78655999999999
 30
0.0
  0
VERTEX
  5
3A3
  8
0
 62
     3
 10
-3.82949
 20
71.46022000000001
 30
0.0
  0
VERTEX
  5
3A4
  8
0
 62
     3
 10
-3.53543
 20
72.09242
 30
0.0
  0
VERTEX
  5
3A5
  8
0
 62
     3
 10
-3.13611
 20
72.66403
 30
0.0
  0
VERTEX
  5
3A6
  8
0
 62
     3
 10
-2.64362
 20
73.15754
 30
0.0
  0
VERTEX
  5
3A7
  8
0
 62
     3
 10
-2.07284
 20
73.55804000000001
 30
0.0
  0
VERTEX
  5
3A8
  8
0
 62
     3
 10
-1.44123
 20
73.85335000000001
 30
0.0
  0
VERTEX
  5
3A9
  8
0
 62
     3
 10
-0.7679
 20
74.03444
 30
0.0
  0
VERTEX
  5
3AA
  8
0
 62
     3
 10
-0.07338
 20
74.09596000000001
 30
0.0
  0
VERTEX
  5
3AB
  8
0
 62
     3
 10
0.6213
 20
74.03586
 30
0.0
  0
VERTEX
  5
3AC
  8
0
 62
     3
 10
1.29496
 20
73.85615
 30
0.0
  0
VERTEX
  5
3AD
  8
0
 62
     3
 10
1.92718
 20
73.56208
 30
0.0
  0
VERTEX
  5
3AE
  8
0
 62
     3
 10
2.4987
 20
73.16277
 30
0.0
  0
VERTEX
  5
3AF
  8
0
 62
     3
 10
2.99227
 20
72.67025
 30
0.0
  0
VERTEX
  5
3B0
  8
0
 62
     3
 10
3.39274
 20
72.09945999999999
 30
0.0
  0
VERTEX
  5
3B1
  8
0
 62
     3
 10
3.68808
 20
71.46787000000001
 30
0.0
  0
VERTEX
  5
3B2
  8
0
 62
     3
 10
3.86919
 20
70.79455
 30
0.0
  0
VERTEX
  5
3B3
  8
0
 62
     3
 10
3.93067
 20
70.10011
 30
0.0
  0
VERTEX
  5
3B4
  8
0
 62
     3
 10
3.87059
 20
69.40536
 30
0.0
  0
VERTEX
  5
3B5
  8
0
 62
     3
 10
3.69085
 20
68.73168
 30
0.0
  0
VERTEX
  5
3B6
  8
0
 62
     3
 10
3.39682
 20
68.09947
 30
0.0
  0
VERTEX
  5
3B7
  8
0
 62
     3
 10
2.99748
 20
67.52797
 30
0.0
  0
VERTEX
  5
3B8
  8
0
 62
     3
 10
2.50504
 20
67.03447
 30
0.0
  0
VERTEX
  5
3B9
  8
0
 62
     3
 10
1.93422
 20
66.63388000000001
 30
0.0
  0
SEQEND
  5
585
  8
0
 62
     3
  0
POLYLINE
  5
11D
  8
0
 62
     3
 66
     1
 10
0.0
 20
0.0
 30
0.0
 40
1.0287
 41
1.0287
  0
VERTEX
  5
3BB
  8
0
 62
     3
 10
-25.68993
 20
-37.20942
 30
0.0
  0
VERTEX
  5
3BC
  8
0
 62
     3
 10
-21.24871
 20
-224.40217
 30
0.0
  0
SEQEND
  5
586
  8
0
 62
     3
  0
POLYLINE
  5
121
  8
0
 62
     3
 66
     1
 10
0.0
 20
0.0
 30
0.0
 40
1.0287
 41
1.0287
  0
VERTEX
  5
3BE
  8
0
 62
     3
 10
25.86525
 20
-37.3022
 30
0.0
  0
VERTEX
  5
3BF
  8
0
 62
     3
 10
20.75126
 20
-224.37901
 30
0.0
  0
SEQEND
  5
587
  8
0
 62
     3
  0
POLYLINE
  5
125
  8
0
 62
     3
 66
     1
 10
0.0
 20
0.0
 30
0.0
 40
1.0287
 41
1.0287
  0
VERTEX
  5
3C1
  8
0
 62
     3
 10
-25.81335
 20
36.93477
 30
0.0
  0
VERTEX
  5
3C2
  8
0
 62
     3
 10
-21.22576
 20
224.07455
 30
0.0
  0
SEQEND
  5
588
  8
0
 62
     3
  0
POLYLINE
  5
129
  8
0
 62
     3
 66
     1
 10
0.0
 20
0.0
 30
0.0
 40
1.0287
 41
1.0287
  0
VERTEX
  5
3C4
  8
0
 62
     3
 10
25.74184
 20
36.98726
 30
0.0
  0
VERTEX
  5
3C5
  8
0
 62
     3
 10
20.77422
 20
224.11716
 30
0.0
  0
SEQEND
  5
589
  8
0
 62
     3
  0
POLYLINE
  5
12D
  8
0
 62
     3
 66
     1
 10
0.0
 20
0.0
 30
0.0
 40
0.5715
 41
0.5715
  0
VERTEX
  5
3C7
  8
0
 62
     3
 10
0.01293
 20
-10.8507
 30
0.0
  0
VERTEX
  5
3C8
  8
0
 62
     3
 10
-0.00941
 20
11.14927
 30
0.0
  0
SEQEND
  5
58A
  8
0
 62
     3
  0
POLYLINE
  5
131
  8
0
 62
     3
 66
     1
 10
0.0
 20
0.0
 30
0.0
 40
0.5715
 41
0.5715
  0
VERTEX
  5
3CA
  8
0
 62
     3
 10
-0.21465
 20
213.14916
 30
0.0
  0
VERTEX
  5
3CB
  8
0
 62
     3
 10
-0.23905
 20
237.14914
 30
0.0
  0
SEQEND
  5
58B
  8
0
 62
     3
  0
POLYLINE
  5
135
  8
0
 62
     3
 66
     1
 10
0.0
 20
0.0
 30
0.0
 40
0.5715
 41
0.5715
  0
VERTEX
  5
3CD
  8
0
 62
     3
 10
-0.27511
 20
-213.36372
 30
0.0
  0
VERTEX
  5
3CE
  8
0
 62
     3
 10
-0.31827
 20
-237.36376
 30
0.0
  0
SEQEND
  5
58C
  8
0
 62
     3
  0
POLYLINE
  5
139
  8
0
 62
     3
 66
     1
 10
0.0
 20
0.0
 30
0.0
 40
1.0287
 41
1.0287
  0
VERTEX
  5
3D0
  8
0
 62
     3
 10
36.9817
 20
-25.54801
 30
0.0
  0
VERTEX
  5
3D1
  8
0
 62
     3
 10
104.02616
 20
-25.47991
 30
0.0
  0
SEQEND
  5
58D
  8
0
 62
     3
  0
POLYLINE
  5
13D
  8
0
 62
     3
 66
     1
 10
0.0
 20
0.0
 30
0.0
 40
1.0287
 41
1.0287
  0
VERTEX
  5
3D3
  8
0
 62
     3
 10
36.80512
 20
26.00696
 30
0.0
  0
VERTEX
  5
3D4
  8
0
 62
     3
 10
103.97383
 20
26.07517
 30
0.0
  0
SEQEND
  5
58E
  8
0
 62
     3
  0
LINE
  5
141
  8
0
  6
MCDASH7
 10
34.02307
 20
-20.81324
 30
0.0
 11
33.97997
 21
21.58673
 31
0.0
  0
LINE
  5
142
  8
0
  6
MCDASH7
 10
104.02303
 20
-20.74214
 30
0.0
 11
34.02307
 21
-20.81324
 31
0.0
  0
LINE
  5
143
  8
0
  6
MCDASH7
 10
103.97994
 20
21.65784
 30
0.0
 11
33.97997
 21
21.58673
 31
0.0
  0
ARC
  5
144
  8
0
 62
     3
 10
0.00176
 20
0.14927
 30
0.0
 40
40.0
 50
92.924103
 51
87.192337
  0
ARC
  5
145
  8
0
 62
     3
 10
0.00176
 20
0.14927
 30
0.0
 40
24.15
 50
94.910736
 51
85.30783099999999
  0
POLYLINE
  5
146
  8
0
 62
     3
 66
     1
 10
0.0
 20
0.0
 30
0.0
 40
0.5715
 41
0.5715
  0
VERTEX
  5
3D6
  8
0
 62
     3
 10
104.02616
 20
-25.47991
 30
0.0
  0
VERTEX
  5
3D7
  8
0
 62
     3
 10
103.97383
 20
26.07517
 30
0.0
  0
SEQEND
  5
58F
  8
0
 62
     3
  0
POLYLINE
  5
14A
  8
0
 62
     3
 66
     1
 10
0.0
 20
0.0
 30
0.0
 40
1.0287
 41
1.0287
  0
VERTEX
  5
3D9
  8
0
 62
     3
 10
-2.06578
 20
66.62983
 30
0.0
  0
VERTEX
  5
3DA
  8
0
 62
     3
 10
-2.06578
 20
24.2106
 30
0.0
  0
SEQEND
  5
590
  8
0
 62
     3
  0
POLYLINE
  5
14E
  8
0
 62
     3
 66
     1
 10
0.0
 20
0.0
 30
0.0
 40
1.0287
 41
1.0287
  0
VERTEX
  5
3DC
  8
0
 62
     3
 10
1.93422
 20
66.63388000000001
 30
0.0
  0
VERTEX
  5
3DD
  8
0
 62
     3
 10
1.9773
 20
24.21833
 30
0.0
  0
SEQEND
  5
591
  8
0
 62
     3
  0
ENDBLK
  5
593
  8
0
  0
BLOCK
  8
0
  2
SIMBOLO_N__1
 70
     0
 10
0.0
 20
0.0
 30
0.0
  3
SIMBOLO_N__1
  1

  0
POLYLINE
  5
155
  8
0
 62
     3
 66
     1
 10
0.0
 20
0.0
 30
0.0
 40
1.0287
 41
1.0287
  0
VERTEX
  5
3DF
  8
0
 62
     3
 10
11.5811
 20
66.5864
 30
0.0
  0
VERTEX
  5
3E0
  8
0
 62
     3
 10
11.7001
 20
67.2066
 30
0.0
  0
VERTEX
  5
3E1
  8
0
 62
     3
 10
11.8682
 20
68.01170000000001
 30
0.0
  0
VERTEX
  5
3E2
  8
0
 62
     3
 10
12.0599
 20
68.9542
 30
0.0
  0
VERTEX
  5
3E3
  8
0
 62
     3
 10
12.2484
 20
69.9593
 30
0.0
  0
VERTEX
  5
3E4
  8
0
 62
     3
 10
12.4196
 20
70.9755
 30
0.0
  0
VERTEX
  5
3E5
  8
0
 62
     3
 10
12.5635
 20
71.9194
 30
0.0
  0
VERTEX
  5
3E6
  8
0
 62
     3
 10
12.6847
 20
72.7449
 30
0.0
  0
VERTEX
  5
3E7
  8
0
 62
     3
 10
12.79
 20
73.38890000000001
 30
0.0
  0
SEQEND
  5
594
  8
0
 62
     3
  0
POLYLINE
  5
160
  8
0
 62
     3
 66
     1
 10
0.0
 20
0.0
 30
0.0
 40
1.0287
 41
1.0287
  0
VERTEX
  5
3E9
  8
0
 62
     3
 10
83.0
 20
39.95
 30
0.0
  0
VERTEX
  5
3EA
  8
0
 62
     3
 10
83.62309999999999
 20
39.8503
 30
0.0
  0
VERTEX
  5
3EB
  8
0
 62
     3
 10
84.1798
 20
39.5644
 30
0.0
  0
VERTEX
  5
3EC
  8
0
 62
     3
 10
84.615
 20
39.1286
 30
0.0
  0
VERTEX
  5
3ED
  8
0
 62
     3
 10
84.9007
 20
38.5705
 30
0.0
  0
VERTEX
  5
3EE
  8
0
 62
     3
 10
85.0
 20
37.9474
 30
0.0
  0
SEQEND
  5
595
  8
0
 62
     3
  0
POLYLINE
  5
168
  8
0
 62
     3
 66
     1
 10
0.0
 20
0.0
 30
0.0
 40
1.0287
 41
1.0287
  0
VERTEX
  5
3F0
  8
0
 62
     3
 10
9.3131
 20
-29.4354
 30
0.0
  0
VERTEX
  5
3F1
  8
0
 62
     3
 10
9.312099999999999
 20
-29.4309
 30
0.0
  0
SEQEND
  5
596
  8
0
 62
     3
  0
POLYLINE
  5
16C
  8
0
 62
     3
 66
     1
 10
0.0
 20
0.0
 30
0.0
 40
1.0287
 41
1.0287
  0
VERTEX
  5
3F3
  8
0
 62
     3
 10
0.0
 20
-32.655
 30
0.0
  0
VERTEX
  5
3F4
  8
0
 62
     3
 10
0.0
 20
32.655
 30
0.0
  0
SEQEND
  5
597
  8
0
 62
     3
  0
POLYLINE
  5
170
  8
0
 62
     3
 66
     1
 10
0.0
 20
0.0
 30
0.0
 40
1.0287
 41
1.0287
  0
VERTEX
  5
3F6
  8
0
 62
     3
 10
8.8965
 20
48.0503
 30
0.0
  0
VERTEX
  5
3F7
  8
0
 62
     3
 10
9.013
 20
49.0033
 30
0.0
  0
SEQEND
  5
598
  8
0
 62
     3
  0
POLYLINE
  5
174
  8
0
 62
     3
 66
     1
 10
0.0
 20
0.0
 30
0.0
 40
1.0287
 41
1.0287
  0
VERTEX
  5
3F9
  8
0
 62
     3
 10
30.0
 20
38.5
 30
0.0
  0
VERTEX
  5
3FA
  8
0
 62
     3
 10
81.48439999999999
 20
38.5
 30
0.0
  0
SEQEND
  5
599
  8
0
 62
     3
  0
POLYLINE
  5
178
  8
0
 62
     3
 66
     1
 10
0.0
 20
0.0
 30
0.0
 40
1.0287
 41
1.0287
  0
VERTEX
  5
3FC
  8
0
 62
     3
 10
81.6056
 20
39.9256
 30
0.0
  0
VERTEX
  5
3FD
  8
0
 62
     3
 10
83.0
 20
39.95
 30
0.0
  0
SEQEND
  5
59A
  8
0
 62
     3
  0
POLYLINE
  5
17C
  8
0
 62
     3
 66
     1
 10
0.0
 20
0.0
 30
0.0
 40
1.0287
 41
1.0287
  0
VERTEX
  5
3FF
  8
0
 62
     3
 10
83.7966
 20
61.5
 30
0.0
  0
VERTEX
  5
400
  8
0
 62
     3
 10
30.0
 20
61.5
 30
0.0
  0
SEQEND
  5
59B
  8
0
 62
     3
  0
POLYLINE
  5
180
  8
0
 62
     3
 66
     1
 10
0.0
 20
0.0
 30
0.0
 40
1.0287
 41
1.0287
  0
VERTEX
  5
402
  8
0
 62
     3
 10
85.0
 20
-37.9474
 30
0.0
  0
VERTEX
  5
403
  8
0
 62
     3
 10
85.0
 20
37.9474
 30
0.0
  0
SEQEND
  5
59C
  8
0
 62
     3
  0
POLYLINE
  5
184
  8
0
 62
     3
 66
     1
 10
0.0
 20
0.0
 30
0.0
 40
1.0287
 41
1.0287
  0
VERTEX
  5
405
  8
0
 62
     3
 10
145.0
 20
244.9982
 30
0.0
  0
VERTEX
  5
406
  8
0
 62
     3
 10
145.0
 20
203.0
 30
0.0
  0
SEQEND
  5
59D
  8
0
 62
     3
  0
POLYLINE
  5
188
  8
0
 62
     3
 66
     1
 10
0.0
 20
0.0
 30
0.0
 40
1.0287
 41
1.0287
  0
VERTEX
  5
408
  8
0
 62
     3
 10
123.0634
 20
203.0
 30
0.0
  0
VERTEX
  5
409
  8
0
 62
     3
 10
145.0
 20
203.0
 30
0.0
  0
SEQEND
  5
59E
  8
0
 62
     3
  0
POLYLINE
  5
18C
  8
0
 62
     3
 66
     1
 10
0.0
 20
0.0
 30
0.0
 40
1.0287
 41
1.0287
  0
VERTEX
  5
40B
  8
0
 62
     3
 10
118.0585
 20
244.0592
 30
0.0
  0
VERTEX
  5
40C
  8
0
 62
     3
 10
145.0
 20
245.0
 30
0.0
  0
SEQEND
  5
59F
  8
0
 62
     3
  0
POLYLINE
  5
190
  8
0
 62
     3
 66
     1
 10
0.0
 20
0.0
 30
0.0
 40
1.0287
 41
1.0287
  0
VERTEX
  5
40E
  8
0
 62
     3
 10
29.9999
 20
38.5
 30
0.0
  0
VERTEX
  5
40F
  8
0
 62
     3
 10
28.0032
 20
38.6747
 30
0.0
  0
VERTEX
  5
410
  8
0
 62
     3
 10
26.0668
 20
39.1935
 30
0.0
  0
VERTEX
  5
411
  8
0
 62
     3
 10
24.25
 20
40.0407
 30
0.0
  0
VERTEX
  5
412
  8
0
 62
     3
 10
22.608
 20
41.1904
 30
0.0
  0
VERTEX
  5
413
  8
0
 62
     3
 10
21.1906
 20
42.6078
 30
0.0
  0
VERTEX
  5
414
  8
0
 62
     3
 10
20.0408
 20
44.2498
 30
0.0
  0
VERTEX
  5
415
  8
0
 62
     3
 10
19.1936
 20
46.0665
 30
0.0
  0
VERTEX
  5
416
  8
0
 62
     3
 10
18.6747
 20
48.0029
 30
0.0
  0
VERTEX
  5
417
  8
0
 62
     3
 10
18.5
 20
49.9998
 30
0.0
  0
VERTEX
  5
418
  8
0
 62
     3
 10
18.6747
 20
51.9967
 30
0.0
  0
VERTEX
  5
419
  8
0
 62
     3
 10
19.1934
 20
53.933
 30
0.0
  0
VERTEX
  5
41A
  8
0
 62
     3
 10
20.0406
 20
55.7498
 30
0.0
  0
VERTEX
  5
41B
  8
0
 62
     3
 10
21.1904
 20
57.3919
 30
0.0
  0
VERTEX
  5
41C
  8
0
 62
     3
 10
22.6077
 20
58.8094
 30
0.0
  0
VERTEX
  5
41D
  8
0
 62
     3
 10
24.2497
 20
59.9592
 30
0.0
  0
VERTEX
  5
41E
  8
0
 62
     3
 10
26.0664
 20
60.8064
 30
0.0
  0
VERTEX
  5
41F
  8
0
 62
     3
 10
28.0027
 20
61.3252
 30
0.0
  0
VERTEX
  5
420
  8
0
 62
     3
 10
29.9999
 20
61.5
 30
0.0
  0
SEQEND
  5
5A0
  8
0
 62
     3
  0
POLYLINE
  5
1A5
  8
0
 62
     3
 66
     1
 10
0.0
 20
0.0
 30
0.0
 40
1.0287
 41
1.0287
  0
VERTEX
  5
422
  8
0
 62
     3
 10
80.7192
 20
26.8082
 30
0.0
  0
VERTEX
  5
423
  8
0
 62
     3
 10
88.80459999999999
 20
93.4187
 30
0.0
  0
VERTEX
  5
424
  8
0
 62
     3
 10
105.7374
 20
158.3509
 30
0.0
  0
VERTEX
  5
425
  8
0
 62
     3
 10
131.2124
 20
220.431
 30
0.0
  0
VERTEX
  5
426
  8
0
 62
     3
 10
131.2138
 20
220.4333
 30
0.0
  0
SEQEND
  5
5A1
  8
0
 62
     3
  0
POLYLINE
  5
1AC
  8
0
 62
     3
 66
     1
 10
0.0
 20
0.0
 30
0.0
 40
1.0287
 41
1.0287
  0
VERTEX
  5
428
  8
0
 62
     3
 10
9.013
 20
49.0031
 30
0.0
  0
VERTEX
  5
429
  8
0
 62
     3
 10
11.5812
 20
66.58629999999999
 30
0.0
  0
SEQEND
  5
5A2
  8
0
 62
     3
  0
POLYLINE
  5
1B0
  8
0
 62
     3
 66
     1
 10
0.0
 20
0.0
 30
0.0
 40
1.0287
 41
1.0287
  0
VERTEX
  5
42B
  8
0
 62
     3
 10
12.7901
 20
73.3888
 30
0.0
  0
VERTEX
  5
42C
  8
0
 62
     3
 10
25.5251
 20
123.4457
 30
0.0
  0
VERTEX
  5
42D
  8
0
 62
     3
 10
44.6031
 20
171.4419
 30
0.0
  0
VERTEX
  5
42E
  8
0
 62
     3
 10
69.7089
 20
216.5831
 30
0.0
  0
SEQEND
  5
5A3
  8
0
 62
     3
  0
POLYLINE
  5
1B6
  8
0
 62
     3
 66
     1
 10
0.0
 20
0.0
 30
0.0
 40
1.0287
 41
1.0287
  0
VERTEX
  5
430
  8
0
 62
     3
 10
69.7089
 20
216.5832
 30
0.0
  0
VERTEX
  5
431
  8
0
 62
     3
 10
75.5538
 20
224.2325
 30
0.0
  0
VERTEX
  5
432
  8
0
 62
     3
 10
82.5472
 20
230.8487
 30
0.0
  0
VERTEX
  5
433
  8
0
 62
     3
 10
90.508
 20
236.261
 30
0.0
  0
VERTEX
  5
434
  8
0
 62
     3
 10
99.2321
 20
240.3305
 30
0.0
  0
VERTEX
  5
435
  8
0
 62
     3
 10
108.4956
 20
242.9525
 30
0.0
  0
VERTEX
  5
436
  8
0
 62
     3
 10
118.0586
 20
244.0592
 30
0.0
  0
SEQEND
  5
5A4
  8
0
 62
     3
  0
POLYLINE
  5
1BF
  8
0
 62
     3
 66
     1
 10
0.0
 20
0.0
 30
0.0
 70
     1
 40
1.0287
 41
1.0287
  0
VERTEX
  5
438
  8
0
 62
     3
 10
36.25
 20
50.0
 30
0.0
  0
VERTEX
  5
439
  8
0
 62
     3
 10
36.155
 20
48.9146
 30
0.0
  0
VERTEX
  5
43A
  8
0
 62
     3
 10
35.8731
 20
47.8623
 30
0.0
  0
VERTEX
  5
43B
  8
0
 62
     3
 10
35.4126
 20
46.875
 30
0.0
  0
VERTEX
  5
43C
  8
0
 62
     3
 10
34.7878
 20
45.9826
 30
0.0
  0
VERTEX
  5
43D
  8
0
 62
     3
 10
34.0174
 20
45.2122
 30
0.0
  0
VERTEX
  5
43E
  8
0
 62
     3
 10
33.125
 20
44.5873
 30
0.0
  0
VERTEX
  5
43F
  8
0
 62
     3
 10
32.1376
 20
44.1269
 30
0.0
  0
VERTEX
  5
440
  8
0
 62
     3
 10
31.0853
 20
43.8449
 30
0.0
  0
VERTEX
  5
441
  8
0
 62
     3
 10
30.0
 20
43.75
 30
0.0
  0
VERTEX
  5
442
  8
0
 62
     3
 10
28.9147
 20
43.8449
 30
0.0
  0
VERTEX
  5
443
  8
0
 62
     3
 10
27.8623
 20
44.1269
 30
0.0
  0
VERTEX
  5
444
  8
0
 62
     3
 10
26.875
 20
44.5874
 30
0.0
  0
VERTEX
  5
445
  8
0
 62
     3
 10
25.9826
 20
45.2122
 30
0.0
  0
VERTEX
  5
446
  8
0
 62
     3
 10
25.2122
 20
45.9826
 30
0.0
  0
VERTEX
  5
447
  8
0
 62
     3
 10
24.5874
 20
46.875
 30
0.0
  0
VERTEX
  5
448
  8
0
 62
     3
 10
24.1269
 20
47.8624
 30
0.0
  0
VERTEX
  5
449
  8
0
 62
     3
 10
23.8449
 20
48.9147
 30
0.0
  0
VERTEX
  5
44A
  8
0
 62
     3
 10
23.75
 20
50.0
 30
0.0
  0
VERTEX
  5
44B
  8
0
 62
     3
 10
23.8449
 20
51.0853
 30
0.0
  0
VERTEX
  5
44C
  8
0
 62
     3
 10
24.1269
 20
52.1376
 30
0.0
  0
VERTEX
  5
44D
  8
0
 62
     3
 10
24.5874
 20
53.125
 30
0.0
  0
VERTEX
  5
44E
  8
0
 62
     3
 10
25.2122
 20
54.0174
 30
0.0
  0
VERTEX
  5
44F
  8
0
 62
     3
 10
25.9826
 20
54.7878
 30
0.0
  0
VERTEX
  5
450
  8
0
 62
     3
 10
26.875
 20
55.4126
 30
0.0
  0
VERTEX
  5
451
  8
0
 62
     3
 10
27.8623
 20
55.8731
 30
0.0
  0
VERTEX
  5
452
  8
0
 62
     3
 10
28.9147
 20
56.1551
 30
0.0
  0
VERTEX
  5
453
  8
0
 62
     3
 10
30.0
 20
56.25
 30
0.0
  0
VERTEX
  5
454
  8
0
 62
     3
 10
31.0853
 20
56.1551
 30
0.0
  0
VERTEX
  5
455
  8
0
 62
     3
 10
32.1376
 20
55.8731
 30
0.0
  0
VERTEX
  5
456
  8
0
 62
     3
 10
33.125
 20
55.4127
 30
0.0
  0
VERTEX
  5
457
  8
0
 62
     3
 10
34.0174
 20
54.7878
 30
0.0
  0
VERTEX
  5
458
  8
0
 62
     3
 10
34.7878
 20
54.0174
 30
0.0
  0
VERTEX
  5
459
  8
0
 62
     3
 10
35.4126
 20
53.125
 30
0.0
  0
VERTEX
  5
45A
  8
0
 62
     3
 10
35.8731
 20
52.1377
 30
0.0
  0
VERTEX
  5
45B
  8
0
 62
     3
 10
36.155
 20
51.0853
 30
0.0
  0
SEQEND
  5
5A5
  8
0
 62
     3
  0
POLYLINE
  5
1E5
  8
0
 62
     3
 66
     1
 10
0.0
 20
0.0
 30
0.0
 70
     1
 40
1.0287
 41
1.0287
  0
VERTEX
  5
45D
  8
0
 62
     3
 10
74.25
 20
50.0
 30
0.0
  0
VERTEX
  5
45E
  8
0
 62
     3
 10
74.155
 20
48.9146
 30
0.0
  0
VERTEX
  5
45F
  8
0
 62
     3
 10
73.87309999999999
 20
47.8623
 30
0.0
  0
VERTEX
  5
460
  8
0
 62
     3
 10
73.4126
 20
46.875
 30
0.0
  0
VERTEX
  5
461
  8
0
 62
     3
 10
72.7878
 20
45.9826
 30
0.0
  0
VERTEX
  5
462
  8
0
 62
     3
 10
72.0174
 20
45.2122
 30
0.0
  0
VERTEX
  5
463
  8
0
 62
     3
 10
71.125
 20
44.5873
 30
0.0
  0
VERTEX
  5
464
  8
0
 62
     3
 10
70.13760000000001
 20
44.1269
 30
0.0
  0
VERTEX
  5
465
  8
0
 62
     3
 10
69.0853
 20
43.8449
 30
0.0
  0
VERTEX
  5
466
  8
0
 62
     3
 10
68.0
 20
43.75
 30
0.0
  0
VERTEX
  5
467
  8
0
 62
     3
 10
66.9147
 20
43.8449
 30
0.0
  0
VERTEX
  5
468
  8
0
 62
     3
 10
65.86230000000001
 20
44.1269
 30
0.0
  0
VERTEX
  5
469
  8
0
 62
     3
 10
64.875
 20
44.5874
 30
0.0
  0
VERTEX
  5
46A
  8
0
 62
     3
 10
63.9826
 20
45.2122
 30
0.0
  0
VERTEX
  5
46B
  8
0
 62
     3
 10
63.2122
 20
45.9826
 30
0.0
  0
VERTEX
  5
46C
  8
0
 62
     3
 10
62.5874
 20
46.875
 30
0.0
  0
VERTEX
  5
46D
  8
0
 62
     3
 10
62.1269
 20
47.8624
 30
0.0
  0
VERTEX
  5
46E
  8
0
 62
     3
 10
61.8449
 20
48.9147
 30
0.0
  0
VERTEX
  5
46F
  8
0
 62
     3
 10
61.75
 20
50.0
 30
0.0
  0
VERTEX
  5
470
  8
0
 62
     3
 10
61.8449
 20
51.0853
 30
0.0
  0
VERTEX
  5
471
  8
0
 62
     3
 10
62.1269
 20
52.1376
 30
0.0
  0
VERTEX
  5
472
  8
0
 62
     3
 10
62.5874
 20
53.125
 30
0.0
  0
VERTEX
  5
473
  8
0
 62
     3
 10
63.2122
 20
54.0174
 30
0.0
  0
VERTEX
  5
474
  8
0
 62
     3
 10
63.9826
 20
54.7878
 30
0.0
  0
VERTEX
  5
475
  8
0
 62
     3
 10
64.875
 20
55.4126
 30
0.0
  0
VERTEX
  5
476
  8
0
 62
     3
 10
65.86230000000001
 20
55.8731
 30
0.0
  0
VERTEX
  5
477
  8
0
 62
     3
 10
66.9147
 20
56.1551
 30
0.0
  0
VERTEX
  5
478
  8
0
 62
     3
 10
68.0
 20
56.25
 30
0.0
  0
VERTEX
  5
479
  8
0
 62
     3
 10
69.0853
 20
56.1551
 30
0.0
  0
VERTEX
  5
47A
  8
0
 62
     3
 10
70.13760000000001
 20
55.8731
 30
0.0
  0
VERTEX
  5
47B
  8
0
 62
     3
 10
71.125
 20
55.4127
 30
0.0
  0
VERTEX
  5
47C
  8
0
 62
     3
 10
72.0174
 20
54.7878
 30
0.0
  0
VERTEX
  5
47D
  8
0
 62
     3
 10
72.7878
 20
54.0174
 30
0.0
  0
VERTEX
  5
47E
  8
0
 62
     3
 10
73.4126
 20
53.125
 30
0.0
  0
VERTEX
  5
47F
  8
0
 62
     3
 10
73.87309999999999
 20
52.1377
 30
0.0
  0
VERTEX
  5
480
  8
0
 62
     3
 10
74.155
 20
51.0853
 30
0.0
  0
SEQEND
  5
5A6
  8
0
 62
     3
  0
POLYLINE
  5
20B
  8
0
 62
     3
 66
     1
 10
0.0
 20
0.0
 30
0.0
 40
0.5715
 41
0.5715
  0
VERTEX
  5
482
  8
0
 62
     3
 10
32.5191
 20
63.0
 30
0.0
  0
VERTEX
  5
483
  8
0
 62
     3
 10
32.8477
 20
64.91410000000001
 30
0.0
  0
SEQEND
  5
5A7
  8
0
 62
     3
  0
POLYLINE
  5
20F
  8
0
 62
     3
 66
     1
 10
0.0
 20
0.0
 30
0.0
 40
1.0287
 41
1.0287
  0
VERTEX
  5
485
  8
0
 62
     3
 10
26.7849
 20
27.1784
 30
0.0
  0
VERTEX
  5
486
  8
0
 62
     3
 10
19.4735
 20
28.0822
 30
0.0
  0
VERTEX
  5
487
  8
0
 62
     3
 10
12.3551
 20
29.9842
 30
0.0
  0
VERTEX
  5
488
  8
0
 62
     3
 10
5.566
 20
32.8484
 30
0.0
  0
SEQEND
  5
5A8
  8
0
 62
     3
  0
POLYLINE
  5
215
  8
0
 62
     3
 66
     1
 10
0.0
 20
0.0
 30
0.0
 40
1.0287
 41
1.0287
  0
VERTEX
  5
48A
  8
0
 62
     3
 10
80.71899999999999
 20
26.8043
 30
0.0
  0
VERTEX
  5
48B
  8
0
 62
     3
 10
26.7852
 20
27.1783
 30
0.0
  0
SEQEND
  5
5A9
  8
0
 62
     3
  0
POLYLINE
  5
219
  8
0
 62
     3
 66
     1
 10
0.0
 20
0.0
 30
0.0
 40
1.0287
 41
1.0287
  0
VERTEX
  5
48D
  8
0
 62
     3
 10
5.5663
 20
32.8482
 30
0.0
  0
VERTEX
  5
48E
  8
0
 62
     3
 10
2.5735
 20
37.5272
 30
0.0
  0
SEQEND
  5
5AA
  8
0
 62
     3
  0
POLYLINE
  5
21D
  8
0
 62
     3
 66
     1
 10
0.0
 20
0.0
 30
0.0
 40
1.0287
 41
1.0287
  0
VERTEX
  5
490
  8
0
 62
     3
 10
8.8964
 20
48.0502
 30
0.0
  0
VERTEX
  5
491
  8
0
 62
     3
 10
8.311
 20
45.6056
 30
0.0
  0
VERTEX
  5
492
  8
0
 62
     3
 10
7.3598
 20
43.2788
 30
0.0
  0
VERTEX
  5
493
  8
0
 62
     3
 10
6.0651
 20
41.1241
 30
0.0
  0
VERTEX
  5
494
  8
0
 62
     3
 10
4.4572
 20
39.1919
 30
0.0
  0
VERTEX
  5
495
  8
0
 62
     3
 10
2.5734
 20
37.5273
 30
0.0
  0
SEQEND
  5
5AB
  8
0
 62
     3
  0
POLYLINE
  5
225
  8
0
 62
     3
 66
     1
 10
0.0
 20
0.0
 30
0.0
 40
0.5715
 41
0.5715
  0
VERTEX
  5
497
  8
0
 62
     3
 10
32.5187
 20
62.9965
 30
0.0
  0
VERTEX
  5
498
  8
0
 62
     3
 10
42.9324
 20
113.4249
 30
0.0
  0
VERTEX
  5
499
  8
0
 62
     3
 10
60.56
 20
161.8105
 30
0.0
  0
VERTEX
  5
49A
  8
0
 62
     3
 10
85.0266
 20
207.1215
 30
0.0
  0
SEQEND
  5
5AC
  8
0
 62
     3
  0
POLYLINE
  5
22B
  8
0
 62
     3
 66
     1
 10
0.0
 20
0.0
 30
0.0
 40
0.5715
 41
0.5715
  0
VERTEX
  5
49C
  8
0
 62
     3
 10
84.8571
 20
206.8568
 30
0.0
  0
VERTEX
  5
49D
  8
0
 62
     3
 10
89.2758
 20
212.5379
 30
0.0
  0
VERTEX
  5
49E
  8
0
 62
     3
 10
94.5959
 20
217.3847
 30
0.0
  0
VERTEX
  5
49F
  8
0
 62
     3
 10
100.6632
 20
221.2568
 30
0.0
  0
VERTEX
  5
4A0
  8
0
 62
     3
 10
107.3001
 20
224.0406
 30
0.0
  0
VERTEX
  5
4A1
  8
0
 62
     3
 10
107.3003
 20
224.0406
 30
0.0
  0
SEQEND
  5
5AD
  8
0
 62
     3
  0
POLYLINE
  5
233
  8
0
 62
     3
 66
     1
 10
0.0
 20
0.0
 30
0.0
 40
1.0287
 41
1.0287
  0
VERTEX
  5
4A3
  8
0
 62
     3
 10
0.0
 20
32.655
 30
0.0
  0
VERTEX
  5
4A4
  8
0
 62
     3
 10
0.0763
 20
33.6088
 30
0.0
  0
VERTEX
  5
4A5
  8
0
 62
     3
 10
0.3033
 20
34.5384
 30
0.0
  0
VERTEX
  5
4A6
  8
0
 62
     3
 10
0.6751
 20
35.4201
 30
0.0
  0
VERTEX
  5
4A7
  8
0
 62
     3
 10
1.1824
 20
36.2314
 30
0.0
  0
VERTEX
  5
4A8
  8
0
 62
     3
 10
1.8122
 20
36.9518
 30
0.0
  0
VERTEX
  5
4A9
  8
0
 62
     3
 10
2.5485
 20
37.5629
 30
0.0
  0
VERTEX
  5
4AA
  8
0
 62
     3
 10
2.5486
 20
37.5629
 30
0.0
  0
SEQEND
  5
5AE
  8
0
 62
     3
  0
POLYLINE
  5
23D
  8
0
  6
MCDASH7
 66
     1
 10
0.0
 20
0.0
 30
0.0
 40
0.5715
 41
0.5715
  0
VERTEX
  5
4AC
  8
0
  6
MCDASH7
 10
0.0
 20
24.15
 30
0.0
  0
VERTEX
  5
4AD
  8
0
  6
MCDASH7
 10
85.0
 20
24.15
 30
0.0
  0
SEQEND
  5
5AF
  8
0
  6
MCDASH7
  0
POLYLINE
  5
241
  8
0
  6
MCDASH7
 66
     1
 10
0.0
 20
0.0
 30
0.0
 40
1.0287
 41
1.0287
  0
VERTEX
  5
4AF
  8
0
  6
MCDASH7
 10
145.0
 20
216.0
 30
0.0
  0
VERTEX
  5
4B0
  8
0
  6
MCDASH7
 10
91.0
 20
216.0
 30
0.0
  0
SEQEND
  5
5B0
  8
0
  6
MCDASH7
  0
POLYLINE
  5
245
  8
0
  6
MCDASH7
 66
     1
 10
0.0
 20
0.0
 30
0.0
 40
1.0287
 41
1.0287
  0
VERTEX
  5
4B2
  8
0
  6
MCDASH7
 10
145.0
 20
232.0
 30
0.0
  0
VERTEX
  5
4B3
  8
0
  6
MCDASH7
 10
91.0
 20
232.0
 30
0.0
  0
SEQEND
  5
5B1
  8
0
  6
MCDASH7
  0
POLYLINE
  5
249
  8
0
  6
MCDASH7
 66
     1
 10
0.0
 20
0.0
 30
0.0
 40
1.0287
 41
1.0287
  0
VERTEX
  5
4B5
  8
0
  6
MCDASH7
 10
91.0
 20
232.0
 30
0.0
  0
VERTEX
  5
4B6
  8
0
  6
MCDASH7
 10
91.0
 20
216.0
 30
0.0
  0
SEQEND
  5
5B2
  8
0
  6
MCDASH7
  0
POLYLINE
  5
24D
  8
0
 62
     3
 66
     1
 10
0.0
 20
0.0
 30
0.0
 40
0.5715
 41
0.5715
  0
VERTEX
  5
4B8
  8
0
 62
     3
 10
-3.6921
 20
0.0
 30
0.0
  0
VERTEX
  5
4B9
  8
0
 62
     3
 10
92.3079
 20
0.0
 30
0.0
  0
SEQEND
  5
5B3
  8
0
 62
     3
  0
POLYLINE
  5
251
  8
0
 62
     3
 66
     1
 10
0.0
 20
0.0
 30
0.0
 40
0.5715
 41
0.5715
  0
VERTEX
  5
4BB
  8
0
 62
     3
 10
149.2083
 20
224.0
 30
0.0
  0
VERTEX
  5
4BC
  8
0
 62
     3
 10
85.8976
 20
224.0
 30
0.0
  0
SEQEND
  5
5B4
  8
0
 62
     3
  0
POLYLINE
  5
255
  8
0
 62
     3
 66
     1
 10
0.0
 20
0.0
 30
0.0
 40
1.0287
 41
1.0287
  0
VERTEX
  5
4BE
  8
0
 62
     3
 10
11.5811
 20
-66.5864
 30
0.0
  0
VERTEX
  5
4BF
  8
0
 62
     3
 10
11.7001
 20
-67.2066
 30
0.0
  0
VERTEX
  5
4C0
  8
0
 62
     3
 10
11.8682
 20
-68.01170000000001
 30
0.0
  0
VERTEX
  5
4C1
  8
0
 62
     3
 10
12.0599
 20
-68.9542
 30
0.0
  0
VERTEX
  5
4C2
  8
0
 62
     3
 10
12.2484
 20
-69.9593
 30
0.0
  0
VERTEX
  5
4C3
  8
0
 62
     3
 10
12.4196
 20
-70.9755
 30
0.0
  0
VERTEX
  5
4C4
  8
0
 62
     3
 10
12.5635
 20
-71.9194
 30
0.0
  0
VERTEX
  5
4C5
  8
0
 62
     3
 10
12.6847
 20
-72.7449
 30
0.0
  0
VERTEX
  5
4C6
  8
0
 62
     3
 10
12.79
 20
-73.38890000000001
 30
0.0
  0
SEQEND
  5
5B5
  8
0
 62
     3
  0
POLYLINE
  5
260
  8
0
 62
     3
 66
     1
 10
0.0
 20
0.0
 30
0.0
 40
1.0287
 41
1.0287
  0
VERTEX
  5
4C8
  8
0
 62
     3
 10
83.0
 20
-39.95
 30
0.0
  0
VERTEX
  5
4C9
  8
0
 62
     3
 10
83.62309999999999
 20
-39.8503
 30
0.0
  0
VERTEX
  5
4CA
  8
0
 62
     3
 10
84.1798
 20
-39.5644
 30
0.0
  0
VERTEX
  5
4CB
  8
0
 62
     3
 10
84.615
 20
-39.1286
 30
0.0
  0
VERTEX
  5
4CC
  8
0
 62
     3
 10
84.9007
 20
-38.5705
 30
0.0
  0
VERTEX
  5
4CD
  8
0
 62
     3
 10
85.0
 20
-37.9474
 30
0.0
  0
SEQEND
  5
5B6
  8
0
 62
     3
  0
POLYLINE
  5
268
  8
0
 62
     3
 66
     1
 10
0.0
 20
0.0
 30
0.0
 40
1.0287
 41
1.0287
  0
VERTEX
  5
4CF
  8
0
 62
     3
 10
8.8965
 20
-48.0503
 30
0.0
  0
VERTEX
  5
4D0
  8
0
 62
     3
 10
9.013
 20
-49.0033
 30
0.0
  0
SEQEND
  5
5B7
  8
0
 62
     3
  0
POLYLINE
  5
26C
  8
0
 62
     3
 66
     1
 10
0.0
 20
0.0
 30
0.0
 40
1.0287
 41
1.0287
  0
VERTEX
  5
4D2
  8
0
 62
     3
 10
81.6056
 20
-39.9256
 30
0.0
  0
VERTEX
  5
4D3
  8
0
 62
     3
 10
83.0
 20
-39.95
 30
0.0
  0
SEQEND
  5
5B8
  8
0
 62
     3
  0
POLYLINE
  5
270
  8
0
 62
     3
 66
     1
 10
0.0
 20
0.0
 30
0.0
 40
1.0287
 41
1.0287
  0
VERTEX
  5
4D5
  8
0
 62
     3
 10
145.0
 20
-244.9982
 30
0.0
  0
VERTEX
  5
4D6
  8
0
 62
     3
 10
145.0
 20
-203.0
 30
0.0
  0
SEQEND
  5
5B9
  8
0
 62
     3
  0
POLYLINE
  5
274
  8
0
 62
     3
 66
     1
 10
0.0
 20
0.0
 30
0.0
 40
1.0287
 41
1.0287
  0
VERTEX
  5
4D8
  8
0
 62
     3
 10
123.0634
 20
-203.0
 30
0.0
  0
VERTEX
  5
4D9
  8
0
 62
     3
 10
145.0
 20
-203.0
 30
0.0
  0
SEQEND
  5
5BA
  8
0
 62
     3
  0
POLYLINE
  5
278
  8
0
 62
     3
 66
     1
 10
0.0
 20
0.0
 30
0.0
 40
1.0287
 41
1.0287
  0
VERTEX
  5
4DB
  8
0
 62
     3
 10
118.0585
 20
-244.0592
 30
0.0
  0
VERTEX
  5
4DC
  8
0
 62
     3
 10
145.0
 20
-245.0
 30
0.0
  0
SEQEND
  5
5BB
  8
0
 62
     3
  0
POLYLINE
  5
27C
  8
0
 62
     3
 66
     1
 10
0.0
 20
0.0
 30
0.0
 40
1.0287
 41
1.0287
  0
VERTEX
  5
4DE
  8
0
 62
     3
 10
131.2138
 20
-220.4333
 30
0.0
  0
VERTEX
  5
4DF
  8
0
 62
     3
 10
105.7423
 20
-158.3654
 30
0.0
  0
VERTEX
  5
4E0
  8
0
 62
     3
 10
88.80750000000001
 20
-93.4337
 30
0.0
  0
VERTEX
  5
4E1
  8
0
 62
     3
 10
80.71980000000001
 20
-26.8196
 30
0.0
  0
VERTEX
  5
4E2
  8
0
 62
     3
 10
80.7192
 20
-26.8082
 30
0.0
  0
SEQEND
  5
5BC
  8
0
 62
     3
  0
POLYLINE
  5
283
  8
0
 62
     3
 66
     1
 10
0.0
 20
0.0
 30
0.0
 40
1.0287
 41
1.0287
  0
VERTEX
  5
4E4
  8
0
 62
     3
 10
11.5812
 20
-66.58629999999999
 30
0.0
  0
VERTEX
  5
4E5
  8
0
 62
     3
 10
9.013
 20
-49.0031
 30
0.0
  0
SEQEND
  5
5BD
  8
0
 62
     3
  0
POLYLINE
  5
287
  8
0
 62
     3
 66
     1
 10
0.0
 20
0.0
 30
0.0
 40
1.0287
 41
1.0287
  0
VERTEX
  5
4E7
  8
0
 62
     3
 10
69.7089
 20
-216.5831
 30
0.0
  0
VERTEX
  5
4E8
  8
0
 62
     3
 10
44.6083
 20
-171.4529
 30
0.0
  0
VERTEX
  5
4E9
  8
0
 62
     3
 10
25.527
 20
-123.4515
 30
0.0
  0
VERTEX
  5
4EA
  8
0
 62
     3
 10
12.7901
 20
-73.3888
 30
0.0
  0
SEQEND
  5
5BE
  8
0
 62
     3
  0
POLYLINE
  5
28D
  8
0
 62
     3
 66
     1
 10
0.0
 20
0.0
 30
0.0
 40
1.0287
 41
1.0287
  0
VERTEX
  5
4EC
  8
0
 62
     3
 10
118.0586
 20
-244.0592
 30
0.0
  0
VERTEX
  5
4ED
  8
0
 62
     3
 10
108.4965
 20
-242.9527
 30
0.0
  0
VERTEX
  5
4EE
  8
0
 62
     3
 10
99.2329
 20
-240.3308
 30
0.0
  0
VERTEX
  5
4EF
  8
0
 62
     3
 10
90.50879999999999
 20
-236.2614
 30
0.0
  0
VERTEX
  5
4F0
  8
0
 62
     3
 10
82.5479
 20
-230.8493
 30
0.0
  0
VERTEX
  5
4F1
  8
0
 62
     3
 10
75.5544
 20
-224.2331
 30
0.0
  0
VERTEX
  5
4F2
  8
0
 62
     3
 10
69.7089
 20
-216.5832
 30
0.0
  0
SEQEND
  5
5BF
  8
0
 62
     3
  0
POLYLINE
  5
296
  8
0
 62
     3
 66
     1
 10
0.0
 20
0.0
 30
0.0
 40
1.0287
 41
1.0287
  0
VERTEX
  5
4F4
  8
0
 62
     3
 10
5.566
 20
-32.8484
 30
0.0
  0
VERTEX
  5
4F5
  8
0
 62
     3
 10
12.3543
 20
-29.9845
 30
0.0
  0
VERTEX
  5
4F6
  8
0
 62
     3
 10
19.4727
 20
-28.0824
 30
0.0
  0
VERTEX
  5
4F7
  8
0
 62
     3
 10
26.7849
 20
-27.1784
 30
0.0
  0
SEQEND
  5
5C0
  8
0
 62
     3
  0
POLYLINE
  5
29C
  8
0
 62
     3
 66
     1
 10
0.0
 20
0.0
 30
0.0
 40
1.0287
 41
1.0287
  0
VERTEX
  5
4F9
  8
0
 62
     3
 10
80.71899999999999
 20
-26.8043
 30
0.0
  0
VERTEX
  5
4FA
  8
0
 62
     3
 10
26.7852
 20
-27.1783
 30
0.0
  0
SEQEND
  5
5C1
  8
0
 62
     3
  0
POLYLINE
  5
2A0
  8
0
 62
     3
 66
     1
 10
0.0
 20
0.0
 30
0.0
 40
1.0287
 41
1.0287
  0
VERTEX
  5
4FC
  8
0
 62
     3
 10
2.5734
 20
-37.5273
 30
0.0
  0
VERTEX
  5
4FD
  8
0
 62
     3
 10
4.457
 20
-39.1917
 30
0.0
  0
VERTEX
  5
4FE
  8
0
 62
     3
 10
6.065
 20
-41.1239
 30
0.0
  0
VERTEX
  5
4FF
  8
0
 62
     3
 10
7.3597
 20
-43.2786
 30
0.0
  0
VERTEX
  5
500
  8
0
 62
     3
 10
8.3109
 20
-45.6054
 30
0.0
  0
VERTEX
  5
501
  8
0
 62
     3
 10
8.8964
 20
-48.0502
 30
0.0
  0
SEQEND
  5
5C2
  8
0
 62
     3
  0
POLYLINE
  5
2A8
  8
0
 62
     3
 66
     1
 10
0.0
 20
0.0
 30
0.0
 40
0.5715
 41
0.5715
  0
VERTEX
  5
503
  8
0
 62
     3
 10
85.0266
 20
-207.1215
 30
0.0
  0
VERTEX
  5
504
  8
0
 62
     3
 10
56.8469
 20
-153.245
 30
0.0
  0
VERTEX
  5
505
  8
0
 62
     3
 10
38.3103
 20
-95.33069999999999
 30
0.0
  0
VERTEX
  5
506
  8
0
 62
     3
 10
29.9683
 20
-35.0976
 30
0.0
  0
VERTEX
  5
507
  8
0
 62
     3
 10
29.9681
 20
-35.0923
 30
0.0
  0
SEQEND
  5
5C3
  8
0
 62
     3
  0
POLYLINE
  5
2AF
  8
0
 62
     3
 66
     1
 10
0.0
 20
0.0
 30
0.0
 40
0.5715
 41
0.5715
  0
VERTEX
  5
509
  8
0
 62
     3
 10
107.3003
 20
-224.0406
 30
0.0
  0
VERTEX
  5
50A
  8
0
 62
     3
 10
100.6638
 20
-221.2571
 30
0.0
  0
VERTEX
  5
50B
  8
0
 62
     3
 10
94.59690000000001
 20
-217.3855
 30
0.0
  0
VERTEX
  5
50C
  8
0
 62
     3
 10
89.27630000000001
 20
-212.5384
 30
0.0
  0
VERTEX
  5
50D
  8
0
 62
     3
 10
84.8575
 20
-206.8576
 30
0.0
  0
VERTEX
  5
50E
  8
0
 62
     3
 10
84.8571
 20
-206.8568
 30
0.0
  0
SEQEND
  5
5C4
  8
0
 62
     3
  0
POLYLINE
  5
2B7
  8
0
 62
     3
 66
     1
 10
0.0
 20
0.0
 30
0.0
 40
1.0287
 41
1.0287
  0
VERTEX
  5
510
  8
0
 62
     3
 10
2.5486
 20
-37.5629
 30
0.0
  0
VERTEX
  5
511
  8
0
 62
     3
 10
1.8123
 20
-36.9519
 30
0.0
  0
VERTEX
  5
512
  8
0
 62
     3
 10
1.1825
 20
-36.2316
 30
0.0
  0
VERTEX
  5
513
  8
0
 62
     3
 10
0.6752
 20
-35.4202
 30
0.0
  0
VERTEX
  5
514
  8
0
 62
     3
 10
0.3033
 20
-34.5385
 30
0.0
  0
VERTEX
  5
515
  8
0
 62
     3
 10
0.0763
 20
-33.6089
 30
0.0
  0
VERTEX
  5
516
  8
0
 62
     3
 10
0.0
 20
-32.6551
 30
0.0
  0
VERTEX
  5
517
  8
0
 62
     3
 10
0.0
 20
-32.655
 30
0.0
  0
SEQEND
  5
5C5
  8
0
 62
     3
  0
POLYLINE
  5
2C1
  8
0
  6
MCDASH7
 66
     1
 10
0.0
 20
0.0
 30
0.0
 40
0.5715
 41
0.5715
  0
VERTEX
  5
519
  8
0
  6
MCDASH7
 10
0.0
 20
-24.15
 30
0.0
  0
VERTEX
  5
51A
  8
0
  6
MCDASH7
 10
85.0
 20
-24.15
 30
0.0
  0
SEQEND
  5
5C6
  8
0
  6
MCDASH7
  0
POLYLINE
  5
2C5
  8
0
  6
MCDASH7
 66
     1
 10
0.0
 20
0.0
 30
0.0
 40
1.0287
 41
1.0287
  0
VERTEX
  5
51C
  8
0
  6
MCDASH7
 10
145.0
 20
-216.0
 30
0.0
  0
VERTEX
  5
51D
  8
0
  6
MCDASH7
 10
91.0
 20
-216.0
 30
0.0
  0
SEQEND
  5
5C7
  8
0
  6
MCDASH7
  0
POLYLINE
  5
2C9
  8
0
  6
MCDASH7
 66
     1
 10
0.0
 20
0.0
 30
0.0
 40
1.0287
 41
1.0287
  0
VERTEX
  5
51F
  8
0
  6
MCDASH7
 10
145.0
 20
-232.0
 30
0.0
  0
VERTEX
  5
520
  8
0
  6
MCDASH7
 10
91.0
 20
-232.0
 30
0.0
  0
SEQEND
  5
5C8
  8
0
  6
MCDASH7
  0
POLYLINE
  5
2CD
  8
0
  6
MCDASH7
 66
     1
 10
0.0
 20
0.0
 30
0.0
 40
1.0287
 41
1.0287
  0
VERTEX
  5
522
  8
0
  6
MCDASH7
 10
91.0
 20
-232.0
 30
0.0
  0
VERTEX
  5
523
  8
0
  6
MCDASH7
 10
91.0
 20
-216.0
 30
0.0
  0
SEQEND
  5
5C9
  8
0
  6
MCDASH7
  0
POLYLINE
  5
2D1
  8
0
 62
     3
 66
     1
 10
0.0
 20
0.0
 30
0.0
 40
0.5715
 41
0.5715
  0
VERTEX
  5
525
  8
0
 62
     3
 10
-3.6921
 20
0.0
 30
0.0
  0
VERTEX
  5
526
  8
0
 62
     3
 10
92.3079
 20
0.0
 30
0.0
  0
SEQEND
  5
5CA
  8
0
 62
     3
  0
POLYLINE
  5
2D5
  8
0
 62
     3
 66
     1
 10
0.0
 20
0.0
 30
0.0
 40
0.5715
 41
0.5715
  0
VERTEX
  5
528
  8
0
 62
     3
 10
149.2083
 20
-224.0
 30
0.0
  0
VERTEX
  5
529
  8
0
 62
     3
 10
85.8976
 20
-224.0
 30
0.0
  0
SEQEND
  5
5CB
  8
0
 62
     3
  0
POLYLINE
  5
2D9
  8
0
 62
     3
 66
     1
 10
0.0
 20
0.0
 30
0.0
 40
1.0287
 41
1.0287
  0
VERTEX
  5
52B
  8
0
 62
     3
 10
5.5663
 20
-32.8482
 30
0.0
  0
VERTEX
  5
52C
  8
0
 62
     3
 10
2.5735
 20
-37.5272
 30
0.0
  0
SEQEND
  5
5CC
  8
0
 62
     3
  0
POLYLINE
  5
2DD
  8
0
 62
     3
 66
     1
 10
0.0
 20
0.0
 30
0.0
 40
1.0287
 41
1.0287
  0
VERTEX
  5
52E
  8
0
 62
     3
 10
35.0
 20
-32.655
 30
0.0
  0
VERTEX
  5
52F
  8
0
 62
     3
 10
35.0
 20
32.655
 30
0.0
  0
SEQEND
  5
5CD
  8
0
 62
     3
  0
LINE
  5
2E1
  8
0
 62
     3
 10
44.6168
 20
23.9407
 30
0.0
 11
84.93225
 21
23.9407
 31
0.0
  0
LINE
  5
2E2
  8
0
 62
     3
 10
44.6168
 20
-23.9407
 30
0.0
 11
84.93225
 21
-23.9407
 31
0.0
  0
ARC
  5
2E3
  8
0
 62
     3
 10
35.0
 20
0.0
 30
0.0
 40
25.8
 50
68.115036
 51
291.884964
  0
ARC
  5
2E4
  8
0
 62
     3
 10
35.0
 20
0.0
 30
0.0
 40
21.2
 50
8.135192999999999
 51
351.864792
  0
LINE
  5
2E5
  8
0
 62
     3
 10
85.0
 20
3.0
 30
0.0
 11
55.98666
 21
3.0
 31
0.0
  0
LINE
  5
2E6
  8
0
 62
     3
 10
85.0
 20
-3.0
 30
0.0
 11
55.98663
 21
-3.0
 31
0.0
  0
ENDBLK
  5
5CF
  8
0
  0
ENDSEC
  0
SECTION
  2
ENTITIES
  0
INSERT
  5
2E8
  8
0
  2
SIMBOLO_N__1
 10
-132.56775
 20
-113.30923
 30
0.0
  0
INSERT
  5
2E9
  8
0
  2
619_SOPRA
 10
165.25994
 20
-113.20263
 30
0.0
  0
ENDSEC
  0
EOF
