  0
SECTION
  2
HEADER
  9
$ACADVER
  1
AC1009
  9
$DWGCODEPAGE
  3
ansi_1252
  9
$INSBASE
 10
0.0
 20
0.0
 30
0.0
  9
$EXTMIN
 10
-427.0375
 20
-619.9186999999999
 30
0.0
  9
$EXTMAX
 10
427.0375
 20
619.9186999999999
 30
0.0
  9
$LIMMIN
 10
0.0
 20
0.0
  9
$LIMMAX
 10
12.0
 20
9.0
  9
$ORTHOMODE
 70
     0
  9
$REGENMODE
 70
     1
  9
$FILLMODE
 70
     1
  9
$QTEXTMODE
 70
     0
  9
$MIRRTEXT
 70
     1
  9
$DRAGMODE
 70
     2
  9
$LTSCALE
 40
4.5
  9
$OSMODE
 70
    37
  9
$ATTMODE
 70
     1
  9
$TEXTSIZE
 40
0.2
  9
$TRACEWID
 40
0.05
  9
$TEXTSTYLE
  7
STANDARD
  9
$CLAYER
  8
0
  9
$CELTYPE
  6
BYBLOCK
  9
$CECOLOR
 62
   256
  9
$DIMSCALE
 40
1.0
  9
$DIMASZ
 40
0.18
  9
$DIMEXO
 40
0.0625
  9
$DIMDLI
 40
0.38
  9
$DIMRND
 40
0.0
  9
$DIMDLE
 40
0.0
  9
$DIMEXE
 40
0.18
  9
$DIMTP
 40
0.0
  9
$DIMTM
 40
0.0
  9
$DIMTXT
 40
0.18
  9
$DIMCEN
 40
0.09
  9
$DIMTSZ
 40
0.0
  9
$DIMTOL
 70
     0
  9
$DIMLIM
 70
     0
  9
$DIMTIH
 70
     1
  9
$DIMTOH
 70
     1
  9
$DIMSE1
 70
     0
  9
$DIMSE2
 70
     0
  9
$DIMTAD
 70
     0
  9
$DIMZIN
 70
     0
  9
$DIMBLK
  1

  9
$DIMASO
 70
     1
  9
$DIMSHO
 70
     1
  9
$DIMPOST
  1

  9
$DIMAPOST
  1

  9
$DIMALT
 70
     0
  9
$DIMALTD
 70
     2
  9
$DIMALTF
 40
25.4
  9
$DIMLFAC
 40
1.0
  9
$DIMTOFL
 70
     0
  9
$DIMTVP
 40
0.0
  9
$DIMTIX
 70
     0
  9
$DIMSOXD
 70
     0
  9
$DIMSAH
 70
     0
  9
$DIMBLK1
  1

  9
$DIMBLK2
  1

  9
$DIMSTYLE
  2
STANDARD
  9
$DIMCLRD
 70
     0
  9
$DIMCLRE
 70
     0
  9
$DIMCLRT
 70
     0
  9
$DIMTFAC
 40
1.0
  9
$DIMGAP
 40
0.09
  9
$LUNITS
 70
     2
  9
$LUPREC
 70
     4
  9
$SKETCHINC
 40
0.1
  9
$FILLETRAD
 40
0.5
  9
$AUNITS
 70
     0
  9
$AUPREC
 70
     0
  9
$MENU
  1
.
  9
$ELEVATION
 40
0.0
  9
$PELEVATION
 40
0.0
  9
$THICKNESS
 40
0.0
  9
$LIMCHECK
 70
     0
  9
$CHAMFERA
 40
0.5
  9
$CHAMFERB
 40
0.5
  9
$SKPOLY
 70
     0
  9
$TDCREATE
 40
2453619.496202245
  9
$TDUPDATE
 40
2453619.496202257
  9
$TDINDWG
 40
0.0000000116
  9
$TDUSRTIMER
 40
0.0000000116
  9
$USRTIMER
 70
     1
  9
$ANGBASE
 50
0.0
  9
$ANGDIR
 70
     0
  9
$PDMODE
 70
     0
  9
$PDSIZE
 40
0.0
  9
$PLINEWID
 40
0.0
  9
$COORDS
 70
     1
  9
$SPLFRAME
 70
     0
  9
$SPLINETYPE
 70
     6
  9
$SPLINESEGS
 70
     8
  9
$ATTDIA
 70
     0
  9
$ATTREQ
 70
     1
  9
$HANDLING
 70
     1
  9
$HANDSEED
  5
5FD
  9
$SURFTAB1
 70
     6
  9
$SURFTAB2
 70
     6
  9
$SURFTYPE
 70
     6
  9
$SURFU
 70
     6
  9
$SURFV
 70
     6
  9
$UCSNAME
  2

  9
$UCSORG
 10
0.0
 20
0.0
 30
0.0
  9
$UCSXDIR
 10
1.0
 20
0.0
 30
0.0
  9
$UCSYDIR
 10
0.0
 20
1.0
 30
0.0
  9
$PUCSNAME
  2

  9
$PUCSORG
 10
0.0
 20
0.0
 30
0.0
  9
$PUCSXDIR
 10
1.0
 20
0.0
 30
0.0
  9
$PUCSYDIR
 10
0.0
 20
1.0
 30
0.0
  9
$USERI1
 70
     0
  9
$USERI2
 70
     0
  9
$USERI3
 70
     0
  9
$USERI4
 70
     0
  9
$USERI5
 70
     0
  9
$USERR1
 40
0.0
  9
$USERR2
 40
0.0
  9
$USERR3
 40
0.0
  9
$USERR4
 40
0.0
  9
$USERR5
 40
0.0
  9
$WORLDVIEW
 70
     1
  9
$SHADEDGE
 70
     3
  9
$SHADEDIF
 70
    70
  9
$TILEMODE
 70
     1
  9
$MAXACTVP
 70
    64
  9
$PLIMCHECK
 70
     0
  9
$PEXTMIN
 10
1.000000000000000E+20
 20
1.000000000000000E+20
 30
1.000000000000000E+20
  9
$PEXTMAX
 10
-1.000000000000000E+20
 20
-1.000000000000000E+20
 30
-1.000000000000000E+20
  9
$PLIMMIN
 10
0.0
 20
0.0
  9
$PLIMMAX
 10
12.0
 20
9.0
  9
$UNITMODE
 70
     0
  9
$VISRETAIN
 70
     1
  9
$PLINEGEN
 70
     0
  9
$PSLTSCALE
 70
     1
  0
ENDSEC
  0
SECTION
  2
TABLES
  0
TABLE
  2
VPORT
 70
     1
  0
VPORT
  2
*ACTIVE
 70
     0
 10
0.0
 20
0.0
 11
1.0
 21
1.0
 12
10.42990654205607
 22
4.5
 13
0.0
 23
0.0
 14
0.5
 24
0.5
 15
0.5
 25
0.5
 16
0.0
 26
0.0
 36
1.0
 17
0.0
 27
0.0
 37
0.0
 40
9.0
 41
1.972972972850329
 42
50.0
 43
0.0
 44
0.0
 50
0.0
 51
0.0
 71
     0
 72
   100
 73
     1
 74
     3
 75
     0
 76
     0
 77
     0
 78
     0
  0
ENDTAB
  0
TABLE
  2
LTYPE
 70
     9
  0
LTYPE
  2
CONTINUOUS
 70
     0
  3
Solid Line
 72
    65
 73
     0
 40
0.0
  0
LTYPE
  2
MCDASH1
 70
     0
  3
MiniCad+ Generated
 72
    65
 73
     6
 40
8.740551
 49
2.497134
 49
-1.248761
 49
2.497134
 49
-1.248761
 49
0.000388
 49
-1.248373
  0
LTYPE
  2
MCDASH2
 70
     0
  3
MiniCad+ Generated
 72
    65
 73
     4
 40
9.989699999999999
 49
6.243417
 49
-1.248761
 49
1.248761
 49
-1.248761
  0
LTYPE
  2
MCDASH3
 70
     0
  3
MiniCad+ Generated
 72
    65
 73
     4
 40
4.994656
 49
2.497134
 49
-1.248761
 49
0.000388
 49
-1.248373
  0
LTYPE
  2
MCDASH4
 70
     0
  3
MiniCad+ Generated
 72
    65
 73
     2
 40
3.745895
 49
2.497134
 49
-1.248761
  0
LTYPE
  2
MCDASH5
 70
     0
  3
MiniCad+ Generated
 72
    65
 73
     6
 40
6.243417
 49
2.497134
 49
-1.248761
 49
0.000388
 49
-1.248373
 49
0.000388
 49
-1.248373
  0
LTYPE
  2
MCDASH6
 70
     0
  3
MiniCad+ Generated
 72
    65
 73
     4
 40
2.497522
 49
0.000388
 49
-1.248373
 49
0.000388
 49
-1.248373
  0
LTYPE
  2
MCDASH7
 70
     0
  3
MiniCad+ Generated
 72
    65
 73
     2
 40
1.873141
 49
1.248761
 49
-0.6243800000000001
  0
LTYPE
  2
MCDASH8
 70
     0
  3
MiniCad+ Generated
 72
    65
 73
     6
 40
12.487222
 49
6.243417
 49
-1.248761
 49
1.248761
 49
-1.248761
 49
1.248761
 49
-1.248761
  0
ENDTAB
  0
TABLE
  2
LAYER
 70
     1
  0
LAYER
  2
0
 70
     0
 62
     7
  6
CONTINUOUS
  0
ENDTAB
  0
TABLE
  2
STYLE
 70
     1
  0
STYLE
  2
STANDARD
 70
     0
 40
0.0
 41
1.0
 50
0.0
 71
     0
 42
0.2
  3
txt
  4

  0
ENDTAB
  0
TABLE
  2
VIEW
 70
     0
  0
ENDTAB
  0
TABLE
  2
UCS
 70
     0
  0
ENDTAB
  0
TABLE
  2
APPID
 70
     1
  0
APPID
  2
ACAD
 70
     0
  0
ENDTAB
  0
TABLE
  2
DIMSTYLE
 70
     1
  0
DIMSTYLE
  2
STANDARD
 70
     0
  3

  4

  5

  6

  7

 40
1.0
 41
0.18
 42
0.0625
 43
0.38
 44
0.18
 45
0.0
 46
0.0
 47
0.0
 48
0.0
140
0.18
141
0.09
142
0.0
143
25.4
144
1.0
145
0.0
146
1.0
147
0.09
 71
     0
 72
     0
 73
     1
 74
     1
 75
     0
 76
     0
 77
     0
 78
     0
170
     0
171
     2
172
     0
173
     0
174
     0
175
     0
176
     0
177
     0
178
     0
  0
ENDTAB
  0
ENDSEC
  0
SECTION
  2
BLOCKS
  0
BLOCK
  8
0
  2
$MODEL_SPACE
 70
     0
 10
0.0
 20
0.0
 30
0.0
  3
$MODEL_SPACE
  1

  0
ENDBLK
  5
5F8
  8
0
  0
BLOCK
 67
     1
  8
0
  2
$PAPER_SPACE
 70
     0
 10
0.0
 20
0.0
 30
0.0
  3
$PAPER_SPACE
  1

  0
ENDBLK
  5
5F6
 67
     1
  8
0
  0
BLOCK
  8
0
  2
$ARROW1$
 70
     0
 10
0.0
 20
0.0
 30
0.0
  3
$ARROW1$
  1

  0
SOLID
  5
2D
  8
0
 62
     0
 10
-25.4
 20
4.318
 30
0.0
 11
-25.4
 21
-4.318
 31
0.0
 12
0.0
 22
0.0
 32
0.0
 13
0.0
 23
0.0
 33
0.0
  0
ENDBLK
  5
58E
  8
0
  0
BLOCK
  8
0
  2
$ARROW2$
 70
     0
 10
0.0
 20
0.0
 30
0.0
  3
$ARROW2$
  1

  0
SOLID
  5
31
  8
0
 62
     0
 10
-25.4
 20
12.7
 30
0.0
 11
-25.4
 21
-12.7
 31
0.0
 12
0.0
 22
0.0
 32
0.0
 13
0.0
 23
0.0
 33
0.0
  0
ENDBLK
  5
590
  8
0
  0
BLOCK
  8
0
  2
$ARROW3$
 70
     0
 10
0.0
 20
0.0
 30
0.0
  3
$ARROW3$
  1

  0
POLYLINE
  5
35
  8
0
  6
BYBLOCK
 62
     0
 66
     1
 10
0.0
 20
0.0
 30
0.0
 70
     1
 40
0.5
 41
0.5
  0
VERTEX
  5
308
  8
0
  6
BYBLOCK
 62
     0
 10
-6.35
 20
0.0
 30
0.0
 42
1.0
  0
VERTEX
  5
309
  8
0
  6
BYBLOCK
 62
     0
 10
6.35
 20
0.0
 30
0.0
 42
1.0
  0
SEQEND
  5
591
  8
0
  6
BYBLOCK
 62
     0
  0
ENDBLK
  5
593
  8
0
  0
BLOCK
  8
0
  2
$ARROW4$
 70
     0
 10
0.0
 20
0.0
 30
0.0
  3
$ARROW4$
  1

  0
LINE
  5
3C
  8
0
  6
BYBLOCK
 62
     0
 10
12.7
 20
12.7
 30
0.0
 11
-12.7
 21
-12.7
 31
0.0
  0
ENDBLK
  5
595
  8
0
  0
BLOCK
  8
0
  2
$ARROW5$
 70
     0
 10
0.0
 20
0.0
 30
0.0
  3
$ARROW5$
  1

  0
LINE
  5
40
  8
0
  6
BYBLOCK
 62
     0
 10
12.7
 20
12.7
 30
0.0
 11
-12.7
 21
-12.7
 31
0.0
  0
LINE
  5
41
  8
0
  6
BYBLOCK
 62
     0
 10
-12.7
 20
12.7
 30
0.0
 11
12.7
 21
-12.7
 31
0.0
  0
ENDBLK
  5
597
  8
0
  0
BLOCK
  8
0
  2
SIMBOLO_N__1
 70
     0
 10
0.0
 20
0.0
 30
0.0
  3
SIMBOLO_N__1
  1

  0
POLYLINE
  5
45
  8
0
 62
     3
 66
     1
 10
0.0
 20
0.0
 30
0.0
 40
1.0287
 41
1.0287
  0
VERTEX
  5
30B
  8
0
 62
     3
 10
66.5864
 20
-11.5811
 30
0.0
  0
VERTEX
  5
30C
  8
0
 62
     3
 10
67.2066
 20
-11.7001
 30
0.0
  0
VERTEX
  5
30D
  8
0
 62
     3
 10
68.01170000000001
 20
-11.8682
 30
0.0
  0
VERTEX
  5
30E
  8
0
 62
     3
 10
68.9542
 20
-12.0599
 30
0.0
  0
VERTEX
  5
30F
  8
0
 62
     3
 10
69.9593
 20
-12.2484
 30
0.0
  0
VERTEX
  5
310
  8
0
 62
     3
 10
70.9755
 20
-12.4196
 30
0.0
  0
VERTEX
  5
311
  8
0
 62
     3
 10
71.9194
 20
-12.5635
 30
0.0
  0
VERTEX
  5
312
  8
0
 62
     3
 10
72.7449
 20
-12.6847
 30
0.0
  0
VERTEX
  5
313
  8
0
 62
     3
 10
73.38890000000001
 20
-12.79
 30
0.0
  0
SEQEND
  5
598
  8
0
 62
     3
  0
POLYLINE
  5
50
  8
0
 62
     3
 66
     1
 10
0.0
 20
0.0
 30
0.0
 40
1.0287
 41
1.0287
  0
VERTEX
  5
315
  8
0
 62
     3
 10
39.95
 20
-83.0
 30
0.0
  0
VERTEX
  5
316
  8
0
 62
     3
 10
39.8503
 20
-83.62309999999999
 30
0.0
  0
VERTEX
  5
317
  8
0
 62
     3
 10
39.5644
 20
-84.1798
 30
0.0
  0
VERTEX
  5
318
  8
0
 62
     3
 10
39.1286
 20
-84.615
 30
0.0
  0
VERTEX
  5
319
  8
0
 62
     3
 10
38.5705
 20
-84.9007
 30
0.0
  0
VERTEX
  5
31A
  8
0
 62
     3
 10
37.9474
 20
-85.0
 30
0.0
  0
SEQEND
  5
599
  8
0
 62
     3
  0
POLYLINE
  5
58
  8
0
 62
     3
 66
     1
 10
0.0
 20
0.0
 30
0.0
 40
1.0287
 41
1.0287
  0
VERTEX
  5
31C
  8
0
 62
     3
 10
-29.4354
 20
-9.3131
 30
0.0
  0
VERTEX
  5
31D
  8
0
 62
     3
 10
-29.4309
 20
-9.312099999999999
 30
0.0
  0
SEQEND
  5
59A
  8
0
 62
     3
  0
POLYLINE
  5
5C
  8
0
 62
     3
 66
     1
 10
0.0
 20
0.0
 30
0.0
 40
1.0287
 41
1.0287
  0
VERTEX
  5
31F
  8
0
 62
     3
 10
-32.655
 20
0.0
 30
0.0
  0
VERTEX
  5
320
  8
0
 62
     3
 10
32.655
 20
0.0
 30
0.0
  0
SEQEND
  5
59B
  8
0
 62
     3
  0
POLYLINE
  5
60
  8
0
 62
     3
 66
     1
 10
0.0
 20
0.0
 30
0.0
 40
1.0287
 41
1.0287
  0
VERTEX
  5
322
  8
0
 62
     3
 10
48.0503
 20
-8.8965
 30
0.0
  0
VERTEX
  5
323
  8
0
 62
     3
 10
49.0033
 20
-9.013
 30
0.0
  0
SEQEND
  5
59C
  8
0
 62
     3
  0
POLYLINE
  5
64
  8
0
 62
     3
 66
     1
 10
0.0
 20
0.0
 30
0.0
 40
1.0287
 41
1.0287
  0
VERTEX
  5
325
  8
0
 62
     3
 10
38.5
 20
-30.0
 30
0.0
  0
VERTEX
  5
326
  8
0
 62
     3
 10
38.5
 20
-81.48439999999999
 30
0.0
  0
SEQEND
  5
59D
  8
0
 62
     3
  0
POLYLINE
  5
68
  8
0
 62
     3
 66
     1
 10
0.0
 20
0.0
 30
0.0
 40
1.0287
 41
1.0287
  0
VERTEX
  5
328
  8
0
 62
     3
 10
39.9256
 20
-81.6056
 30
0.0
  0
VERTEX
  5
329
  8
0
 62
     3
 10
39.95
 20
-83.0
 30
0.0
  0
SEQEND
  5
59E
  8
0
 62
     3
  0
POLYLINE
  5
6C
  8
0
 62
     3
 66
     1
 10
0.0
 20
0.0
 30
0.0
 40
1.0287
 41
1.0287
  0
VERTEX
  5
32B
  8
0
 62
     3
 10
61.5
 20
-83.7966
 30
0.0
  0
VERTEX
  5
32C
  8
0
 62
     3
 10
61.5
 20
-30.0
 30
0.0
  0
SEQEND
  5
59F
  8
0
 62
     3
  0
POLYLINE
  5
70
  8
0
 62
     3
 66
     1
 10
0.0
 20
0.0
 30
0.0
 40
1.0287
 41
1.0287
  0
VERTEX
  5
32E
  8
0
 62
     3
 10
-37.9474
 20
-85.0
 30
0.0
  0
VERTEX
  5
32F
  8
0
 62
     3
 10
37.9474
 20
-85.0
 30
0.0
  0
SEQEND
  5
5A0
  8
0
 62
     3
  0
POLYLINE
  5
74
  8
0
 62
     3
 66
     1
 10
0.0
 20
0.0
 30
0.0
 40
1.0287
 41
1.0287
  0
VERTEX
  5
331
  8
0
 62
     3
 10
244.9982
 20
-145.0
 30
0.0
  0
VERTEX
  5
332
  8
0
 62
     3
 10
203.0
 20
-145.0
 30
0.0
  0
SEQEND
  5
5A1
  8
0
 62
     3
  0
POLYLINE
  5
78
  8
0
 62
     3
 66
     1
 10
0.0
 20
0.0
 30
0.0
 40
1.0287
 41
1.0287
  0
VERTEX
  5
334
  8
0
 62
     3
 10
203.0
 20
-123.0634
 30
0.0
  0
VERTEX
  5
335
  8
0
 62
     3
 10
203.0
 20
-145.0
 30
0.0
  0
SEQEND
  5
5A2
  8
0
 62
     3
  0
POLYLINE
  5
7C
  8
0
 62
     3
 66
     1
 10
0.0
 20
0.0
 30
0.0
 40
1.0287
 41
1.0287
  0
VERTEX
  5
337
  8
0
 62
     3
 10
244.0592
 20
-118.0585
 30
0.0
  0
VERTEX
  5
338
  8
0
 62
     3
 10
245.0
 20
-145.0
 30
0.0
  0
SEQEND
  5
5A3
  8
0
 62
     3
  0
POLYLINE
  5
80
  8
0
 62
     3
 66
     1
 10
0.0
 20
0.0
 30
0.0
 40
1.0287
 41
1.0287
  0
VERTEX
  5
33A
  8
0
 62
     3
 10
38.5
 20
-29.9999
 30
0.0
  0
VERTEX
  5
33B
  8
0
 62
     3
 10
38.6747
 20
-28.0032
 30
0.0
  0
VERTEX
  5
33C
  8
0
 62
     3
 10
39.1935
 20
-26.0668
 30
0.0
  0
VERTEX
  5
33D
  8
0
 62
     3
 10
40.0407
 20
-24.25
 30
0.0
  0
VERTEX
  5
33E
  8
0
 62
     3
 10
41.1904
 20
-22.608
 30
0.0
  0
VERTEX
  5
33F
  8
0
 62
     3
 10
42.6078
 20
-21.1906
 30
0.0
  0
VERTEX
  5
340
  8
0
 62
     3
 10
44.2498
 20
-20.0408
 30
0.0
  0
VERTEX
  5
341
  8
0
 62
     3
 10
46.0665
 20
-19.1936
 30
0.0
  0
VERTEX
  5
342
  8
0
 62
     3
 10
48.0029
 20
-18.6747
 30
0.0
  0
VERTEX
  5
343
  8
0
 62
     3
 10
49.9998
 20
-18.5
 30
0.0
  0
VERTEX
  5
344
  8
0
 62
     3
 10
51.9967
 20
-18.6747
 30
0.0
  0
VERTEX
  5
345
  8
0
 62
     3
 10
53.933
 20
-19.1934
 30
0.0
  0
VERTEX
  5
346
  8
0
 62
     3
 10
55.7498
 20
-20.0406
 30
0.0
  0
VERTEX
  5
347
  8
0
 62
     3
 10
57.3919
 20
-21.1904
 30
0.0
  0
VERTEX
  5
348
  8
0
 62
     3
 10
58.8094
 20
-22.6077
 30
0.0
  0
VERTEX
  5
349
  8
0
 62
     3
 10
59.9592
 20
-24.2497
 30
0.0
  0
VERTEX
  5
34A
  8
0
 62
     3
 10
60.8064
 20
-26.0664
 30
0.0
  0
VERTEX
  5
34B
  8
0
 62
     3
 10
61.3252
 20
-28.0027
 30
0.0
  0
VERTEX
  5
34C
  8
0
 62
     3
 10
61.5
 20
-29.9999
 30
0.0
  0
SEQEND
  5
5A4
  8
0
 62
     3
  0
POLYLINE
  5
95
  8
0
 62
     3
 66
     1
 10
0.0
 20
0.0
 30
0.0
 40
1.0287
 41
1.0287
  0
VERTEX
  5
34E
  8
0
 62
     3
 10
26.8082
 20
-80.7192
 30
0.0
  0
VERTEX
  5
34F
  8
0
 62
     3
 10
93.4187
 20
-88.80459999999999
 30
0.0
  0
VERTEX
  5
350
  8
0
 62
     3
 10
158.3509
 20
-105.7374
 30
0.0
  0
VERTEX
  5
351
  8
0
 62
     3
 10
220.431
 20
-131.2124
 30
0.0
  0
VERTEX
  5
352
  8
0
 62
     3
 10
220.4333
 20
-131.2138
 30
0.0
  0
SEQEND
  5
5A5
  8
0
 62
     3
  0
POLYLINE
  5
9C
  8
0
 62
     3
 66
     1
 10
0.0
 20
0.0
 30
0.0
 40
1.0287
 41
1.0287
  0
VERTEX
  5
354
  8
0
 62
     3
 10
49.0031
 20
-9.013
 30
0.0
  0
VERTEX
  5
355
  8
0
 62
     3
 10
66.58629999999999
 20
-11.5812
 30
0.0
  0
SEQEND
  5
5A6
  8
0
 62
     3
  0
POLYLINE
  5
A0
  8
0
 62
     3
 66
     1
 10
0.0
 20
0.0
 30
0.0
 40
1.0287
 41
1.0287
  0
VERTEX
  5
357
  8
0
 62
     3
 10
73.3888
 20
-12.7901
 30
0.0
  0
VERTEX
  5
358
  8
0
 62
     3
 10
123.4457
 20
-25.5251
 30
0.0
  0
VERTEX
  5
359
  8
0
 62
     3
 10
171.4419
 20
-44.6031
 30
0.0
  0
VERTEX
  5
35A
  8
0
 62
     3
 10
216.5831
 20
-69.7089
 30
0.0
  0
SEQEND
  5
5A7
  8
0
 62
     3
  0
POLYLINE
  5
A6
  8
0
 62
     3
 66
     1
 10
0.0
 20
0.0
 30
0.0
 40
1.0287
 41
1.0287
  0
VERTEX
  5
35C
  8
0
 62
     3
 10
216.5832
 20
-69.7089
 30
0.0
  0
VERTEX
  5
35D
  8
0
 62
     3
 10
224.2325
 20
-75.5538
 30
0.0
  0
VERTEX
  5
35E
  8
0
 62
     3
 10
230.8487
 20
-82.5472
 30
0.0
  0
VERTEX
  5
35F
  8
0
 62
     3
 10
236.261
 20
-90.508
 30
0.0
  0
VERTEX
  5
360
  8
0
 62
     3
 10
240.3305
 20
-99.2321
 30
0.0
  0
VERTEX
  5
361
  8
0
 62
     3
 10
242.9525
 20
-108.4956
 30
0.0
  0
VERTEX
  5
362
  8
0
 62
     3
 10
244.0592
 20
-118.0586
 30
0.0
  0
SEQEND
  5
5A8
  8
0
 62
     3
  0
POLYLINE
  5
AF
  8
0
 62
     3
 66
     1
 10
0.0
 20
0.0
 30
0.0
 70
     1
 40
1.0287
 41
1.0287
  0
VERTEX
  5
364
  8
0
 62
     3
 10
50.0
 20
-36.25
 30
0.0
  0
VERTEX
  5
365
  8
0
 62
     3
 10
48.9146
 20
-36.155
 30
0.0
  0
VERTEX
  5
366
  8
0
 62
     3
 10
47.8623
 20
-35.8731
 30
0.0
  0
VERTEX
  5
367
  8
0
 62
     3
 10
46.875
 20
-35.4126
 30
0.0
  0
VERTEX
  5
368
  8
0
 62
     3
 10
45.9826
 20
-34.7878
 30
0.0
  0
VERTEX
  5
369
  8
0
 62
     3
 10
45.2122
 20
-34.0174
 30
0.0
  0
VERTEX
  5
36A
  8
0
 62
     3
 10
44.5873
 20
-33.125
 30
0.0
  0
VERTEX
  5
36B
  8
0
 62
     3
 10
44.1269
 20
-32.1376
 30
0.0
  0
VERTEX
  5
36C
  8
0
 62
     3
 10
43.8449
 20
-31.0853
 30
0.0
  0
VERTEX
  5
36D
  8
0
 62
     3
 10
43.75
 20
-30.0
 30
0.0
  0
VERTEX
  5
36E
  8
0
 62
     3
 10
43.8449
 20
-28.9147
 30
0.0
  0
VERTEX
  5
36F
  8
0
 62
     3
 10
44.1269
 20
-27.8623
 30
0.0
  0
VERTEX
  5
370
  8
0
 62
     3
 10
44.5874
 20
-26.875
 30
0.0
  0
VERTEX
  5
371
  8
0
 62
     3
 10
45.2122
 20
-25.9826
 30
0.0
  0
VERTEX
  5
372
  8
0
 62
     3
 10
45.9826
 20
-25.2122
 30
0.0
  0
VERTEX
  5
373
  8
0
 62
     3
 10
46.875
 20
-24.5874
 30
0.0
  0
VERTEX
  5
374
  8
0
 62
     3
 10
47.8624
 20
-24.1269
 30
0.0
  0
VERTEX
  5
375
  8
0
 62
     3
 10
48.9147
 20
-23.8449
 30
0.0
  0
VERTEX
  5
376
  8
0
 62
     3
 10
50.0
 20
-23.75
 30
0.0
  0
VERTEX
  5
377
  8
0
 62
     3
 10
51.0853
 20
-23.8449
 30
0.0
  0
VERTEX
  5
378
  8
0
 62
     3
 10
52.1376
 20
-24.1269
 30
0.0
  0
VERTEX
  5
379
  8
0
 62
     3
 10
53.125
 20
-24.5874
 30
0.0
  0
VERTEX
  5
37A
  8
0
 62
     3
 10
54.0174
 20
-25.2122
 30
0.0
  0
VERTEX
  5
37B
  8
0
 62
     3
 10
54.7878
 20
-25.9826
 30
0.0
  0
VERTEX
  5
37C
  8
0
 62
     3
 10
55.4126
 20
-26.875
 30
0.0
  0
VERTEX
  5
37D
  8
0
 62
     3
 10
55.8731
 20
-27.8623
 30
0.0
  0
VERTEX
  5
37E
  8
0
 62
     3
 10
56.1551
 20
-28.9147
 30
0.0
  0
VERTEX
  5
37F
  8
0
 62
     3
 10
56.25
 20
-30.0
 30
0.0
  0
VERTEX
  5
380
  8
0
 62
     3
 10
56.1551
 20
-31.0853
 30
0.0
  0
VERTEX
  5
381
  8
0
 62
     3
 10
55.8731
 20
-32.1376
 30
0.0
  0
VERTEX
  5
382
  8
0
 62
     3
 10
55.4127
 20
-33.125
 30
0.0
  0
VERTEX
  5
383
  8
0
 62
     3
 10
54.7878
 20
-34.0174
 30
0.0
  0
VERTEX
  5
384
  8
0
 62
     3
 10
54.0174
 20
-34.7878
 30
0.0
  0
VERTEX
  5
385
  8
0
 62
     3
 10
53.125
 20
-35.4126
 30
0.0
  0
VERTEX
  5
386
  8
0
 62
     3
 10
52.1377
 20
-35.8731
 30
0.0
  0
VERTEX
  5
387
  8
0
 62
     3
 10
51.0853
 20
-36.155
 30
0.0
  0
SEQEND
  5
5A9
  8
0
 62
     3
  0
POLYLINE
  5
D5
  8
0
 62
     3
 66
     1
 10
0.0
 20
0.0
 30
0.0
 70
     1
 40
1.0287
 41
1.0287
  0
VERTEX
  5
389
  8
0
 62
     3
 10
50.0
 20
-74.25
 30
0.0
  0
VERTEX
  5
38A
  8
0
 62
     3
 10
48.9146
 20
-74.155
 30
0.0
  0
VERTEX
  5
38B
  8
0
 62
     3
 10
47.8623
 20
-73.87309999999999
 30
0.0
  0
VERTEX
  5
38C
  8
0
 62
     3
 10
46.875
 20
-73.4126
 30
0.0
  0
VERTEX
  5
38D
  8
0
 62
     3
 10
45.9826
 20
-72.7878
 30
0.0
  0
VERTEX
  5
38E
  8
0
 62
     3
 10
45.2122
 20
-72.0174
 30
0.0
  0
VERTEX
  5
38F
  8
0
 62
     3
 10
44.5873
 20
-71.125
 30
0.0
  0
VERTEX
  5
390
  8
0
 62
     3
 10
44.1269
 20
-70.13760000000001
 30
0.0
  0
VERTEX
  5
391
  8
0
 62
     3
 10
43.8449
 20
-69.0853
 30
0.0
  0
VERTEX
  5
392
  8
0
 62
     3
 10
43.75
 20
-68.0
 30
0.0
  0
VERTEX
  5
393
  8
0
 62
     3
 10
43.8449
 20
-66.9147
 30
0.0
  0
VERTEX
  5
394
  8
0
 62
     3
 10
44.1269
 20
-65.86230000000001
 30
0.0
  0
VERTEX
  5
395
  8
0
 62
     3
 10
44.5874
 20
-64.875
 30
0.0
  0
VERTEX
  5
396
  8
0
 62
     3
 10
45.2122
 20
-63.9826
 30
0.0
  0
VERTEX
  5
397
  8
0
 62
     3
 10
45.9826
 20
-63.2122
 30
0.0
  0
VERTEX
  5
398
  8
0
 62
     3
 10
46.875
 20
-62.5874
 30
0.0
  0
VERTEX
  5
399
  8
0
 62
     3
 10
47.8624
 20
-62.1269
 30
0.0
  0
VERTEX
  5
39A
  8
0
 62
     3
 10
48.9147
 20
-61.8449
 30
0.0
  0
VERTEX
  5
39B
  8
0
 62
     3
 10
50.0
 20
-61.75
 30
0.0
  0
VERTEX
  5
39C
  8
0
 62
     3
 10
51.0853
 20
-61.8449
 30
0.0
  0
VERTEX
  5
39D
  8
0
 62
     3
 10
52.1376
 20
-62.1269
 30
0.0
  0
VERTEX
  5
39E
  8
0
 62
     3
 10
53.125
 20
-62.5874
 30
0.0
  0
VERTEX
  5
39F
  8
0
 62
     3
 10
54.0174
 20
-63.2122
 30
0.0
  0
VERTEX
  5
3A0
  8
0
 62
     3
 10
54.7878
 20
-63.9826
 30
0.0
  0
VERTEX
  5
3A1
  8
0
 62
     3
 10
55.4126
 20
-64.875
 30
0.0
  0
VERTEX
  5
3A2
  8
0
 62
     3
 10
55.8731
 20
-65.86230000000001
 30
0.0
  0
VERTEX
  5
3A3
  8
0
 62
     3
 10
56.1551
 20
-66.9147
 30
0.0
  0
VERTEX
  5
3A4
  8
0
 62
     3
 10
56.25
 20
-68.0
 30
0.0
  0
VERTEX
  5
3A5
  8
0
 62
     3
 10
56.1551
 20
-69.0853
 30
0.0
  0
VERTEX
  5
3A6
  8
0
 62
     3
 10
55.8731
 20
-70.13760000000001
 30
0.0
  0
VERTEX
  5
3A7
  8
0
 62
     3
 10
55.4127
 20
-71.125
 30
0.0
  0
VERTEX
  5
3A8
  8
0
 62
     3
 10
54.7878
 20
-72.0174
 30
0.0
  0
VERTEX
  5
3A9
  8
0
 62
     3
 10
54.0174
 20
-72.7878
 30
0.0
  0
VERTEX
  5
3AA
  8
0
 62
     3
 10
53.125
 20
-73.4126
 30
0.0
  0
VERTEX
  5
3AB
  8
0
 62
     3
 10
52.1377
 20
-73.87309999999999
 30
0.0
  0
VERTEX
  5
3AC
  8
0
 62
     3
 10
51.0853
 20
-74.155
 30
0.0
  0
SEQEND
  5
5AA
  8
0
 62
     3
  0
POLYLINE
  5
FB
  8
0
 62
     3
 66
     1
 10
0.0
 20
0.0
 30
0.0
 40
0.5715
 41
0.5715
  0
VERTEX
  5
3AE
  8
0
 62
     3
 10
63.0
 20
-32.5191
 30
0.0
  0
VERTEX
  5
3AF
  8
0
 62
     3
 10
64.91410000000001
 20
-32.8477
 30
0.0
  0
SEQEND
  5
5AB
  8
0
 62
     3
  0
POLYLINE
  5
FF
  8
0
 62
     3
 66
     1
 10
0.0
 20
0.0
 30
0.0
 40
1.0287
 41
1.0287
  0
VERTEX
  5
3B1
  8
0
 62
     3
 10
27.1784
 20
-26.7849
 30
0.0
  0
VERTEX
  5
3B2
  8
0
 62
     3
 10
28.0822
 20
-19.4735
 30
0.0
  0
VERTEX
  5
3B3
  8
0
 62
     3
 10
29.9842
 20
-12.3551
 30
0.0
  0
VERTEX
  5
3B4
  8
0
 62
     3
 10
32.8484
 20
-5.566
 30
0.0
  0
SEQEND
  5
5AC
  8
0
 62
     3
  0
POLYLINE
  5
105
  8
0
 62
     3
 66
     1
 10
0.0
 20
0.0
 30
0.0
 40
1.0287
 41
1.0287
  0
VERTEX
  5
3B6
  8
0
 62
     3
 10
26.8043
 20
-80.71899999999999
 30
0.0
  0
VERTEX
  5
3B7
  8
0
 62
     3
 10
27.1783
 20
-26.7852
 30
0.0
  0
SEQEND
  5
5AD
  8
0
 62
     3
  0
POLYLINE
  5
109
  8
0
 62
     3
 66
     1
 10
0.0
 20
0.0
 30
0.0
 40
1.0287
 41
1.0287
  0
VERTEX
  5
3B9
  8
0
 62
     3
 10
32.8482
 20
-5.5663
 30
0.0
  0
VERTEX
  5
3BA
  8
0
 62
     3
 10
37.5272
 20
-2.5735
 30
0.0
  0
SEQEND
  5
5AE
  8
0
 62
     3
  0
POLYLINE
  5
10D
  8
0
 62
     3
 66
     1
 10
0.0
 20
0.0
 30
0.0
 40
1.0287
 41
1.0287
  0
VERTEX
  5
3BC
  8
0
 62
     3
 10
48.0502
 20
-8.8964
 30
0.0
  0
VERTEX
  5
3BD
  8
0
 62
     3
 10
45.6056
 20
-8.311
 30
0.0
  0
VERTEX
  5
3BE
  8
0
 62
     3
 10
43.2788
 20
-7.3598
 30
0.0
  0
VERTEX
  5
3BF
  8
0
 62
     3
 10
41.1241
 20
-6.0651
 30
0.0
  0
VERTEX
  5
3C0
  8
0
 62
     3
 10
39.1919
 20
-4.4572
 30
0.0
  0
VERTEX
  5
3C1
  8
0
 62
     3
 10
37.5273
 20
-2.5734
 30
0.0
  0
SEQEND
  5
5AF
  8
0
 62
     3
  0
POLYLINE
  5
115
  8
0
 62
     3
 66
     1
 10
0.0
 20
0.0
 30
0.0
 40
0.5715
 41
0.5715
  0
VERTEX
  5
3C3
  8
0
 62
     3
 10
62.9965
 20
-32.5187
 30
0.0
  0
VERTEX
  5
3C4
  8
0
 62
     3
 10
113.4249
 20
-42.9324
 30
0.0
  0
VERTEX
  5
3C5
  8
0
 62
     3
 10
161.8105
 20
-60.56
 30
0.0
  0
VERTEX
  5
3C6
  8
0
 62
     3
 10
207.1215
 20
-85.0266
 30
0.0
  0
SEQEND
  5
5B0
  8
0
 62
     3
  0
POLYLINE
  5
11B
  8
0
 62
     3
 66
     1
 10
0.0
 20
0.0
 30
0.0
 40
0.5715
 41
0.5715
  0
VERTEX
  5
3C8
  8
0
 62
     3
 10
206.8568
 20
-84.8571
 30
0.0
  0
VERTEX
  5
3C9
  8
0
 62
     3
 10
212.5379
 20
-89.2758
 30
0.0
  0
VERTEX
  5
3CA
  8
0
 62
     3
 10
217.3847
 20
-94.5959
 30
0.0
  0
VERTEX
  5
3CB
  8
0
 62
     3
 10
221.2568
 20
-100.6632
 30
0.0
  0
VERTEX
  5
3CC
  8
0
 62
     3
 10
224.0406
 20
-107.3001
 30
0.0
  0
VERTEX
  5
3CD
  8
0
 62
     3
 10
224.0406
 20
-107.3003
 30
0.0
  0
SEQEND
  5
5B1
  8
0
 62
     3
  0
POLYLINE
  5
123
  8
0
 62
     3
 66
     1
 10
0.0
 20
0.0
 30
0.0
 40
1.0287
 41
1.0287
  0
VERTEX
  5
3CF
  8
0
 62
     3
 10
32.655
 20
0.0
 30
0.0
  0
VERTEX
  5
3D0
  8
0
 62
     3
 10
33.6088
 20
-0.0763
 30
0.0
  0
VERTEX
  5
3D1
  8
0
 62
     3
 10
34.5384
 20
-0.3033
 30
0.0
  0
VERTEX
  5
3D2
  8
0
 62
     3
 10
35.4201
 20
-0.6751
 30
0.0
  0
VERTEX
  5
3D3
  8
0
 62
     3
 10
36.2314
 20
-1.1824
 30
0.0
  0
VERTEX
  5
3D4
  8
0
 62
     3
 10
36.9518
 20
-1.8122
 30
0.0
  0
VERTEX
  5
3D5
  8
0
 62
     3
 10
37.5629
 20
-2.5485
 30
0.0
  0
VERTEX
  5
3D6
  8
0
 62
     3
 10
37.5629
 20
-2.5486
 30
0.0
  0
SEQEND
  5
5B2
  8
0
 62
     3
  0
POLYLINE
  5
12D
  8
0
  6
MCDASH7
 66
     1
 10
0.0
 20
0.0
 30
0.0
 40
0.5715
 41
0.5715
  0
VERTEX
  5
3D8
  8
0
  6
MCDASH7
 10
24.15
 20
0.0
 30
0.0
  0
VERTEX
  5
3D9
  8
0
  6
MCDASH7
 10
24.15
 20
-85.0
 30
0.0
  0
SEQEND
  5
5B3
  8
0
  6
MCDASH7
  0
POLYLINE
  5
131
  8
0
  6
MCDASH7
 66
     1
 10
0.0
 20
0.0
 30
0.0
 40
1.0287
 41
1.0287
  0
VERTEX
  5
3DB
  8
0
  6
MCDASH7
 10
216.0
 20
-145.0
 30
0.0
  0
VERTEX
  5
3DC
  8
0
  6
MCDASH7
 10
216.0
 20
-91.0
 30
0.0
  0
SEQEND
  5
5B4
  8
0
  6
MCDASH7
  0
POLYLINE
  5
135
  8
0
  6
MCDASH7
 66
     1
 10
0.0
 20
0.0
 30
0.0
 40
1.0287
 41
1.0287
  0
VERTEX
  5
3DE
  8
0
  6
MCDASH7
 10
232.0
 20
-145.0
 30
0.0
  0
VERTEX
  5
3DF
  8
0
  6
MCDASH7
 10
232.0
 20
-91.0
 30
0.0
  0
SEQEND
  5
5B5
  8
0
  6
MCDASH7
  0
POLYLINE
  5
139
  8
0
  6
MCDASH7
 66
     1
 10
0.0
 20
0.0
 30
0.0
 40
1.0287
 41
1.0287
  0
VERTEX
  5
3E1
  8
0
  6
MCDASH7
 10
232.0
 20
-91.0
 30
0.0
  0
VERTEX
  5
3E2
  8
0
  6
MCDASH7
 10
216.0
 20
-91.0
 30
0.0
  0
SEQEND
  5
5B6
  8
0
  6
MCDASH7
  0
POLYLINE
  5
13D
  8
0
 62
     3
 66
     1
 10
0.0
 20
0.0
 30
0.0
 40
0.5715
 41
0.5715
  0
VERTEX
  5
3E4
  8
0
 62
     3
 10
0.0
 20
3.6921
 30
0.0
  0
VERTEX
  5
3E5
  8
0
 62
     3
 10
0.0
 20
-92.3079
 30
0.0
  0
SEQEND
  5
5B7
  8
0
 62
     3
  0
POLYLINE
  5
141
  8
0
 62
     3
 66
     1
 10
0.0
 20
0.0
 30
0.0
 40
0.5715
 41
0.5715
  0
VERTEX
  5
3E7
  8
0
 62
     3
 10
224.0
 20
-149.2083
 30
0.0
  0
VERTEX
  5
3E8
  8
0
 62
     3
 10
224.0
 20
-85.8976
 30
0.0
  0
SEQEND
  5
5B8
  8
0
 62
     3
  0
POLYLINE
  5
145
  8
0
 62
     3
 66
     1
 10
0.0
 20
0.0
 30
0.0
 40
1.0287
 41
1.0287
  0
VERTEX
  5
3EA
  8
0
 62
     3
 10
-66.5864
 20
-11.5811
 30
0.0
  0
VERTEX
  5
3EB
  8
0
 62
     3
 10
-67.2066
 20
-11.7001
 30
0.0
  0
VERTEX
  5
3EC
  8
0
 62
     3
 10
-68.01170000000001
 20
-11.8682
 30
0.0
  0
VERTEX
  5
3ED
  8
0
 62
     3
 10
-68.9542
 20
-12.0599
 30
0.0
  0
VERTEX
  5
3EE
  8
0
 62
     3
 10
-69.9593
 20
-12.2484
 30
0.0
  0
VERTEX
  5
3EF
  8
0
 62
     3
 10
-70.9755
 20
-12.4196
 30
0.0
  0
VERTEX
  5
3F0
  8
0
 62
     3
 10
-71.9194
 20
-12.5635
 30
0.0
  0
VERTEX
  5
3F1
  8
0
 62
     3
 10
-72.7449
 20
-12.6847
 30
0.0
  0
VERTEX
  5
3F2
  8
0
 62
     3
 10
-73.38890000000001
 20
-12.79
 30
0.0
  0
SEQEND
  5
5B9
  8
0
 62
     3
  0
POLYLINE
  5
150
  8
0
 62
     3
 66
     1
 10
0.0
 20
0.0
 30
0.0
 40
1.0287
 41
1.0287
  0
VERTEX
  5
3F4
  8
0
 62
     3
 10
-39.95
 20
-83.0
 30
0.0
  0
VERTEX
  5
3F5
  8
0
 62
     3
 10
-39.8503
 20
-83.62309999999999
 30
0.0
  0
VERTEX
  5
3F6
  8
0
 62
     3
 10
-39.5644
 20
-84.1798
 30
0.0
  0
VERTEX
  5
3F7
  8
0
 62
     3
 10
-39.1286
 20
-84.615
 30
0.0
  0
VERTEX
  5
3F8
  8
0
 62
     3
 10
-38.5705
 20
-84.9007
 30
0.0
  0
VERTEX
  5
3F9
  8
0
 62
     3
 10
-37.9474
 20
-85.0
 30
0.0
  0
SEQEND
  5
5BA
  8
0
 62
     3
  0
POLYLINE
  5
158
  8
0
 62
     3
 66
     1
 10
0.0
 20
0.0
 30
0.0
 40
1.0287
 41
1.0287
  0
VERTEX
  5
3FB
  8
0
 62
     3
 10
-48.0503
 20
-8.8965
 30
0.0
  0
VERTEX
  5
3FC
  8
0
 62
     3
 10
-49.0033
 20
-9.013
 30
0.0
  0
SEQEND
  5
5BB
  8
0
 62
     3
  0
POLYLINE
  5
15C
  8
0
 62
     3
 66
     1
 10
0.0
 20
0.0
 30
0.0
 40
1.0287
 41
1.0287
  0
VERTEX
  5
3FE
  8
0
 62
     3
 10
-39.9256
 20
-81.6056
 30
0.0
  0
VERTEX
  5
3FF
  8
0
 62
     3
 10
-39.95
 20
-83.0
 30
0.0
  0
SEQEND
  5
5BC
  8
0
 62
     3
  0
POLYLINE
  5
160
  8
0
 62
     3
 66
     1
 10
0.0
 20
0.0
 30
0.0
 40
1.0287
 41
1.0287
  0
VERTEX
  5
401
  8
0
 62
     3
 10
-244.9982
 20
-145.0
 30
0.0
  0
VERTEX
  5
402
  8
0
 62
     3
 10
-203.0
 20
-145.0
 30
0.0
  0
SEQEND
  5
5BD
  8
0
 62
     3
  0
POLYLINE
  5
164
  8
0
 62
     3
 66
     1
 10
0.0
 20
0.0
 30
0.0
 40
1.0287
 41
1.0287
  0
VERTEX
  5
404
  8
0
 62
     3
 10
-203.0
 20
-123.0634
 30
0.0
  0
VERTEX
  5
405
  8
0
 62
     3
 10
-203.0
 20
-145.0
 30
0.0
  0
SEQEND
  5
5BE
  8
0
 62
     3
  0
POLYLINE
  5
168
  8
0
 62
     3
 66
     1
 10
0.0
 20
0.0
 30
0.0
 40
1.0287
 41
1.0287
  0
VERTEX
  5
407
  8
0
 62
     3
 10
-244.0592
 20
-118.0585
 30
0.0
  0
VERTEX
  5
408
  8
0
 62
     3
 10
-245.0
 20
-145.0
 30
0.0
  0
SEQEND
  5
5BF
  8
0
 62
     3
  0
POLYLINE
  5
16C
  8
0
 62
     3
 66
     1
 10
0.0
 20
0.0
 30
0.0
 40
1.0287
 41
1.0287
  0
VERTEX
  5
40A
  8
0
 62
     3
 10
-220.4333
 20
-131.2138
 30
0.0
  0
VERTEX
  5
40B
  8
0
 62
     3
 10
-158.3654
 20
-105.7423
 30
0.0
  0
VERTEX
  5
40C
  8
0
 62
     3
 10
-93.4337
 20
-88.80750000000001
 30
0.0
  0
VERTEX
  5
40D
  8
0
 62
     3
 10
-26.8196
 20
-80.71980000000001
 30
0.0
  0
VERTEX
  5
40E
  8
0
 62
     3
 10
-26.8082
 20
-80.7192
 30
0.0
  0
SEQEND
  5
5C0
  8
0
 62
     3
  0
POLYLINE
  5
173
  8
0
 62
     3
 66
     1
 10
0.0
 20
0.0
 30
0.0
 40
1.0287
 41
1.0287
  0
VERTEX
  5
410
  8
0
 62
     3
 10
-66.58629999999999
 20
-11.5812
 30
0.0
  0
VERTEX
  5
411
  8
0
 62
     3
 10
-49.0031
 20
-9.013
 30
0.0
  0
SEQEND
  5
5C1
  8
0
 62
     3
  0
POLYLINE
  5
177
  8
0
 62
     3
 66
     1
 10
0.0
 20
0.0
 30
0.0
 40
1.0287
 41
1.0287
  0
VERTEX
  5
413
  8
0
 62
     3
 10
-216.5831
 20
-69.7089
 30
0.0
  0
VERTEX
  5
414
  8
0
 62
     3
 10
-171.4529
 20
-44.6083
 30
0.0
  0
VERTEX
  5
415
  8
0
 62
     3
 10
-123.4515
 20
-25.527
 30
0.0
  0
VERTEX
  5
416
  8
0
 62
     3
 10
-73.3888
 20
-12.7901
 30
0.0
  0
SEQEND
  5
5C2
  8
0
 62
     3
  0
POLYLINE
  5
17D
  8
0
 62
     3
 66
     1
 10
0.0
 20
0.0
 30
0.0
 40
1.0287
 41
1.0287
  0
VERTEX
  5
418
  8
0
 62
     3
 10
-244.0592
 20
-118.0586
 30
0.0
  0
VERTEX
  5
419
  8
0
 62
     3
 10
-242.9527
 20
-108.4965
 30
0.0
  0
VERTEX
  5
41A
  8
0
 62
     3
 10
-240.3308
 20
-99.2329
 30
0.0
  0
VERTEX
  5
41B
  8
0
 62
     3
 10
-236.2614
 20
-90.50879999999999
 30
0.0
  0
VERTEX
  5
41C
  8
0
 62
     3
 10
-230.8493
 20
-82.5479
 30
0.0
  0
VERTEX
  5
41D
  8
0
 62
     3
 10
-224.2331
 20
-75.5544
 30
0.0
  0
VERTEX
  5
41E
  8
0
 62
     3
 10
-216.5832
 20
-69.7089
 30
0.0
  0
SEQEND
  5
5C3
  8
0
 62
     3
  0
POLYLINE
  5
186
  8
0
 62
     3
 66
     1
 10
0.0
 20
0.0
 30
0.0
 40
0.5715
 41
0.5715
  0
VERTEX
  5
420
  8
0
 62
     3
 10
-63.0
 20
-32.5191
 30
0.0
  0
VERTEX
  5
421
  8
0
 62
     3
 10
-64.91410000000001
 20
-32.8477
 30
0.0
  0
SEQEND
  5
5C4
  8
0
 62
     3
  0
POLYLINE
  5
18A
  8
0
 62
     3
 66
     1
 10
0.0
 20
0.0
 30
0.0
 40
1.0287
 41
1.0287
  0
VERTEX
  5
423
  8
0
 62
     3
 10
-32.8484
 20
-5.566
 30
0.0
  0
VERTEX
  5
424
  8
0
 62
     3
 10
-29.9845
 20
-12.3543
 30
0.0
  0
VERTEX
  5
425
  8
0
 62
     3
 10
-28.0824
 20
-19.4727
 30
0.0
  0
VERTEX
  5
426
  8
0
 62
     3
 10
-27.1784
 20
-26.7849
 30
0.0
  0
SEQEND
  5
5C5
  8
0
 62
     3
  0
POLYLINE
  5
190
  8
0
 62
     3
 66
     1
 10
0.0
 20
0.0
 30
0.0
 40
1.0287
 41
1.0287
  0
VERTEX
  5
428
  8
0
 62
     3
 10
-26.8043
 20
-80.71899999999999
 30
0.0
  0
VERTEX
  5
429
  8
0
 62
     3
 10
-27.1783
 20
-26.7852
 30
0.0
  0
SEQEND
  5
5C6
  8
0
 62
     3
  0
POLYLINE
  5
194
  8
0
 62
     3
 66
     1
 10
0.0
 20
0.0
 30
0.0
 40
1.0287
 41
1.0287
  0
VERTEX
  5
42B
  8
0
 62
     3
 10
-37.5273
 20
-2.5734
 30
0.0
  0
VERTEX
  5
42C
  8
0
 62
     3
 10
-39.1917
 20
-4.457
 30
0.0
  0
VERTEX
  5
42D
  8
0
 62
     3
 10
-41.1239
 20
-6.065
 30
0.0
  0
VERTEX
  5
42E
  8
0
 62
     3
 10
-43.2786
 20
-7.3597
 30
0.0
  0
VERTEX
  5
42F
  8
0
 62
     3
 10
-45.6054
 20
-8.3109
 30
0.0
  0
VERTEX
  5
430
  8
0
 62
     3
 10
-48.0502
 20
-8.8964
 30
0.0
  0
SEQEND
  5
5C7
  8
0
 62
     3
  0
POLYLINE
  5
19C
  8
0
 62
     3
 66
     1
 10
0.0
 20
0.0
 30
0.0
 40
0.5715
 41
0.5715
  0
VERTEX
  5
432
  8
0
 62
     3
 10
-207.1215
 20
-85.0266
 30
0.0
  0
VERTEX
  5
433
  8
0
 62
     3
 10
-153.245
 20
-56.8469
 30
0.0
  0
VERTEX
  5
434
  8
0
 62
     3
 10
-95.33069999999999
 20
-38.3103
 30
0.0
  0
VERTEX
  5
435
  8
0
 62
     3
 10
-35.0976
 20
-29.9683
 30
0.0
  0
VERTEX
  5
436
  8
0
 62
     3
 10
-35.0923
 20
-29.9681
 30
0.0
  0
SEQEND
  5
5C8
  8
0
 62
     3
  0
POLYLINE
  5
1A3
  8
0
 62
     3
 66
     1
 10
0.0
 20
0.0
 30
0.0
 40
0.5715
 41
0.5715
  0
VERTEX
  5
438
  8
0
 62
     3
 10
-224.0406
 20
-107.3003
 30
0.0
  0
VERTEX
  5
439
  8
0
 62
     3
 10
-221.2571
 20
-100.6638
 30
0.0
  0
VERTEX
  5
43A
  8
0
 62
     3
 10
-217.3855
 20
-94.59690000000001
 30
0.0
  0
VERTEX
  5
43B
  8
0
 62
     3
 10
-212.5384
 20
-89.27630000000001
 30
0.0
  0
VERTEX
  5
43C
  8
0
 62
     3
 10
-206.8576
 20
-84.8575
 30
0.0
  0
VERTEX
  5
43D
  8
0
 62
     3
 10
-206.8568
 20
-84.8571
 30
0.0
  0
SEQEND
  5
5C9
  8
0
 62
     3
  0
POLYLINE
  5
1AB
  8
0
 62
     3
 66
     1
 10
0.0
 20
0.0
 30
0.0
 40
1.0287
 41
1.0287
  0
VERTEX
  5
43F
  8
0
 62
     3
 10
-37.5629
 20
-2.5486
 30
0.0
  0
VERTEX
  5
440
  8
0
 62
     3
 10
-36.9519
 20
-1.8123
 30
0.0
  0
VERTEX
  5
441
  8
0
 62
     3
 10
-36.2316
 20
-1.1825
 30
0.0
  0
VERTEX
  5
442
  8
0
 62
     3
 10
-35.4202
 20
-0.6752
 30
0.0
  0
VERTEX
  5
443
  8
0
 62
     3
 10
-34.5385
 20
-0.3033
 30
0.0
  0
VERTEX
  5
444
  8
0
 62
     3
 10
-33.6089
 20
-0.0763
 30
0.0
  0
VERTEX
  5
445
  8
0
 62
     3
 10
-32.6551
 20
0.0
 30
0.0
  0
VERTEX
  5
446
  8
0
 62
     3
 10
-32.655
 20
0.0
 30
0.0
  0
SEQEND
  5
5CA
  8
0
 62
     3
  0
POLYLINE
  5
1B5
  8
0
  6
MCDASH7
 66
     1
 10
0.0
 20
0.0
 30
0.0
 40
0.5715
 41
0.5715
  0
VERTEX
  5
448
  8
0
  6
MCDASH7
 10
-24.15
 20
0.0
 30
0.0
  0
VERTEX
  5
449
  8
0
  6
MCDASH7
 10
-24.15
 20
-85.0
 30
0.0
  0
SEQEND
  5
5CB
  8
0
  6
MCDASH7
  0
POLYLINE
  5
1B9
  8
0
  6
MCDASH7
 66
     1
 10
0.0
 20
0.0
 30
0.0
 40
1.0287
 41
1.0287
  0
VERTEX
  5
44B
  8
0
  6
MCDASH7
 10
-216.0
 20
-145.0
 30
0.0
  0
VERTEX
  5
44C
  8
0
  6
MCDASH7
 10
-216.0
 20
-91.0
 30
0.0
  0
SEQEND
  5
5CC
  8
0
  6
MCDASH7
  0
POLYLINE
  5
1BD
  8
0
  6
MCDASH7
 66
     1
 10
0.0
 20
0.0
 30
0.0
 40
1.0287
 41
1.0287
  0
VERTEX
  5
44E
  8
0
  6
MCDASH7
 10
-232.0
 20
-145.0
 30
0.0
  0
VERTEX
  5
44F
  8
0
  6
MCDASH7
 10
-232.0
 20
-91.0
 30
0.0
  0
SEQEND
  5
5CD
  8
0
  6
MCDASH7
  0
POLYLINE
  5
1C1
  8
0
  6
MCDASH7
 66
     1
 10
0.0
 20
0.0
 30
0.0
 40
1.0287
 41
1.0287
  0
VERTEX
  5
451
  8
0
  6
MCDASH7
 10
-232.0
 20
-91.0
 30
0.0
  0
VERTEX
  5
452
  8
0
  6
MCDASH7
 10
-216.0
 20
-91.0
 30
0.0
  0
SEQEND
  5
5CE
  8
0
  6
MCDASH7
  0
POLYLINE
  5
1C5
  8
0
 62
     3
 66
     1
 10
0.0
 20
0.0
 30
0.0
 40
0.5715
 41
0.5715
  0
VERTEX
  5
454
  8
0
 62
     3
 10
0.0
 20
3.6921
 30
0.0
  0
VERTEX
  5
455
  8
0
 62
     3
 10
0.0
 20
-92.3079
 30
0.0
  0
SEQEND
  5
5CF
  8
0
 62
     3
  0
POLYLINE
  5
1C9
  8
0
 62
     3
 66
     1
 10
0.0
 20
0.0
 30
0.0
 40
0.5715
 41
0.5715
  0
VERTEX
  5
457
  8
0
 62
     3
 10
-224.0
 20
-149.2083
 30
0.0
  0
VERTEX
  5
458
  8
0
 62
     3
 10
-224.0
 20
-85.8976
 30
0.0
  0
SEQEND
  5
5D0
  8
0
 62
     3
  0
POLYLINE
  5
1CD
  8
0
 62
     3
 66
     1
 10
0.0
 20
0.0
 30
0.0
 40
1.0287
 41
1.0287
  0
VERTEX
  5
45A
  8
0
 62
     3
 10
-32.8482
 20
-5.5663
 30
0.0
  0
VERTEX
  5
45B
  8
0
 62
     3
 10
-37.5272
 20
-2.5735
 30
0.0
  0
SEQEND
  5
5D1
  8
0
 62
     3
  0
ENDBLK
  5
5D3
  8
0
  0
BLOCK
  8
0
  2
SIMBOLO_N__2
 70
     0
 10
0.0
 20
0.0
 30
0.0
  3
SIMBOLO_N__2
  1

  0
POLYLINE
  5
1D4
  8
0
 62
     3
 66
     1
 10
0.0
 20
0.0
 30
0.0
 40
1.0287
 41
1.0287
  0
VERTEX
  5
45D
  8
0
 62
     3
 10
-36.8437
 20
-25.8162
 30
0.0
  0
VERTEX
  5
45E
  8
0
 62
     3
 10
-34.1014
 20
-26.0633
 30
0.0
  0
VERTEX
  5
45F
  8
0
 62
     3
 10
-31.4547
 20
-26.8079
 30
0.0
  0
VERTEX
  5
460
  8
0
 62
     3
 10
-28.9898
 20
-28.0248
 30
0.0
  0
VERTEX
  5
461
  8
0
 62
     3
 10
-26.7877
 20
-29.6739
 30
0.0
  0
SEQEND
  5
5D4
  8
0
 62
     3
  0
POLYLINE
  5
1DB
  8
0
 62
     3
 66
     1
 10
0.0
 20
0.0
 30
0.0
 40
1.0287
 41
1.0287
  0
VERTEX
  5
463
  8
0
 62
     3
 10
36.865
 20
25.7777
 30
0.0
  0
VERTEX
  5
464
  8
0
 62
     3
 10
34.1227
 20
26.0242
 30
0.0
  0
VERTEX
  5
465
  8
0
 62
     3
 10
31.4758
 20
26.7684
 30
0.0
  0
VERTEX
  5
466
  8
0
 62
     3
 10
29.0107
 20
27.9847
 30
0.0
  0
VERTEX
  5
467
  8
0
 62
     3
 10
26.8082
 20
29.6334
 30
0.0
  0
SEQEND
  5
5D5
  8
0
 62
     3
  0
POLYLINE
  5
1E2
  8
0
 62
     3
 66
     1
 10
0.0
 20
0.0
 30
0.0
 40
1.0287
 41
1.0287
  0
VERTEX
  5
469
  8
0
 62
     3
 10
-26.7755
 20
29.5929
 30
0.0
  0
VERTEX
  5
46A
  8
0
 62
     3
 10
-28.9783
 20
27.9446
 30
0.0
  0
VERTEX
  5
46B
  8
0
 62
     3
 10
-31.4437
 20
26.7288
 30
0.0
  0
VERTEX
  5
46C
  8
0
 62
     3
 10
-34.0907
 20
25.9851
 30
0.0
  0
VERTEX
  5
46D
  8
0
 62
     3
 10
-36.833
 20
25.7392
 30
0.0
  0
SEQEND
  5
5D6
  8
0
 62
     3
  0
POLYLINE
  5
1E9
  8
0
 62
     3
 66
     1
 10
0.0
 20
0.0
 30
0.0
 40
1.0287
 41
1.0287
  0
VERTEX
  5
46F
  8
0
 62
     3
 10
26.8082
 20
-29.6334
 30
0.0
  0
VERTEX
  5
470
  8
0
 62
     3
 10
29.0107
 20
-27.9847
 30
0.0
  0
VERTEX
  5
471
  8
0
 62
     3
 10
31.4758
 20
-26.7684
 30
0.0
  0
VERTEX
  5
472
  8
0
 62
     3
 10
34.1227
 20
-26.0242
 30
0.0
  0
VERTEX
  5
473
  8
0
 62
     3
 10
36.865
 20
-25.7777
 30
0.0
  0
SEQEND
  5
5D7
  8
0
 62
     3
  0
POLYLINE
  5
1F0
  8
0
 62
     3
 66
     1
 10
0.0
 20
0.0
 30
0.0
 40
1.0287
 41
1.0287
  0
VERTEX
  5
475
  8
0
 62
     3
 10
36.865
 20
25.7777
 30
0.0
  0
VERTEX
  5
476
  8
0
 62
     3
 10
34.1227
 20
26.0242
 30
0.0
  0
VERTEX
  5
477
  8
0
 62
     3
 10
31.4758
 20
26.7684
 30
0.0
  0
VERTEX
  5
478
  8
0
 62
     3
 10
29.0107
 20
27.9847
 30
0.0
  0
VERTEX
  5
479
  8
0
 62
     3
 10
26.8082
 20
29.6334
 30
0.0
  0
SEQEND
  5
5D8
  8
0
 62
     3
  0
POLYLINE
  5
1F7
  8
0
 62
     3
 66
     1
 10
0.0
 20
0.0
 30
0.0
 40
1.0287
 41
1.0287
  0
VERTEX
  5
47B
  8
0
 62
     3
 10
26.8082
 20
-29.6334
 30
0.0
  0
VERTEX
  5
47C
  8
0
 62
     3
 10
29.0107
 20
-27.9847
 30
0.0
  0
VERTEX
  5
47D
  8
0
 62
     3
 10
31.4758
 20
-26.7684
 30
0.0
  0
VERTEX
  5
47E
  8
0
 62
     3
 10
34.1227
 20
-26.0242
 30
0.0
  0
VERTEX
  5
47F
  8
0
 62
     3
 10
36.865
 20
-25.7777
 30
0.0
  0
SEQEND
  5
5D9
  8
0
 62
     3
  0
POLYLINE
  5
1FE
  8
0
 62
     3
 66
     1
 10
0.0
 20
0.0
 30
0.0
 40
1.0287
 41
1.0287
  0
VERTEX
  5
481
  8
0
 62
     3
 10
36.865
 20
25.7777
 30
0.0
  0
VERTEX
  5
482
  8
0
 62
     3
 10
37.9993
 20
25.7807
 30
0.0
  0
SEQEND
  5
5DA
  8
0
 62
     3
  0
POLYLINE
  5
202
  8
0
 62
     3
 66
     1
 10
0.0
 20
0.0
 30
0.0
 40
1.0287
 41
1.0287
  0
VERTEX
  5
484
  8
0
 62
     3
 10
36.865
 20
25.7777
 30
0.0
  0
VERTEX
  5
485
  8
0
 62
     3
 10
38.0863
 20
25.7809
 30
0.0
  0
SEQEND
  5
5DB
  8
0
 62
     3
  0
POLYLINE
  5
206
  8
0
 62
     3
 66
     1
 10
0.0
 20
0.0
 30
0.0
 40
1.0287
 41
1.0287
  0
VERTEX
  5
487
  8
0
 62
     3
 10
-39.1062
 20
-8.408200000000001
 30
0.0
  0
VERTEX
  5
488
  8
0
 62
     3
 10
-39.9003
 20
-2.8217
 30
0.0
  0
VERTEX
  5
489
  8
0
 62
     3
 10
-39.9004
 20
2.8211
 30
0.0
  0
VERTEX
  5
48A
  8
0
 62
     3
 10
-39.1062
 20
8.4084
 30
0.0
  0
SEQEND
  5
5DC
  8
0
 62
     3
  0
POLYLINE
  5
20C
  8
0
 62
     3
 66
     1
 10
0.0
 20
0.0
 30
0.0
 40
1.0287
 41
1.0287
  0
VERTEX
  5
48C
  8
0
 62
     3
 10
26.8349
 20
-29.6628
 30
0.0
  0
VERTEX
  5
48D
  8
0
 62
     3
 10
22.3941
 20
-33.1437
 30
0.0
  0
VERTEX
  5
48E
  8
0
 62
     3
 10
17.5067
 20
-35.9655
 30
0.0
  0
VERTEX
  5
48F
  8
0
 62
     3
 10
12.2712
 20
-38.0712
 30
0.0
  0
SEQEND
  5
5DD
  8
0
 62
     3
  0
POLYLINE
  5
212
  8
0
 62
     3
 66
     1
 10
0.0
 20
0.0
 30
0.0
 40
1.0287
 41
1.0287
  0
VERTEX
  5
491
  8
0
 62
     3
 10
12.2713
 20
38.0711
 30
0.0
  0
VERTEX
  5
492
  8
0
 62
     3
 10
17.5067
 20
35.9655
 30
0.0
  0
VERTEX
  5
493
  8
0
 62
     3
 10
22.3936
 20
33.144
 30
0.0
  0
VERTEX
  5
494
  8
0
 62
     3
 10
26.835
 20
29.6628
 30
0.0
  0
SEQEND
  5
5DE
  8
0
 62
     3
  0
POLYLINE
  5
218
  8
0
 62
     3
 66
     1
 10
0.0
 20
0.0
 30
0.0
 40
1.0287
 41
1.0287
  0
VERTEX
  5
496
  8
0
 62
     3
 10
-39.1062
 20
-8.408200000000001
 30
0.0
  0
VERTEX
  5
497
  8
0
 62
     3
 10
-39.9003
 20
-2.8217
 30
0.0
  0
VERTEX
  5
498
  8
0
 62
     3
 10
-39.9004
 20
2.8211
 30
0.0
  0
VERTEX
  5
499
  8
0
 62
     3
 10
-39.1062
 20
8.4084
 30
0.0
  0
SEQEND
  5
5DF
  8
0
 62
     3
  0
POLYLINE
  5
21E
  8
0
 62
     3
 66
     1
 10
0.0
 20
0.0
 30
0.0
 40
1.0287
 41
1.0287
  0
VERTEX
  5
49B
  8
0
 62
     3
 10
26.8349
 20
-29.6628
 30
0.0
  0
VERTEX
  5
49C
  8
0
 62
     3
 10
22.3941
 20
-33.1437
 30
0.0
  0
VERTEX
  5
49D
  8
0
 62
     3
 10
17.5067
 20
-35.9655
 30
0.0
  0
VERTEX
  5
49E
  8
0
 62
     3
 10
12.2712
 20
-38.0712
 30
0.0
  0
SEQEND
  5
5E0
  8
0
 62
     3
  0
POLYLINE
  5
224
  8
0
 62
     3
 66
     1
 10
0.0
 20
0.0
 30
0.0
 40
1.0287
 41
1.0287
  0
VERTEX
  5
4A0
  8
0
 62
     3
 10
12.2713
 20
38.0711
 30
0.0
  0
VERTEX
  5
4A1
  8
0
 62
     3
 10
17.5067
 20
35.9655
 30
0.0
  0
VERTEX
  5
4A2
  8
0
 62
     3
 10
22.3936
 20
33.144
 30
0.0
  0
VERTEX
  5
4A3
  8
0
 62
     3
 10
26.835
 20
29.6628
 30
0.0
  0
SEQEND
  5
5E1
  8
0
 62
     3
  0
POLYLINE
  5
22A
  8
0
 62
     3
 66
     1
 10
0.0
 20
0.0
 30
0.0
 40
1.0287
 41
1.0287
  0
VERTEX
  5
4A5
  8
0
 62
     3
 10
-223.9288
 20
-20.9998
 30
0.0
  0
VERTEX
  5
4A6
  8
0
 62
     3
 10
-227.576
 20
-20.6886
 30
0.0
  0
VERTEX
  5
4A7
  8
0
 62
     3
 10
-231.1137
 20
-19.7487
 30
0.0
  0
VERTEX
  5
4A8
  8
0
 62
     3
 10
-234.4346
 20
-18.2088
 30
0.0
  0
VERTEX
  5
4A9
  8
0
 62
     3
 10
-237.4375
 20
-16.1156
 30
0.0
  0
VERTEX
  5
4AA
  8
0
 62
     3
 10
-240.0313
 20
-13.5328
 30
0.0
  0
VERTEX
  5
4AB
  8
0
 62
     3
 10
-242.1375
 20
-10.5386
 30
0.0
  0
VERTEX
  5
4AC
  8
0
 62
     3
 10
-243.6915
 20
-7.2243
 30
0.0
  0
VERTEX
  5
4AD
  8
0
 62
     3
 10
-244.6464
 20
-3.6906
 30
0.0
  0
VERTEX
  5
4AE
  8
0
 62
     3
 10
-244.9733
 20
-0.0448
 30
0.0
  0
VERTEX
  5
4AF
  8
0
 62
     3
 10
-244.662
 20
3.6025
 30
0.0
  0
VERTEX
  5
4B0
  8
0
 62
     3
 10
-243.7221
 20
7.1405
 30
0.0
  0
VERTEX
  5
4B1
  8
0
 62
     3
 10
-242.1822
 20
10.4614
 30
0.0
  0
VERTEX
  5
4B2
  8
0
 62
     3
 10
-240.089
 20
13.4643
 30
0.0
  0
VERTEX
  5
4B3
  8
0
 62
     3
 10
-237.5062
 20
16.0581
 30
0.0
  0
VERTEX
  5
4B4
  8
0
 62
     3
 10
-234.5123
 20
18.1641
 30
0.0
  0
VERTEX
  5
4B5
  8
0
 62
     3
 10
-231.198
 20
19.7182
 30
0.0
  0
VERTEX
  5
4B6
  8
0
 62
     3
 10
-227.664
 20
20.6732
 30
0.0
  0
VERTEX
  5
4B7
  8
0
 62
     3
 10
-224.0178
 20
21.0
 30
0.0
  0
SEQEND
  5
5E2
  8
0
 62
     3
  0
POLYLINE
  5
23F
  8
0
 62
     3
 66
     1
 10
0.0
 20
0.0
 30
0.0
 40
1.0287
 41
1.0287
  0
VERTEX
  5
4B9
  8
0
 62
     3
 10
224.0
 20
21.0
 30
0.0
  0
VERTEX
  5
4BA
  8
0
 62
     3
 10
227.6465
 20
20.681
 30
0.0
  0
VERTEX
  5
4BB
  8
0
 62
     3
 10
231.1823
 20
19.7336
 30
0.0
  0
VERTEX
  5
4BC
  8
0
 62
     3
 10
234.5001
 20
18.1865
 30
0.0
  0
VERTEX
  5
4BD
  8
0
 62
     3
 10
237.4986
 20
16.0869
 30
0.0
  0
VERTEX
  5
4BE
  8
0
 62
     3
 10
240.0869
 20
13.4986
 30
0.0
  0
VERTEX
  5
4BF
  8
0
 62
     3
 10
242.1865
 20
10.5001
 30
0.0
  0
VERTEX
  5
4C0
  8
0
 62
     3
 10
243.7336
 20
7.1823
 30
0.0
  0
VERTEX
  5
4C1
  8
0
 62
     3
 10
244.681
 20
3.6465
 30
0.0
  0
VERTEX
  5
4C2
  8
0
 62
     3
 10
245.0
 20
0.0
 30
0.0
  0
VERTEX
  5
4C3
  8
0
 62
     3
 10
244.681
 20
-3.6465
 30
0.0
  0
VERTEX
  5
4C4
  8
0
 62
     3
 10
243.7336
 20
-7.1823
 30
0.0
  0
VERTEX
  5
4C5
  8
0
 62
     3
 10
242.1865
 20
-10.5001
 30
0.0
  0
VERTEX
  5
4C6
  8
0
 62
     3
 10
240.0869
 20
-13.4986
 30
0.0
  0
VERTEX
  5
4C7
  8
0
 62
     3
 10
237.4986
 20
-16.0869
 30
0.0
  0
VERTEX
  5
4C8
  8
0
 62
     3
 10
234.5001
 20
-18.1865
 30
0.0
  0
VERTEX
  5
4C9
  8
0
 62
     3
 10
231.1823
 20
-19.7336
 30
0.0
  0
VERTEX
  5
4CA
  8
0
 62
     3
 10
227.6465
 20
-20.681
 30
0.0
  0
VERTEX
  5
4CB
  8
0
 62
     3
 10
223.9999
 20
-20.9999
 30
0.0
  0
SEQEND
  5
5E3
  8
0
 62
     3
  0
POLYLINE
  5
254
  8
0
 62
     3
 66
     1
 10
0.0
 20
0.0
 30
0.0
 40
1.0287
 41
1.0287
  0
VERTEX
  5
4CD
  8
0
 62
     3
 10
24.067
 20
-2.0002
 30
0.0
  0
VERTEX
  5
4CE
  8
0
 62
     3
 10
23.3821
 20
-6.0415
 30
0.0
  0
VERTEX
  5
4CF
  8
0
 62
     3
 10
22.0235
 20
-9.908899999999999
 30
0.0
  0
VERTEX
  5
4D0
  8
0
 62
     3
 10
20.0307
 20
-13.4905
 30
0.0
  0
VERTEX
  5
4D1
  8
0
 62
     3
 10
17.4609
 20
-16.6835
 30
0.0
  0
VERTEX
  5
4D2
  8
0
 62
     3
 10
14.3879
 20
-19.3961
 30
0.0
  0
VERTEX
  5
4D3
  8
0
 62
     3
 10
10.9008
 20
-21.5499
 30
0.0
  0
VERTEX
  5
4D4
  8
0
 62
     3
 10
7.0996
 20
-23.0829
 30
0.0
  0
VERTEX
  5
4D5
  8
0
 62
     3
 10
3.0935
 20
-23.951
 30
0.0
  0
VERTEX
  5
4D6
  8
0
 62
     3
 10
-1.0013
 20
-24.1292
 30
0.0
  0
VERTEX
  5
4D7
  8
0
 62
     3
 10
-5.0672
 20
-23.6124
 30
0.0
  0
VERTEX
  5
4D8
  8
0
 62
     3
 10
-8.987299999999999
 20
-22.4154
 30
0.0
  0
VERTEX
  5
4D9
  8
0
 62
     3
 10
-12.6487
 20
-20.5726
 30
0.0
  0
VERTEX
  5
4DA
  8
0
 62
     3
 10
-15.9455
 20
-18.1374
 30
0.0
  0
VERTEX
  5
4DB
  8
0
 62
     3
 10
-18.7829
 20
-15.1798
 30
0.0
  0
VERTEX
  5
4DC
  8
0
 62
     3
 10
-21.0795
 20
-11.7846
 30
0.0
  0
VERTEX
  5
4DD
  8
0
 62
     3
 10
-22.7688
 20
-8.0502
 30
0.0
  0
VERTEX
  5
4DE
  8
0
 62
     3
 10
-23.8022
 20
-4.0839
 30
0.0
  0
VERTEX
  5
4DF
  8
0
 62
     3
 10
-24.15
 20
0.0004
 30
0.0
  0
VERTEX
  5
4E0
  8
0
 62
     3
 10
-23.8021
 20
4.0842
 30
0.0
  0
VERTEX
  5
4E1
  8
0
 62
     3
 10
-22.7687
 20
8.0505
 30
0.0
  0
VERTEX
  5
4E2
  8
0
 62
     3
 10
-21.0794
 20
11.7849
 30
0.0
  0
VERTEX
  5
4E3
  8
0
 62
     3
 10
-18.7827
 20
15.18
 30
0.0
  0
VERTEX
  5
4E4
  8
0
 62
     3
 10
-15.9452
 20
18.1376
 30
0.0
  0
VERTEX
  5
4E5
  8
0
 62
     3
 10
-12.6484
 20
20.5728
 30
0.0
  0
VERTEX
  5
4E6
  8
0
 62
     3
 10
-8.9869
 20
22.4156
 30
0.0
  0
VERTEX
  5
4E7
  8
0
 62
     3
 10
-5.0669
 20
23.6125
 30
0.0
  0
VERTEX
  5
4E8
  8
0
 62
     3
 10
-1.0009
 20
24.1292
 30
0.0
  0
VERTEX
  5
4E9
  8
0
 62
     3
 10
3.0942
 20
23.951
 30
0.0
  0
VERTEX
  5
4EA
  8
0
 62
     3
 10
7.0999
 20
23.0828
 30
0.0
  0
VERTEX
  5
4EB
  8
0
 62
     3
 10
10.9011
 20
21.5497
 30
0.0
  0
VERTEX
  5
4EC
  8
0
 62
     3
 10
14.3882
 20
19.3959
 30
0.0
  0
VERTEX
  5
4ED
  8
0
 62
     3
 10
17.4612
 20
16.6832
 30
0.0
  0
VERTEX
  5
4EE
  8
0
 62
     3
 10
20.0309
 20
13.4902
 30
0.0
  0
VERTEX
  5
4EF
  8
0
 62
     3
 10
22.0237
 20
9.9086
 30
0.0
  0
VERTEX
  5
4F0
  8
0
 62
     3
 10
23.3822
 20
6.0412
 30
0.0
  0
VERTEX
  5
4F1
  8
0
 62
     3
 10
24.067
 20
2.0001
 30
0.0
  0
VERTEX
  5
4F2
  8
0
 62
     3
 10
24.067
 20
2.0
 30
0.0
  0
SEQEND
  5
5E4
  8
0
 62
     3
  0
POLYLINE
  5
27C
  8
0
 62
     3
 66
     1
 10
0.0
 20
0.0
 30
0.0
 40
1.0287
 41
1.0287
  0
VERTEX
  5
4F4
  8
0
 62
     3
 10
66.5359
 20
2.0
 30
0.0
  0
VERTEX
  5
4F5
  8
0
 62
     3
 10
66.9358
 20
2.5712
 30
0.0
  0
VERTEX
  5
4F6
  8
0
 62
     3
 10
67.4288
 20
3.0642
 30
0.0
  0
VERTEX
  5
4F7
  8
0
 62
     3
 10
68.0
 20
3.4641
 30
0.0
  0
VERTEX
  5
4F8
  8
0
 62
     3
 10
68.6319
 20
3.7588
 30
0.0
  0
VERTEX
  5
4F9
  8
0
 62
     3
 10
69.30540000000001
 20
3.9392
 30
0.0
  0
VERTEX
  5
4FA
  8
0
 62
     3
 10
70.0
 20
4.0
 30
0.0
  0
VERTEX
  5
4FB
  8
0
 62
     3
 10
70.69459999999999
 20
3.9392
 30
0.0
  0
VERTEX
  5
4FC
  8
0
 62
     3
 10
71.3681
 20
3.7588
 30
0.0
  0
VERTEX
  5
4FD
  8
0
 62
     3
 10
72.0
 20
3.4641
 30
0.0
  0
VERTEX
  5
4FE
  8
0
 62
     3
 10
72.57120000000001
 20
3.0642
 30
0.0
  0
VERTEX
  5
4FF
  8
0
 62
     3
 10
73.0642
 20
2.5712
 30
0.0
  0
VERTEX
  5
500
  8
0
 62
     3
 10
73.4641
 20
2.0
 30
0.0
  0
VERTEX
  5
501
  8
0
 62
     3
 10
73.75879999999999
 20
1.3681
 30
0.0
  0
VERTEX
  5
502
  8
0
 62
     3
 10
73.9392
 20
0.6946
 30
0.0
  0
VERTEX
  5
503
  8
0
 62
     3
 10
74.0
 20
0.0
 30
0.0
  0
VERTEX
  5
504
  8
0
 62
     3
 10
73.9392
 20
-0.6946
 30
0.0
  0
VERTEX
  5
505
  8
0
 62
     3
 10
73.75879999999999
 20
-1.3681
 30
0.0
  0
VERTEX
  5
506
  8
0
 62
     3
 10
73.4641
 20
-2.0
 30
0.0
  0
VERTEX
  5
507
  8
0
 62
     3
 10
73.0642
 20
-2.5711
 30
0.0
  0
VERTEX
  5
508
  8
0
 62
     3
 10
72.57120000000001
 20
-3.0642
 30
0.0
  0
VERTEX
  5
509
  8
0
 62
     3
 10
72.0
 20
-3.4641
 30
0.0
  0
VERTEX
  5
50A
  8
0
 62
     3
 10
71.3681
 20
-3.7588
 30
0.0
  0
VERTEX
  5
50B
  8
0
 62
     3
 10
70.69459999999999
 20
-3.9392
 30
0.0
  0
VERTEX
  5
50C
  8
0
 62
     3
 10
70.0001
 20
-4.0
 30
0.0
  0
VERTEX
  5
50D
  8
0
 62
     3
 10
69.30540000000001
 20
-3.9392
 30
0.0
  0
VERTEX
  5
50E
  8
0
 62
     3
 10
68.6319
 20
-3.7588
 30
0.0
  0
VERTEX
  5
50F
  8
0
 62
     3
 10
68.0
 20
-3.4641
 30
0.0
  0
VERTEX
  5
510
  8
0
 62
     3
 10
67.4289
 20
-3.0642
 30
0.0
  0
VERTEX
  5
511
  8
0
 62
     3
 10
66.9359
 20
-2.5712
 30
0.0
  0
VERTEX
  5
512
  8
0
 62
     3
 10
66.5359
 20
-2.0
 30
0.0
  0
SEQEND
  5
5E5
  8
0
 62
     3
  0
POLYLINE
  5
29D
  8
0
 62
     3
 66
     1
 10
0.0
 20
0.0
 30
0.0
 40
1.0287
 41
1.0287
  0
VERTEX
  5
514
  8
0
 62
     3
 10
-36.833
 20
25.7392
 30
0.0
  0
VERTEX
  5
515
  8
0
 62
     3
 10
-224.0185
 20
21.0
 30
0.0
  0
SEQEND
  5
5E6
  8
0
 62
     3
  0
POLYLINE
  5
2A1
  8
0
 62
     3
 66
     1
 10
0.0
 20
0.0
 30
0.0
 40
1.0287
 41
1.0287
  0
VERTEX
  5
517
  8
0
 62
     3
 10
-36.8437
 20
-25.8161
 30
0.0
  0
VERTEX
  5
518
  8
0
 62
     3
 10
-223.9285
 20
-20.9999
 30
0.0
  0
SEQEND
  5
5E7
  8
0
 62
     3
  0
POLYLINE
  5
2A5
  8
0
 62
     3
 66
     1
 10
0.0
 20
0.0
 30
0.0
 40
1.0287
 41
1.0287
  0
VERTEX
  5
51A
  8
0
 62
     3
 10
36.865
 20
25.7777
 30
0.0
  0
VERTEX
  5
51B
  8
0
 62
     3
 10
224.0
 20
21.0
 30
0.0
  0
SEQEND
  5
5E8
  8
0
 62
     3
  0
POLYLINE
  5
2A9
  8
0
 62
     3
 66
     1
 10
0.0
 20
0.0
 30
0.0
 40
1.0287
 41
1.0287
  0
VERTEX
  5
51D
  8
0
 62
     3
 10
36.8651
 20
-25.7775
 30
0.0
  0
VERTEX
  5
51E
  8
0
 62
     3
 10
224.0
 20
-21.0
 30
0.0
  0
SEQEND
  5
5E9
  8
0
 62
     3
  0
POLYLINE
  5
2AD
  8
0
 62
     3
 66
     1
 10
0.0
 20
0.0
 30
0.0
 40
0.5715
 41
0.5715
  0
VERTEX
  5
520
  8
0
 62
     3
 10
-10.9467
 20
0.0
 30
0.0
  0
VERTEX
  5
521
  8
0
 62
     3
 10
11.0533
 20
0.0
 30
0.0
  0
SEQEND
  5
5EA
  8
0
 62
     3
  0
POLYLINE
  5
2B1
  8
0
 62
     3
 66
     1
 10
0.0
 20
0.0
 30
0.0
 40
0.5715
 41
0.5715
  0
VERTEX
  5
523
  8
0
 62
     3
 10
213.0533
 20
0.0
 30
0.0
  0
VERTEX
  5
524
  8
0
 62
     3
 10
237.0533
 20
0.0
 30
0.0
  0
SEQEND
  5
5EB
  8
0
 62
     3
  0
POLYLINE
  5
2B5
  8
0
 62
     3
 66
     1
 10
0.0
 20
0.0
 30
0.0
 40
0.5715
 41
0.5715
  0
VERTEX
  5
526
  8
0
 62
     3
 10
-212.9467
 20
0.044
 30
0.0
  0
VERTEX
  5
527
  8
0
 62
     3
 10
-236.9467
 20
0.0489
 30
0.0
  0
SEQEND
  5
5EC
  8
0
 62
     3
  0
POLYLINE
  5
2B9
  8
0
 62
     3
 66
     1
 10
0.0
 20
0.0
 30
0.0
 40
1.0287
 41
1.0287
  0
VERTEX
  5
529
  8
0
 62
     3
 10
39.9463
 20
-2.0701
 30
0.0
  0
VERTEX
  5
52A
  8
0
 62
     3
 10
39.0057
 20
-8.863200000000001
 30
0.0
  0
VERTEX
  5
52B
  8
0
 62
     3
 10
36.9186
 20
-15.3953
 30
0.0
  0
VERTEX
  5
52C
  8
0
 62
     3
 10
33.7462
 20
-21.4755
 30
0.0
  0
VERTEX
  5
52D
  8
0
 62
     3
 10
29.5818
 20
-26.9243
 30
0.0
  0
VERTEX
  5
52E
  8
0
 62
     3
 10
24.5484
 20
-31.5813
 30
0.0
  0
VERTEX
  5
52F
  8
0
 62
     3
 10
18.7929
 20
-35.3104
 30
0.0
  0
VERTEX
  5
530
  8
0
 62
     3
 10
12.485
 20
-38.0016
 30
0.0
  0
VERTEX
  5
531
  8
0
 62
     3
 10
5.8106
 20
-39.5757
 30
0.0
  0
VERTEX
  5
532
  8
0
 62
     3
 10
-1.035
 20
-39.9866
 30
0.0
  0
VERTEX
  5
533
  8
0
 62
     3
 10
-7.8503
 20
-39.2221
 30
0.0
  0
VERTEX
  5
534
  8
0
 62
     3
 10
-14.4343
 20
-37.3049
 30
0.0
  0
VERTEX
  5
535
  8
0
 62
     3
 10
-20.5945
 20
-34.2909
 30
0.0
  0
VERTEX
  5
536
  8
0
 62
     3
 10
-26.1494
 20
-30.269
 30
0.0
  0
VERTEX
  5
537
  8
0
 62
     3
 10
-30.9355
 20
-25.3574
 30
0.0
  0
VERTEX
  5
538
  8
0
 62
     3
 10
-34.812
 20
-19.7009
 30
0.0
  0
VERTEX
  5
539
  8
0
 62
     3
 10
-37.6657
 20
-13.4647
 30
0.0
  0
VERTEX
  5
53A
  8
0
 62
     3
 10
-39.4121
 20
-6.8328
 30
0.0
  0
VERTEX
  5
53B
  8
0
 62
     3
 10
-40.0
 20
-0.0006
 30
0.0
  0
VERTEX
  5
53C
  8
0
 62
     3
 10
-39.4122
 20
6.8322
 30
0.0
  0
VERTEX
  5
53D
  8
0
 62
     3
 10
-37.6659
 20
13.4641
 30
0.0
  0
VERTEX
  5
53E
  8
0
 62
     3
 10
-34.8126
 20
19.6998
 30
0.0
  0
VERTEX
  5
53F
  8
0
 62
     3
 10
-30.9359
 20
25.3569
 30
0.0
  0
VERTEX
  5
540
  8
0
 62
     3
 10
-26.1498
 20
30.2686
 30
0.0
  0
VERTEX
  5
541
  8
0
 62
     3
 10
-20.5956
 20
34.2903
 30
0.0
  0
VERTEX
  5
542
  8
0
 62
     3
 10
-14.4354
 20
37.3044
 30
0.0
  0
VERTEX
  5
543
  8
0
 62
     3
 10
-7.8509
 20
39.222
 30
0.0
  0
VERTEX
  5
544
  8
0
 62
     3
 10
-1.0363
 20
39.9866
 30
0.0
  0
VERTEX
  5
545
  8
0
 62
     3
 10
5.8094
 20
39.5759
 30
0.0
  0
VERTEX
  5
546
  8
0
 62
     3
 10
12.4844
 20
38.0018
 30
0.0
  0
VERTEX
  5
547
  8
0
 62
     3
 10
18.7919
 20
35.311
 30
0.0
  0
VERTEX
  5
548
  8
0
 62
     3
 10
24.5474
 20
31.582
 30
0.0
  0
VERTEX
  5
549
  8
0
 62
     3
 10
29.5814
 20
26.9248
 30
0.0
  0
VERTEX
  5
54A
  8
0
 62
     3
 10
33.7455
 20
21.4765
 30
0.0
  0
VERTEX
  5
54B
  8
0
 62
     3
 10
36.9182
 20
15.3964
 30
0.0
  0
VERTEX
  5
54C
  8
0
 62
     3
 10
39.0056
 20
8.8638
 30
0.0
  0
VERTEX
  5
54D
  8
0
 62
     3
 10
39.9463
 20
2.0702
 30
0.0
  0
SEQEND
  5
5ED
  8
0
 62
     3
  0
POLYLINE
  5
2E0
  8
0
 62
     3
 66
     1
 10
0.0
 20
0.0
 30
0.0
 40
0.5715
 41
0.5715
  0
VERTEX
  5
54F
  8
0
 62
     3
 10
224.0
 20
-12.9157
 30
0.0
  0
VERTEX
  5
550
  8
0
 62
     3
 10
224.0
 20
14.5843
 30
0.0
  0
SEQEND
  5
5EE
  8
0
 62
     3
  0
POLYLINE
  5
2E4
  8
0
 62
     3
 66
     1
 10
0.0
 20
0.0
 30
0.0
 40
0.5715
 41
0.5715
  0
VERTEX
  5
552
  8
0
 62
     3
 10
0.0
 20
-11.4157
 30
0.0
  0
VERTEX
  5
553
  8
0
 62
     3
 10
0.0
 20
9.4
 30
0.0
  0
SEQEND
  5
5EF
  8
0
 62
     3
  0
POLYLINE
  5
2E8
  8
0
 62
     3
 66
     1
 10
0.0
 20
0.0
 30
0.0
 40
0.5715
 41
0.5715
  0
VERTEX
  5
555
  8
0
 62
     3
 10
-223.8908
 20
12.9619
 30
0.0
  0
VERTEX
  5
556
  8
0
 62
     3
 10
-223.8964
 20
-14.5381
 30
0.0
  0
SEQEND
  5
5F0
  8
0
 62
     3
  0
POLYLINE
  5
2EC
  8
0
 62
     3
 66
     1
 10
0.0
 20
0.0
 30
0.0
 40
1.0287
 41
1.0287
  0
VERTEX
  5
558
  8
0
 62
     3
 10
66.5359
 20
2.0
 30
0.0
  0
VERTEX
  5
559
  8
0
 62
     3
 10
24.067
 20
2.0
 30
0.0
  0
SEQEND
  5
5F1
  8
0
 62
     3
  0
POLYLINE
  5
2F0
  8
0
 62
     3
 66
     1
 10
0.0
 20
0.0
 30
0.0
 40
1.0287
 41
1.0287
  0
VERTEX
  5
55B
  8
0
 62
     3
 10
66.5359
 20
-2.0
 30
0.0
  0
VERTEX
  5
55C
  8
0
 62
     3
 10
24.067
 20
-2.0
 30
0.0
  0
SEQEND
  5
5F2
  8
0
 62
     3
  0
ENDBLK
  5
5F4
  8
0
  0
ENDSEC
  0
SECTION
  2
ENTITIES
  0
INSERT
  5
2F5
  8
0
  2
SIMBOLO_N__1
 10
-107.4056
 20
373.7081
 30
0.0
  0
INSERT
  5
2F6
  8
0
  2
SIMBOLO_N__2
 10
-107.4056
 20
45.7081
 30
0.0
  0
ENDSEC
  0
EOF
