  0
SECTION
  2
HEADER
  9
$ACADVER
  1
AC1009
  9
$DWGCODEPAGE
  3
ansi_1252
  9
$INSBASE
 10
0.0
 20
0.0
 30
0.0
  9
$EXTMIN
 10
-94.89722
 20
-137.75972
 30
0.0
  9
$EXTMAX
 10
94.89722
 20
137.75972
 30
0.0
  9
$LIMMIN
 10
0.0
 20
0.0
  9
$LIMMAX
 10
12.0
 20
9.0
  9
$ORTHOMODE
 70
     0
  9
$REGENMODE
 70
     1
  9
$FILLMODE
 70
     1
  9
$QTEXTMODE
 70
     0
  9
$MIRRTEXT
 70
     1
  9
$DRAGMODE
 70
     2
  9
$LTSCALE
 40
1.0
  9
$OSMODE
 70
    37
  9
$ATTMODE
 70
     1
  9
$TEXTSIZE
 40
0.2
  9
$TRACEWID
 40
0.05
  9
$TEXTSTYLE
  7
STANDARD
  9
$CLAYER
  8
0
  9
$CELTYPE
  6
BYBLOCK
  9
$CECOLOR
 62
   256
  9
$DIMSCALE
 40
1.0
  9
$DIMASZ
 40
0.18
  9
$DIMEXO
 40
0.0625
  9
$DIMDLI
 40
0.38
  9
$DIMRND
 40
0.0
  9
$DIMDLE
 40
0.0
  9
$DIMEXE
 40
0.18
  9
$DIMTP
 40
0.0
  9
$DIMTM
 40
0.0
  9
$DIMTXT
 40
0.18
  9
$DIMCEN
 40
0.09
  9
$DIMTSZ
 40
0.0
  9
$DIMTOL
 70
     0
  9
$DIMLIM
 70
     0
  9
$DIMTIH
 70
     1
  9
$DIMTOH
 70
     1
  9
$DIMSE1
 70
     0
  9
$DIMSE2
 70
     0
  9
$DIMTAD
 70
     0
  9
$DIMZIN
 70
     0
  9
$DIMBLK
  1

  9
$DIMASO
 70
     1
  9
$DIMSHO
 70
     1
  9
$DIMPOST
  1

  9
$DIMAPOST
  1

  9
$DIMALT
 70
     0
  9
$DIMALTD
 70
     2
  9
$DIMALTF
 40
25.4
  9
$DIMLFAC
 40
1.0
  9
$DIMTOFL
 70
     0
  9
$DIMTVP
 40
0.0
  9
$DIMTIX
 70
     0
  9
$DIMSOXD
 70
     0
  9
$DIMSAH
 70
     0
  9
$DIMBLK1
  1

  9
$DIMBLK2
  1

  9
$DIMSTYLE
  2
STANDARD
  9
$DIMCLRD
 70
     0
  9
$DIMCLRE
 70
     0
  9
$DIMCLRT
 70
     0
  9
$DIMTFAC
 40
1.0
  9
$DIMGAP
 40
0.09
  9
$LUNITS
 70
     2
  9
$LUPREC
 70
     4
  9
$SKETCHINC
 40
0.1
  9
$FILLETRAD
 40
0.5
  9
$AUNITS
 70
     0
  9
$AUPREC
 70
     0
  9
$MENU
  1
.
  9
$ELEVATION
 40
0.0
  9
$PELEVATION
 40
0.0
  9
$THICKNESS
 40
0.0
  9
$LIMCHECK
 70
     0
  9
$CHAMFERA
 40
0.5
  9
$CHAMFERB
 40
0.5
  9
$SKPOLY
 70
     0
  9
$TDCREATE
 40
2453619.496198426
  9
$TDUPDATE
 40
2453619.496198438
  9
$TDINDWG
 40
0.0000000116
  9
$TDUSRTIMER
 40
0.0000000116
  9
$USRTIMER
 70
     1
  9
$ANGBASE
 50
0.0
  9
$ANGDIR
 70
     0
  9
$PDMODE
 70
     0
  9
$PDSIZE
 40
0.0
  9
$PLINEWID
 40
0.0
  9
$COORDS
 70
     1
  9
$SPLFRAME
 70
     0
  9
$SPLINETYPE
 70
     6
  9
$SPLINESEGS
 70
     8
  9
$ATTDIA
 70
     0
  9
$ATTREQ
 70
     1
  9
$HANDLING
 70
     1
  9
$HANDSEED
  5
15C
  9
$SURFTAB1
 70
     6
  9
$SURFTAB2
 70
     6
  9
$SURFTYPE
 70
     6
  9
$SURFU
 70
     6
  9
$SURFV
 70
     6
  9
$UCSNAME
  2

  9
$UCSORG
 10
0.0
 20
0.0
 30
0.0
  9
$UCSXDIR
 10
1.0
 20
0.0
 30
0.0
  9
$UCSYDIR
 10
0.0
 20
1.0
 30
0.0
  9
$PUCSNAME
  2

  9
$PUCSORG
 10
0.0
 20
0.0
 30
0.0
  9
$PUCSXDIR
 10
1.0
 20
0.0
 30
0.0
  9
$PUCSYDIR
 10
0.0
 20
1.0
 30
0.0
  9
$USERI1
 70
     0
  9
$USERI2
 70
     0
  9
$USERI3
 70
     0
  9
$USERI4
 70
     0
  9
$USERI5
 70
     0
  9
$USERR1
 40
0.0
  9
$USERR2
 40
0.0
  9
$USERR3
 40
0.0
  9
$USERR4
 40
0.0
  9
$USERR5
 40
0.0
  9
$WORLDVIEW
 70
     1
  9
$SHADEDGE
 70
     3
  9
$SHADEDIF
 70
    70
  9
$TILEMODE
 70
     1
  9
$MAXACTVP
 70
    64
  9
$PLIMCHECK
 70
     0
  9
$PEXTMIN
 10
1.000000000000000E+20
 20
1.000000000000000E+20
 30
1.000000000000000E+20
  9
$PEXTMAX
 10
-1.000000000000000E+20
 20
-1.000000000000000E+20
 30
-1.000000000000000E+20
  9
$PLIMMIN
 10
0.0
 20
0.0
  9
$PLIMMAX
 10
12.0
 20
9.0
  9
$UNITMODE
 70
     0
  9
$VISRETAIN
 70
     1
  9
$PLINEGEN
 70
     0
  9
$PSLTSCALE
 70
     1
  0
ENDSEC
  0
SECTION
  2
TABLES
  0
TABLE
  2
VPORT
 70
     1
  0
VPORT
  2
*ACTIVE
 70
     0
 10
0.0
 20
0.0
 11
1.0
 21
1.0
 12
10.42990654205607
 22
4.5
 13
0.0
 23
0.0
 14
0.5
 24
0.5
 15
0.5
 25
0.5
 16
0.0
 26
0.0
 36
1.0
 17
0.0
 27
0.0
 37
0.0
 40
9.0
 41
1.972972972850329
 42
50.0
 43
0.0
 44
0.0
 50
0.0
 51
0.0
 71
     0
 72
   100
 73
     1
 74
     3
 75
     0
 76
     0
 77
     0
 78
     0
  0
ENDTAB
  0
TABLE
  2
LTYPE
 70
    10
  0
LTYPE
  2
CONTINUOUS
 70
     0
  3
Solid Line
 72
    65
 73
     0
 40
0.0
  0
LTYPE
  2
MCDASH1
 70
     0
  3
MiniCad+ Generated
 72
    65
 73
     2
 40
2.116538
 49
1.058075
 49
-1.058463
  0
LTYPE
  2
MCDASH2
 70
     0
  3
MiniCad+ Generated
 72
    65
 73
     2
 40
3.527692
 49
2.469229
 49
-1.058463
  0
LTYPE
  2
MCDASH3
 70
     0
  3
MiniCad+ Generated
 72
    65
 73
     2
 40
6.35
 49
5.291537
 49
-1.058463
  0
LTYPE
  2
MCDASH4
 70
     0
  3
MiniCad+ Generated
 72
    65
 73
     2
 40
7.760767
 49
6.702692
 49
-1.058075
  0
LTYPE
  2
MCDASH5
 70
     0
  3
MiniCad+ Generated
 72
    65
 73
     2
 40
1.058075
 49
0.352692
 49
-0.705383
  0
LTYPE
  2
MCDASH6
 70
     0
  3
MiniCad+ Generated
 72
    65
 73
     4
 40
5.291538
 49
3.175
 49
-1.058075
 49
0.352692
 49
-0.705771
  0
LTYPE
  2
MCDASH7
 70
     0
  3
MiniCad+ Generated
 72
    65
 73
     6
 40
9.525001
 49
3.175
 49
-1.058075
 49
3.175
 49
-1.058463
 49
0.352692
 49
-0.705771
  0
LTYPE
  2
MCDASH8
 70
     0
  3
MiniCad+ Generated
 72
    65
 73
     6
 40
6.350001000000001
 49
3.175
 49
-1.058075
 49
0.352692
 49
-0.705771
 49
0.352692
 49
-0.705771
  0
LTYPE
  2
MCDASH9
 70
     0
  3
MiniCad+ Generated
 72
    65
 73
     4
 40
4.994656
 49
2.497134
 49
-1.248761
 49
0.0
 49
-1.248761
  0
ENDTAB
  0
TABLE
  2
LAYER
 70
     2
  0
LAYER
  2
0
 70
     0
 62
     7
  6
CONTINUOUS
  0
LAYER
  2
LUCIDO-1
 70
     0
 62
     7
  6
CONTINUOUS
  0
ENDTAB
  0
TABLE
  2
STYLE
 70
     1
  0
STYLE
  2
STANDARD
 70
     0
 40
0.0
 41
1.0
 50
0.0
 71
     0
 42
0.2
  3
txt
  4

  0
ENDTAB
  0
TABLE
  2
VIEW
 70
     0
  0
ENDTAB
  0
TABLE
  2
UCS
 70
     0
  0
ENDTAB
  0
TABLE
  2
APPID
 70
     1
  0
APPID
  2
ACAD
 70
     0
  0
ENDTAB
  0
TABLE
  2
DIMSTYLE
 70
     1
  0
DIMSTYLE
  2
STANDARD
 70
     0
  3

  4

  5

  6

  7

 40
1.0
 41
0.18
 42
0.0625
 43
0.38
 44
0.18
 45
0.0
 46
0.0
 47
0.0
 48
0.0
140
0.18
141
0.09
142
0.0
143
25.4
144
1.0
145
0.0
146
1.0
147
0.09
 71
     0
 72
     0
 73
     1
 74
     1
 75
     0
 76
     0
 77
     0
 78
     0
170
     0
171
     2
172
     0
173
     0
174
     0
175
     0
176
     0
177
     0
178
     0
  0
ENDTAB
  0
ENDSEC
  0
SECTION
  2
BLOCKS
  0
BLOCK
  8
0
  2
$MODEL_SPACE
 70
     0
 10
0.0
 20
0.0
 30
0.0
  3
$MODEL_SPACE
  1

  0
ENDBLK
  5
157
  8
0
  0
BLOCK
 67
     1
  8
0
  2
$PAPER_SPACE
 70
     0
 10
0.0
 20
0.0
 30
0.0
  3
$PAPER_SPACE
  1

  0
ENDBLK
  5
155
 67
     1
  8
0
  0
BLOCK
  8
0
  2
$ARROW1$
 70
     0
 10
0.0
 20
0.0
 30
0.0
  3
$ARROW1$
  1

  0
SOLID
  5
2E
  8
0
 62
     0
 10
-25.4
 20
4.318
 30
0.0
 11
-25.4
 21
-4.318
 31
0.0
 12
0.0
 22
0.0
 32
0.0
 13
0.0
 23
0.0
 33
0.0
  0
ENDBLK
  5
140
  8
0
  0
BLOCK
  8
0
  2
$ARROW2$
 70
     0
 10
0.0
 20
0.0
 30
0.0
  3
$ARROW2$
  1

  0
SOLID
  5
32
  8
0
 62
     0
 10
-25.4
 20
12.7
 30
0.0
 11
-25.4
 21
-12.7
 31
0.0
 12
0.0
 22
0.0
 32
0.0
 13
0.0
 23
0.0
 33
0.0
  0
ENDBLK
  5
142
  8
0
  0
BLOCK
  8
0
  2
$ARROW3$
 70
     0
 10
0.0
 20
0.0
 30
0.0
  3
$ARROW3$
  1

  0
POLYLINE
  5
36
  8
0
  6
BYBLOCK
 62
     0
 66
     1
 10
0.0
 20
0.0
 30
0.0
 70
     1
 40
0.5
 41
0.5
  0
VERTEX
  5
108
  8
0
  6
BYBLOCK
 62
     0
 10
-6.35
 20
0.0
 30
0.0
 42
1.0
  0
VERTEX
  5
109
  8
0
  6
BYBLOCK
 62
     0
 10
6.35
 20
0.0
 30
0.0
 42
1.0
  0
SEQEND
  5
143
  8
0
  6
BYBLOCK
 62
     0
  0
ENDBLK
  5
145
  8
0
  0
BLOCK
  8
0
  2
$ARROW4$
 70
     0
 10
0.0
 20
0.0
 30
0.0
  3
$ARROW4$
  1

  0
LINE
  5
3D
  8
0
  6
BYBLOCK
 62
     0
 10
12.7
 20
12.7
 30
0.0
 11
-12.7
 21
-12.7
 31
0.0
  0
ENDBLK
  5
147
  8
0
  0
BLOCK
  8
0
  2
$ARROW5$
 70
     0
 10
0.0
 20
0.0
 30
0.0
  3
$ARROW5$
  1

  0
LINE
  5
41
  8
0
  6
BYBLOCK
 62
     0
 10
12.7
 20
12.7
 30
0.0
 11
-12.7
 21
-12.7
 31
0.0
  0
LINE
  5
42
  8
0
  6
BYBLOCK
 62
     0
 10
-12.7
 20
12.7
 30
0.0
 11
12.7
 21
-12.7
 31
0.0
  0
ENDBLK
  5
149
  8
0
  0
BLOCK
  8
0
  2
_FRECCIA__1
 70
     0
 10
0.0
 20
0.0
 30
0.0
  3
_FRECCIA__1
  1

  0
LINE
  5
46
  8
0
 10
-6.5
 20
-257.59178
 30
0.0
 11
0.0
 21
-261.34456
 31
0.0
  0
LINE
  5
47
  8
0
 10
0.0
 20
-261.34456
 30
0.0
 11
-6.5
 21
-265.09733
 31
0.0
  0
LINE
  5
48
  8
0
 10
-6.5
 20
-265.09733
 30
0.0
 11
-6.5
 21
-261.34456
 31
0.0
  0
LINE
  5
49
  8
0
 10
0.0
 20
-261.34456
 30
0.0
 11
-15.0
 21
-261.34456
 31
0.0
  0
LINE
  5
4A
  8
0
 10
-6.5
 20
-261.34456
 30
0.0
 11
-6.5
 21
-257.59178
 31
0.0
  0
LINE
  5
4B
  8
0
 10
-6.5
 20
14.62225
 30
0.0
 11
0.0
 21
10.86948
 31
0.0
  0
LINE
  5
4C
  8
0
 10
-6.5
 20
10.86948
 30
0.0
 11
-6.5
 21
14.62225
 31
0.0
  0
LINE
  5
4D
  8
0
 10
0.0
 20
10.86948
 30
0.0
 11
-15.0
 21
10.86948
 31
0.0
  0
LINE
  5
4E
  8
0
 10
-6.5
 20
7.1167
 30
0.0
 11
-6.5
 21
10.86948
 31
0.0
  0
LINE
  5
4F
  8
0
 10
0.0
 20
10.86948
 30
0.0
 11
-6.5
 21
7.1167
 31
0.0
  0
TEXT
  5
50
  8
0
 10
-12.32797
 20
-260.59861
 30
0.0
 40
3.733336
  1
A
 41
0.591476
  0
TEXT
  5
51
  8
0
 10
-12.32797
 20
11.61542
 30
0.0
 40
3.733336
  1
A
 41
0.591476
  0
ENDBLK
  5
14B
  8
0
  0
BLOCK
  8
0
  2
_FRECCIA__2
 70
     0
 10
0.0
 20
0.0
 30
0.0
  3
_FRECCIA__2
  1

  0
LINE
  5
55
  8
0
 10
-15.00575
 20
-0.04791
 30
0.0
 11
-18.75853
 21
6.45209
 31
0.0
  0
LINE
  5
56
  8
0
 10
-18.75853
 20
6.45209
 30
0.0
 11
-15.00575
 21
6.45209
 31
0.0
  0
LINE
  5
57
  8
0
 10
-15.00575
 20
-0.04791
 30
0.0
 11
-15.00575
 21
14.95209
 31
0.0
  0
LINE
  5
58
  8
0
 10
-15.00575
 20
6.45209
 30
0.0
 11
-11.25297
 21
6.45209
 31
0.0
  0
LINE
  5
59
  8
0
 10
-11.25297
 20
6.45209
 30
0.0
 11
-15.00575
 21
-0.04791
 31
0.0
  0
LINE
  5
5A
  8
0
 10
-98.39147
 20
-46.06653
 30
0.0
 11
-102.14424
 21
-39.56653
 31
0.0
  0
LINE
  5
5B
  8
0
 10
-102.14424
 20
-39.56653
 30
0.0
 11
-98.39147
 21
-39.56653
 31
0.0
  0
LINE
  5
5C
  8
0
 10
-98.39147
 20
-46.06653
 30
0.0
 11
-98.39147
 21
-31.06653
 31
0.0
  0
LINE
  5
5D
  8
0
 10
-98.39147
 20
-39.56653
 30
0.0
 11
-94.63869
 21
-39.56653
 31
0.0
  0
LINE
  5
5E
  8
0
 10
-94.63869
 20
-39.56653
 30
0.0
 11
-98.39147
 21
-46.06653
 31
0.0
  0
TEXT
  5
5F
  8
0
 62
     2
 10
-15.75169
 20
12.8941
 30
0.0
 40
3.733336
  1
B
 50
90.0
 41
0.755951
 71
     2
  0
TEXT
  5
60
  8
0
 62
     2
 10
-99.13741
 20
-33.12451
 30
0.0
 40
3.733336
  1
B
 50
90.0
 41
0.755951
 71
     2
  0
ENDBLK
  5
14D
  8
0
  0
BLOCK
  8
0
  2
TOP__3
 70
     0
 10
0.0
 20
0.0
 30
0.0
  3
TOP__3
  1

  0
LINE
  5
64
  8
0
 10
176.81098
 20
252.28879
 30
0.0
 11
176.81098
 21
247.28879
 31
0.0
  0
LINE
  5
65
  8
0
 10
176.81098
 20
247.28879
 30
0.0
 11
171.81098
 21
247.28879
 31
0.0
  0
LINE
  5
66
  8
0
 10
119.81098
 20
247.28879
 30
0.0
 11
129.81098
 21
247.28879
 31
0.0
  0
LINE
  5
67
  8
0
  6
MCDASH9
 10
129.81098
 20
247.28879
 30
0.0
 11
171.81098
 21
247.28879
 31
0.0
  0
LINE
  5
68
  8
0
  6
MCDASH9
 10
176.81098
 20
288.30741
 30
0.0
 11
176.81098
 21
252.28879
 31
0.0
  0
LINE
  5
69
  8
0
  6
MCDASH9
 10
181.81098
 20
293.30741
 30
0.0
 11
202.81098
 21
293.30741
 31
0.0
  0
LINE
  5
6A
  8
0
 10
202.81098
 20
293.30741
 30
0.0
 11
212.81098
 21
293.30741
 31
0.0
  0
LINE
  5
6B
  8
0
 10
176.81098
 20
293.30741
 30
0.0
 11
176.81098
 21
288.30741
 31
0.0
  0
LINE
  5
6C
  8
0
 10
181.81098
 20
293.30741
 30
0.0
 11
176.81098
 21
293.30741
 31
0.0
  0
INSERT
  5
6D
  8
0
  2
_FRECCIA__2
 10
222.81673
 20
293.35532
 30
0.0
  0
ENDBLK
  5
14F
  8
0
  0
BLOCK
  8
0
  2
SIMBOLO_N__4
 70
     0
 10
0.0
 20
0.0
 30
0.0
  3
SIMBOLO_N__4
  1

  0
LINE
  5
71
  8
0
 62
     5
 10
-12.5
 20
18.0
 30
0.0
 11
12.5
 21
18.0
 31
0.0
  0
LINE
  5
72
  8
0
 62
     5
 10
12.5
 20
18.0
 30
0.0
 11
13.6208
 21
18.0
 31
0.0
  0
LINE
  5
73
  8
0
 62
     5
 10
-13.62079
 20
18.0
 30
0.0
 11
-12.5
 21
18.0
 31
0.0
  0
LINE
  5
74
  8
0
 62
     5
 10
-19.82986
 20
-63.0
 30
0.0
 11
-19.82986
 21
-88.19279
 31
0.0
  0
LINE
  5
75
  8
0
 62
     5
 10
-16.61826
 20
15.12323
 30
0.0
 11
-19.82986
 21
-63.0
 31
0.0
  0
LINE
  5
76
  8
0
 62
     5
 10
19.82986
 20
-88.19277
 30
0.0
 11
19.82986
 21
-63.0
 31
0.0
  0
LINE
  5
77
  8
0
 62
     5
 10
19.82986
 20
-63.0
 30
0.0
 11
16.61826
 21
15.12323
 31
0.0
  0
LINE
  5
78
  8
0
 62
     5
 10
19.82986
 20
-63.0
 30
0.0
 11
16.61826
 21
15.12323
 31
0.0
  0
LINE
  5
79
  8
0
 62
     5
 10
-16.61826
 20
15.12323
 30
0.0
 11
-19.82986
 21
-63.0
 31
0.0
  0
LINE
  5
7A
  8
0
 62
     5
 10
-5.25
 20
-102.0
 30
0.0
 11
-5.25
 21
-133.0
 31
0.0
  0
LINE
  5
7B
  8
0
 62
     5
 10
-5.25
 20
-146.0
 30
0.0
 11
-5.25
 21
-177.0
 31
0.0
  0
LINE
  5
7C
  8
0
 62
     5
 10
5.25
 20
-177.0
 30
0.0
 11
5.25
 21
-146.0
 31
0.0
  0
LINE
  5
7D
  8
0
 62
     5
 10
5.25
 20
-133.0
 30
0.0
 11
5.25
 21
-102.0
 31
0.0
  0
LINE
  5
7E
  8
0
 62
     5
 10
-15.15053
 20
-187.0
 30
0.0
 11
15.15053
 21
-187.0
 31
0.0
  0
LINE
  5
7F
  8
0
 62
     5
 10
13.65053
 20
-187.0
 30
0.0
 11
14.80355
 21
-187.0
 31
0.0
  0
LINE
  5
80
  8
0
 62
     5
 10
-20.0
 20
-187.0
 30
0.0
 11
-13.65053
 21
-187.0
 31
0.0
  0
LINE
  5
81
  8
0
 62
     5
 10
-16.9377
 20
-68.00015000000001
 30
0.0
 11
-13.77654
 21
-187.00335
 31
0.0
  0
LINE
  5
82
  8
0
 62
     5
 10
-11.96191
 20
-17.0
 30
0.0
 11
11.96192
 21
-17.0
 31
0.0
  0
LINE
  5
83
  8
0
 62
     5
 10
13.77654
 20
-187.00335
 30
0.0
 11
16.9377
 21
-68.00015000000001
 31
0.0
  0
LINE
  5
84
  8
0
 62
     5
 10
-20.0
 20
-187.0
 30
0.0
 11
-20.0
 21
-89.0
 31
0.0
  0
LINE
  5
85
  8
0
 62
     5
 10
20.0
 20
-89.0
 30
0.0
 11
20.0
 21
-187.0
 31
0.0
  0
LINE
  5
86
  8
0
 62
     5
 10
14.80355
 20
-187.0
 30
0.0
 11
20.0
 21
-187.0
 31
0.0
  0
LINE
  5
87
  8
0
 62
     5
 10
14.95938
 20
-19.87677
 30
0.0
 11
16.9377
 21
-68.00015000000001
 31
0.0
  0
LINE
  5
88
  8
0
 62
     5
 10
-16.9377
 20
-68.00015000000001
 30
0.0
 11
-14.95938
 21
-19.87677
 31
0.0
  0
ARC
  5
89
  8
0
 62
     5
 10
0.0
 20
-177.0
 30
0.0
 40
5.25
 50
180.0
 51
0.0
  0
ARC
  5
8A
  8
0
 62
     5
 10
0.0
 20
-146.0
 30
0.0
 40
5.25
 50
0.0
 51
180.0
  0
ARC
  5
8B
  8
0
 62
     5
 10
0.0
 20
-133.0
 30
0.0
 40
5.25
 50
180.0
 51
0.0
  0
ARC
  5
8C
  8
0
 62
     5
 10
0.0
 20
-102.0
 30
0.0
 40
5.25
 50
0.0
 51
180.0
  0
CIRCLE
  5
8D
  8
0
 62
     5
 10
0.0
 20
0.0
 30
0.0
 40
6.0
  0
ARC
  5
8E
  8
0
 62
     5
 10
-13.62079
 20
15.0
 30
0.0
 40
3.0
 50
90.0
 51
177.645935
  0
ARC
  5
8F
  8
0
 62
     5
 10
13.6208
 20
15.0
 30
0.0
 40
3.0
 50
2.354065
 51
90.0
  0
ARC
  5
90
  8
0
 62
     5
 10
18.0
 20
-89.0
 30
0.0
 40
2.0
 50
0.0
 51
23.804382
  0
ARC
  5
91
  8
0
 62
     5
 10
-18.0
 20
-89.0
 30
0.0
 40
2.0
 50
156.195618
 51
180.0
  0
ARC
  5
92
  8
0
 62
     5
 10
11.96192
 20
-20.0
 30
0.0
 40
3.0
 50
2.354065
 51
90.0
  0
ARC
  5
93
  8
0
 62
     5
 10
-11.96191
 20
-20.0
 30
0.0
 40
3.0
 50
90.0
 51
177.645935
  0
LINE
  5
94
  8
0
 62
     5
 10
16.46367
 20
-85.8453
 30
0.0
 11
-16.46367
 21
-85.8453
 31
0.0
  0
LINE
  5
95
  8
0
 62
     5
 10
16.47275
 20
-56.69009
 30
0.0
 11
-16.46367
 21
-56.69009
 31
0.0
  0
LINE
  5
96
  8
0
 62
     2
 10
-16.5
 20
46.0
 30
0.0
 11
16.5
 21
46.0
 31
0.0
  0
LINE
  5
97
  8
0
 62
     2
 10
25.0
 20
58.0
 30
0.0
 11
25.0
 21
54.5
 31
0.0
  0
LINE
  5
98
  8
0
 62
     2
 10
5.0
 20
63.5
 30
0.0
 11
0.0
 21
63.5
 31
0.0
  0
LINE
  5
99
  8
0
 62
     2
 10
6.0
 20
58.0
 30
0.0
 11
0.0
 21
58.0
 31
0.0
  0
LINE
  5
9A
  8
0
 62
     2
 10
16.5
 20
28.0
 30
0.0
 11
0.0
 21
28.0
 31
0.0
  0
LINE
  5
9B
  8
0
 62
     2
 10
16.5
 20
45.6123
 30
0.0
 11
16.5
 21
28.0
 31
0.0
  0
LINE
  5
9C
  8
0
 62
     2
 10
24.40773
 20
59.7768
 30
0.0
 11
25.0
 21
58.0
 31
0.0
  0
LINE
  5
9D
  8
0
 62
     2
 10
25.0
 20
54.5
 30
0.0
 11
17.95717
 21
48.70002
 31
0.0
  0
ARC
  5
9E
  8
0
 62
     2
 10
22.51037
 20
59.14435
 30
0.0
 40
2.0
 50
18.434937
 51
84.05313099999999
  0
ARC
  5
9F
  8
0
 62
     2
 10
20.5
 20
45.6123
 30
0.0
 40
4.0
 50
129.472458
 51
180.0
  0
LINE
  5
A0
  8
0
 62
     2
 10
5.0
 20
63.5
 30
0.0
 11
22.71758
 21
61.13359
 31
0.0
  0
LINE
  5
A1
  8
0
 62
     2
 10
7.5
 20
28.0
 30
0.0
 11
7.5
 21
18.0
 31
0.0
  0
ARC
  5
A2
  8
0
 62
     2
 10
18.04511
 20
39.9004
 30
0.0
 40
21.74121
 50
77.589584
 51
123.643387
  0
ARC
  5
A3
  8
0
 62
     2
 10
14.85751
 20
60.1263
 30
0.0
 40
14.22146
 50
231.477112
 51
276.632095
  0
LINE
  5
A4
  8
0
 62
     2
 10
6.0
 20
58.0
 30
0.0
 11
6.0
 21
49.0
 31
0.0
  0
LINE
  5
A5
  8
0
 62
     2
 10
6.0
 20
49.0
 30
0.0
 11
0.0
 21
49.0
 31
0.0
  0
LINE
  5
A6
  8
0
 62
     2
 10
-6.0
 20
49.0
 30
0.0
 11
0.0
 21
49.0
 31
0.0
  0
LINE
  5
A7
  8
0
 62
     2
 10
-6.0
 20
58.0
 30
0.0
 11
-6.0
 21
49.0
 31
0.0
  0
ARC
  5
A8
  8
0
 62
     2
 10
-14.85751
 20
60.1263
 30
0.0
 40
14.22146
 50
263.367905
 51
308.522888
  0
ARC
  5
A9
  8
0
 62
     2
 10
-18.04511
 20
39.9004
 30
0.0
 40
21.74121
 50
56.356628
 51
102.410431
  0
LINE
  5
AA
  8
0
 62
     2
 10
-7.5
 20
28.0
 30
0.0
 11
-7.5
 21
18.0
 31
0.0
  0
LINE
  5
AB
  8
0
 62
     2
 10
-5.0
 20
63.5
 30
0.0
 11
-22.71758
 21
61.13359
 31
0.0
  0
ARC
  5
AC
  8
0
 62
     2
 10
-20.5
 20
45.6123
 30
0.0
 40
4.0
 50
0.0
 51
50.527542
  0
ARC
  5
AD
  8
0
 62
     2
 10
-22.51037
 20
59.14435
 30
0.0
 40
2.0
 50
95.946854
 51
161.565048
  0
LINE
  5
AE
  8
0
 62
     2
 10
-25.0
 20
54.5
 30
0.0
 11
-17.95717
 21
48.70002
 31
0.0
  0
LINE
  5
AF
  8
0
 62
     2
 10
-24.40773
 20
59.7768
 30
0.0
 11
-25.0
 21
58.0
 31
0.0
  0
LINE
  5
B0
  8
0
 62
     2
 10
-16.5
 20
45.6123
 30
0.0
 11
-16.5
 21
28.0
 31
0.0
  0
LINE
  5
B1
  8
0
 62
     2
 10
-16.5
 20
28.0
 30
0.0
 11
0.0
 21
28.0
 31
0.0
  0
LINE
  5
B2
  8
0
 62
     2
 10
-6.0
 20
58.0
 30
0.0
 11
0.0
 21
58.0
 31
0.0
  0
LINE
  5
B3
  8
0
 62
     2
 10
-5.0
 20
63.5
 30
0.0
 11
0.0
 21
63.5
 31
0.0
  0
LINE
  5
B4
  8
0
 62
     2
 10
-25.0
 20
58.0
 30
0.0
 11
-25.0
 21
54.5
 31
0.0
  0
ENDBLK
  5
151
  8
0
  0
BLOCK
  8
0
  2
SIMBOLO_N__5
 70
     0
 10
0.0
 20
0.0
 30
0.0
  3
SIMBOLO_N__5
  1

  0
LINE
  5
B8
  8
0
  6
MCDASH1
 10
-33.0
 20
-96.75
 30
0.0
 11
-24.0
 21
-96.75
 31
0.0
  0
LINE
  5
B9
  8
0
 62
     5
 10
-33.0
 20
-87.0
 30
0.0
 11
-33.0
 21
-182.5
 31
0.0
  0
LINE
  5
BA
  8
0
 62
     5
 10
-33.0
 20
-182.5
 30
0.0
 11
-33.0
 21
-187.0
 31
0.0
  0
LINE
  5
BB
  8
0
  6
MCDASH1
 10
0.0
 20
-6.0
 30
0.0
 11
32.0
 21
-6.0
 31
0.0
  0
LINE
  5
BC
  8
0
  6
MCDASH1
 10
0.0
 20
6.0
 30
0.0
 11
32.0
 21
6.0
 31
0.0
  0
LINE
  5
BD
  8
0
 62
     5
 10
29.58771
 20
-95.68818
 30
0.0
 11
-0.50273
 21
-178.36098
 31
0.0
  0
LINE
  5
BE
  8
0
 62
     5
 10
32.0
 20
-17.0
 30
0.0
 11
32.0
 21
-82.00738
 31
0.0
  0
LINE
  5
BF
  8
0
 62
     5
 10
3.0
 20
18.0
 30
0.0
 11
10.5
 21
18.0
 31
0.0
  0
LINE
  5
C0
  8
0
 62
     5
 10
0.0
 20
15.0
 30
0.0
 11
0.0
 21
6.5
 31
0.0
  0
LINE
  5
C1
  8
0
 62
     5
 10
-15.0
 20
-76.60769000000001
 30
0.0
 11
-33.0
 21
-87.0
 31
0.0
  0
LINE
  5
C2
  8
0
 62
     5
 10
32.0
 20
15.0
 30
0.0
 11
32.0
 21
6.5
 31
0.0
  0
LINE
  5
C3
  8
0
 62
     5
 10
-33.0
 20
-87.0
 30
0.0
 11
-33.0
 21
-91.75
 31
0.0
  0
LINE
  5
C4
  8
0
  6
MCDASH1
 10
-33.0
 20
-138.25
 30
0.0
 11
-24.0
 21
-138.25
 31
0.0
  0
LINE
  5
C5
  8
0
  6
MCDASH1
 10
-33.0
 20
-140.75
 30
0.0
 11
-24.0
 21
-140.75
 31
0.0
  0
LINE
  5
C6
  8
0
 62
     5
 10
-33.0
 20
-187.0
 30
0.0
 11
-24.0
 21
-186.2126
 31
0.0
  0
LINE
  5
C7
  8
0
 62
     5
 10
0.0
 20
-6.5
 30
0.0
 11
0.0
 21
-50.62693
 31
0.0
  0
LINE
  5
C8
  8
0
 62
     5
 10
32.0
 20
-6.5
 30
0.0
 11
32.0
 21
-17.0
 31
0.0
  0
LINE
  5
C9
  8
0
  6
MCDASH1
 10
-24.0
 20
-96.75
 30
0.0
 11
-24.0
 21
-186.2126
 31
0.0
  0
LINE
  5
CA
  8
0
 62
     5
 10
10.5
 20
18.0
 30
0.0
 11
21.5
 21
18.0
 31
0.0
  0
LINE
  5
CB
  8
0
 62
     5
 10
21.5
 20
18.0
 30
0.0
 11
29.0
 21
18.0
 31
0.0
  0
LINE
  5
CC
  8
0
 62
     5
 10
32.0
 20
6.5
 30
0.0
 11
32.0
 21
-6.5
 31
0.0
  0
LINE
  5
CD
  8
0
 62
     5
 10
0.0
 20
6.5
 30
0.0
 11
0.0
 21
-6.5
 31
0.0
  0
LINE
  5
CE
  8
0
 62
     5
 10
-24.0
 20
-186.2126
 30
0.0
 11
-9.0281
 21
-184.90273
 31
0.0
  0
ARC
  5
CF
  8
0
 62
     5
 10
-9.899660000000001
 20
-174.94078
 30
0.0
 40
10.0
 50
275.0
 51
340.0
  0
ARC
  5
D0
  8
0
 62
     5
 10
3.0
 20
15.0
 30
0.0
 40
3.0
 50
90.0
 51
180.0
  0
ARC
  5
D1
  8
0
 62
     5
 10
29.0
 20
15.0
 30
0.0
 40
3.0
 50
0.0
 51
90.0
  0
ARC
  5
D2
  8
0
 62
     5
 10
-8.0
 20
-82.00738
 30
0.0
 40
40.0
 50
340.0
 51
0.0
  0
ARC
  5
D3
  8
0
 62
     5
 10
-30.0
 20
-50.62693
 30
0.0
 40
30.0
 50
300.0
 51
0.0
  0
LINE
  5
D4
  8
0
  6
MCDASH1
 10
-24.0
 20
-182.25
 30
0.0
 11
-33.00684
 21
-182.25
 31
0.0
  0
LINE
  5
D5
  8
0
 62
     2
 10
-0.5
 20
46.0
 30
0.0
 11
32.5
 21
46.0
 31
0.0
  0
LINE
  5
D6
  8
0
 62
     2
 10
41.0
 20
58.0
 30
0.0
 11
41.0
 21
54.5
 31
0.0
  0
LINE
  5
D7
  8
0
 62
     2
 10
21.0
 20
63.5
 30
0.0
 11
16.0
 21
63.5
 31
0.0
  0
LINE
  5
D8
  8
0
 62
     2
 10
22.0
 20
58.0
 30
0.0
 11
16.0
 21
58.0
 31
0.0
  0
LINE
  5
D9
  8
0
 62
     2
 10
32.5
 20
28.0
 30
0.0
 11
16.0
 21
28.0
 31
0.0
  0
LINE
  5
DA
  8
0
 62
     2
 10
32.5
 20
45.6123
 30
0.0
 11
32.5
 21
28.0
 31
0.0
  0
LINE
  5
DB
  8
0
 62
     2
 10
40.40773
 20
59.7768
 30
0.0
 11
41.0
 21
58.0
 31
0.0
  0
LINE
  5
DC
  8
0
 62
     2
 10
41.0
 20
54.5
 30
0.0
 11
33.95717
 21
48.70002
 31
0.0
  0
ARC
  5
DD
  8
0
 62
     2
 10
38.51037
 20
59.14435
 30
0.0
 40
2.0
 50
18.434937
 51
84.05313099999999
  0
ARC
  5
DE
  8
0
 62
     2
 10
36.5
 20
45.6123
 30
0.0
 40
4.0
 50
129.472458
 51
180.0
  0
LINE
  5
DF
  8
0
 62
     2
 10
21.0
 20
63.5
 30
0.0
 11
38.71758
 21
61.13359
 31
0.0
  0
LINE
  5
E0
  8
0
 62
     2
 10
23.5
 20
28.0
 30
0.0
 11
23.5
 21
18.0
 31
0.0
  0
ARC
  5
E1
  8
0
 62
     2
 10
34.04511
 20
39.9004
 30
0.0
 40
21.74121
 50
77.589584
 51
123.643387
  0
ARC
  5
E2
  8
0
 62
     2
 10
30.85751
 20
60.1263
 30
0.0
 40
14.22146
 50
231.477112
 51
276.632095
  0
LINE
  5
E3
  8
0
 62
     2
 10
22.0
 20
58.0
 30
0.0
 11
22.0
 21
49.0
 31
0.0
  0
LINE
  5
E4
  8
0
 62
     2
 10
22.0
 20
49.0
 30
0.0
 11
16.0
 21
49.0
 31
0.0
  0
LINE
  5
E5
  8
0
 62
     2
 10
10.0
 20
49.0
 30
0.0
 11
16.0
 21
49.0
 31
0.0
  0
LINE
  5
E6
  8
0
 62
     2
 10
10.0
 20
58.0
 30
0.0
 11
10.0
 21
49.0
 31
0.0
  0
ARC
  5
E7
  8
0
 62
     2
 10
1.14249
 20
60.1263
 30
0.0
 40
14.22146
 50
263.367905
 51
308.522888
  0
ARC
  5
E8
  8
0
 62
     2
 10
-2.04511
 20
39.9004
 30
0.0
 40
21.74121
 50
56.356628
 51
102.410431
  0
LINE
  5
E9
  8
0
 62
     2
 10
8.5
 20
28.0
 30
0.0
 11
8.5
 21
18.0
 31
0.0
  0
LINE
  5
EA
  8
0
 62
     2
 10
11.0
 20
63.5
 30
0.0
 11
-6.71758
 21
61.13359
 31
0.0
  0
ARC
  5
EB
  8
0
 62
     2
 10
-4.5
 20
45.6123
 30
0.0
 40
4.0
 50
0.0
 51
50.527542
  0
ARC
  5
EC
  8
0
 62
     2
 10
-6.51037
 20
59.14435
 30
0.0
 40
2.0
 50
95.946854
 51
161.565048
  0
LINE
  5
ED
  8
0
 62
     2
 10
-9.0
 20
54.5
 30
0.0
 11
-1.95717
 21
48.70002
 31
0.0
  0
LINE
  5
EE
  8
0
 62
     2
 10
-8.407730000000001
 20
59.7768
 30
0.0
 11
-9.0
 21
58.0
 31
0.0
  0
LINE
  5
EF
  8
0
 62
     2
 10
-0.5
 20
45.6123
 30
0.0
 11
-0.5
 21
28.0
 31
0.0
  0
LINE
  5
F0
  8
0
 62
     2
 10
-0.5
 20
28.0
 30
0.0
 11
16.0
 21
28.0
 31
0.0
  0
LINE
  5
F1
  8
0
 62
     2
 10
10.0
 20
58.0
 30
0.0
 11
16.0
 21
58.0
 31
0.0
  0
LINE
  5
F2
  8
0
 62
     2
 10
11.0
 20
63.5
 30
0.0
 11
16.0
 21
63.5
 31
0.0
  0
LINE
  5
F3
  8
0
 62
     2
 10
-9.0
 20
58.0
 30
0.0
 11
-9.0
 21
54.5
 31
0.0
  0
ENDBLK
  5
153
  8
0
  0
ENDSEC
  0
SECTION
  2
ENTITIES
  0
INSERT
  5
F5
  8
LUCIDO-1
  2
SIMBOLO_N__4
 10
-59.09316
 20
83.51563
 30
0.0
  0
INSERT
  5
F6
  8
LUCIDO-1
  2
SIMBOLO_N__5
 10
33.5
 20
83.51563
 30
0.0
  0
ENDSEC
  0
EOF
