  0
SECTION
  2
HEADER
  9
$ACADVER
  1
AC1009
  9
$DWGCODEPAGE
  3
ansi_1252
  9
$INSBASE
 10
0.0
 20
0.0
 30
0.0
  9
$EXTMIN
 10
-427.0375
 20
-619.9187500000001
 30
0.0
  9
$EXTMAX
 10
427.0375
 20
619.9187500000001
 30
0.0
  9
$LIMMIN
 10
0.0
 20
0.0
  9
$LIMMAX
 10
12.0
 20
9.0
  9
$ORTHOMODE
 70
     0
  9
$REGENMODE
 70
     1
  9
$FILLMODE
 70
     1
  9
$QTEXTMODE
 70
     0
  9
$MIRRTEXT
 70
     1
  9
$DRAGMODE
 70
     2
  9
$LTSCALE
 40
4.5
  9
$OSMODE
 70
    37
  9
$ATTMODE
 70
     1
  9
$TEXTSIZE
 40
0.2
  9
$TRACEWID
 40
0.05
  9
$TEXTSTYLE
  7
STANDARD
  9
$CLAYER
  8
0
  9
$CELTYPE
  6
BYBLOCK
  9
$CECOLOR
 62
   256
  9
$DIMSCALE
 40
1.0
  9
$DIMASZ
 40
0.18
  9
$DIMEXO
 40
0.0625
  9
$DIMDLI
 40
0.38
  9
$DIMRND
 40
0.0
  9
$DIMDLE
 40
0.0
  9
$DIMEXE
 40
0.18
  9
$DIMTP
 40
0.0
  9
$DIMTM
 40
0.0
  9
$DIMTXT
 40
0.18
  9
$DIMCEN
 40
0.09
  9
$DIMTSZ
 40
0.0
  9
$DIMTOL
 70
     0
  9
$DIMLIM
 70
     0
  9
$DIMTIH
 70
     1
  9
$DIMTOH
 70
     1
  9
$DIMSE1
 70
     0
  9
$DIMSE2
 70
     0
  9
$DIMTAD
 70
     0
  9
$DIMZIN
 70
     0
  9
$DIMBLK
  1

  9
$DIMASO
 70
     1
  9
$DIMSHO
 70
     1
  9
$DIMPOST
  1

  9
$DIMAPOST
  1

  9
$DIMALT
 70
     0
  9
$DIMALTD
 70
     2
  9
$DIMALTF
 40
25.4
  9
$DIMLFAC
 40
1.0
  9
$DIMTOFL
 70
     0
  9
$DIMTVP
 40
0.0
  9
$DIMTIX
 70
     0
  9
$DIMSOXD
 70
     0
  9
$DIMSAH
 70
     0
  9
$DIMBLK1
  1

  9
$DIMBLK2
  1

  9
$DIMSTYLE
  2
STANDARD
  9
$DIMCLRD
 70
     0
  9
$DIMCLRE
 70
     0
  9
$DIMCLRT
 70
     0
  9
$DIMTFAC
 40
1.0
  9
$DIMGAP
 40
0.09
  9
$LUNITS
 70
     2
  9
$LUPREC
 70
     4
  9
$SKETCHINC
 40
0.1
  9
$FILLETRAD
 40
0.5
  9
$AUNITS
 70
     0
  9
$AUPREC
 70
     0
  9
$MENU
  1
.
  9
$ELEVATION
 40
0.0
  9
$PELEVATION
 40
0.0
  9
$THICKNESS
 40
0.0
  9
$LIMCHECK
 70
     0
  9
$CHAMFERA
 40
0.5
  9
$CHAMFERB
 40
0.5
  9
$SKPOLY
 70
     0
  9
$TDCREATE
 40
2453619.496189965
  9
$TDUPDATE
 40
2453619.496189977
  9
$TDINDWG
 40
0.0000000116
  9
$TDUSRTIMER
 40
0.0000000116
  9
$USRTIMER
 70
     1
  9
$ANGBASE
 50
0.0
  9
$ANGDIR
 70
     0
  9
$PDMODE
 70
     0
  9
$PDSIZE
 40
0.0
  9
$PLINEWID
 40
0.0
  9
$COORDS
 70
     1
  9
$SPLFRAME
 70
     0
  9
$SPLINETYPE
 70
     6
  9
$SPLINESEGS
 70
     8
  9
$ATTDIA
 70
     0
  9
$ATTREQ
 70
     1
  9
$HANDLING
 70
     1
  9
$HANDSEED
  5
53A
  9
$SURFTAB1
 70
     6
  9
$SURFTAB2
 70
     6
  9
$SURFTYPE
 70
     6
  9
$SURFU
 70
     6
  9
$SURFV
 70
     6
  9
$UCSNAME
  2

  9
$UCSORG
 10
0.0
 20
0.0
 30
0.0
  9
$UCSXDIR
 10
1.0
 20
0.0
 30
0.0
  9
$UCSYDIR
 10
0.0
 20
1.0
 30
0.0
  9
$PUCSNAME
  2

  9
$PUCSORG
 10
0.0
 20
0.0
 30
0.0
  9
$PUCSXDIR
 10
1.0
 20
0.0
 30
0.0
  9
$PUCSYDIR
 10
0.0
 20
1.0
 30
0.0
  9
$USERI1
 70
     0
  9
$USERI2
 70
     0
  9
$USERI3
 70
     0
  9
$USERI4
 70
     0
  9
$USERI5
 70
     0
  9
$USERR1
 40
0.0
  9
$USERR2
 40
0.0
  9
$USERR3
 40
0.0
  9
$USERR4
 40
0.0
  9
$USERR5
 40
0.0
  9
$WORLDVIEW
 70
     1
  9
$SHADEDGE
 70
     3
  9
$SHADEDIF
 70
    70
  9
$TILEMODE
 70
     1
  9
$MAXACTVP
 70
    64
  9
$PLIMCHECK
 70
     0
  9
$PEXTMIN
 10
1.000000000000000E+20
 20
1.000000000000000E+20
 30
1.000000000000000E+20
  9
$PEXTMAX
 10
-1.000000000000000E+20
 20
-1.000000000000000E+20
 30
-1.000000000000000E+20
  9
$PLIMMIN
 10
0.0
 20
0.0
  9
$PLIMMAX
 10
12.0
 20
9.0
  9
$UNITMODE
 70
     0
  9
$VISRETAIN
 70
     1
  9
$PLINEGEN
 70
     0
  9
$PSLTSCALE
 70
     1
  0
ENDSEC
  0
SECTION
  2
TABLES
  0
TABLE
  2
VPORT
 70
     1
  0
VPORT
  2
*ACTIVE
 70
     0
 10
0.0
 20
0.0
 11
1.0
 21
1.0
 12
10.42990654205607
 22
4.5
 13
0.0
 23
0.0
 14
0.5
 24
0.5
 15
0.5
 25
0.5
 16
0.0
 26
0.0
 36
1.0
 17
0.0
 27
0.0
 37
0.0
 40
9.0
 41
1.972972972850329
 42
50.0
 43
0.0
 44
0.0
 50
0.0
 51
0.0
 71
     0
 72
   100
 73
     1
 74
     3
 75
     0
 76
     0
 77
     0
 78
     0
  0
ENDTAB
  0
TABLE
  2
LTYPE
 70
     9
  0
LTYPE
  2
CONTINUOUS
 70
     0
  3
Solid Line
 72
    65
 73
     0
 40
0.0
  0
LTYPE
  2
MCDASH1
 70
     0
  3
MiniCad+ Generated
 72
    65
 73
     6
 40
8.740551
 49
2.497134
 49
-1.248761
 49
2.497134
 49
-1.248761
 49
0.000388
 49
-1.248373
  0
LTYPE
  2
MCDASH2
 70
     0
  3
MiniCad+ Generated
 72
    65
 73
     4
 40
9.989699999999999
 49
6.243417
 49
-1.248761
 49
1.248761
 49
-1.248761
  0
LTYPE
  2
MCDASH3
 70
     0
  3
MiniCad+ Generated
 72
    65
 73
     4
 40
4.994656
 49
2.497134
 49
-1.248761
 49
0.000388
 49
-1.248373
  0
LTYPE
  2
MCDASH4
 70
     0
  3
MiniCad+ Generated
 72
    65
 73
     2
 40
3.745895
 49
2.497134
 49
-1.248761
  0
LTYPE
  2
MCDASH5
 70
     0
  3
MiniCad+ Generated
 72
    65
 73
     6
 40
6.243417
 49
2.497134
 49
-1.248761
 49
0.000388
 49
-1.248373
 49
0.000388
 49
-1.248373
  0
LTYPE
  2
MCDASH6
 70
     0
  3
MiniCad+ Generated
 72
    65
 73
     4
 40
2.497522
 49
0.000388
 49
-1.248373
 49
0.000388
 49
-1.248373
  0
LTYPE
  2
MCDASH7
 70
     0
  3
MiniCad+ Generated
 72
    65
 73
     2
 40
1.873141
 49
1.248761
 49
-0.6243800000000001
  0
LTYPE
  2
MCDASH8
 70
     0
  3
MiniCad+ Generated
 72
    65
 73
     6
 40
12.487222
 49
6.243417
 49
-1.248761
 49
1.248761
 49
-1.248761
 49
1.248761
 49
-1.248761
  0
ENDTAB
  0
TABLE
  2
LAYER
 70
     2
  0
LAYER
  2
0
 70
     0
 62
     7
  6
CONTINUOUS
  0
LAYER
  2
1
 70
     0
 62
     7
  6
CONTINUOUS
  0
ENDTAB
  0
TABLE
  2
STYLE
 70
     1
  0
STYLE
  2
STANDARD
 70
     0
 40
0.0
 41
1.0
 50
0.0
 71
     0
 42
0.2
  3
txt
  4

  0
ENDTAB
  0
TABLE
  2
VIEW
 70
     0
  0
ENDTAB
  0
TABLE
  2
UCS
 70
     0
  0
ENDTAB
  0
TABLE
  2
APPID
 70
     1
  0
APPID
  2
ACAD
 70
     0
  0
ENDTAB
  0
TABLE
  2
DIMSTYLE
 70
     1
  0
DIMSTYLE
  2
STANDARD
 70
     0
  3

  4

  5

  6

  7

 40
1.0
 41
0.18
 42
0.0625
 43
0.38
 44
0.18
 45
0.0
 46
0.0
 47
0.0
 48
0.0
140
0.18
141
0.09
142
0.0
143
25.4
144
1.0
145
0.0
146
1.0
147
0.09
 71
     0
 72
     0
 73
     1
 74
     1
 75
     0
 76
     0
 77
     0
 78
     0
170
     0
171
     2
172
     0
173
     0
174
     0
175
     0
176
     0
177
     0
178
     0
  0
ENDTAB
  0
ENDSEC
  0
SECTION
  2
BLOCKS
  0
BLOCK
  8
0
  2
$MODEL_SPACE
 70
     0
 10
0.0
 20
0.0
 30
0.0
  3
$MODEL_SPACE
  1

  0
ENDBLK
  5
535
  8
0
  0
BLOCK
 67
     1
  8
0
  2
$PAPER_SPACE
 70
     0
 10
0.0
 20
0.0
 30
0.0
  3
$PAPER_SPACE
  1

  0
ENDBLK
  5
533
 67
     1
  8
0
  0
BLOCK
  8
0
  2
$ARROW1$
 70
     0
 10
0.0
 20
0.0
 30
0.0
  3
$ARROW1$
  1

  0
POLYLINE
  5
2E
  8
0
 66
     1
 10
0.0
 20
0.0
 30
0.0
 70
     1
  0
VERTEX
  5
2A9
  8
0
 10
-25.4
 20
4.318
 30
0.0
  0
VERTEX
  5
2AA
  8
0
 10
-25.4
 20
-4.318
 30
0.0
  0
VERTEX
  5
2AB
  8
0
 10
0.0
 20
0.0
 30
0.0
  0
SEQEND
  5
4CA
  8
0
  0
ENDBLK
  5
4CC
  8
0
  0
BLOCK
  8
0
  2
$ARROW2$
 70
     0
 10
0.0
 20
0.0
 30
0.0
  3
$ARROW2$
  1

  0
POLYLINE
  5
36
  8
0
 66
     1
 10
0.0
 20
0.0
 30
0.0
 70
     1
  0
VERTEX
  5
2AD
  8
0
 10
-25.4
 20
12.7
 30
0.0
  0
VERTEX
  5
2AE
  8
0
 10
-25.4
 20
-12.7
 30
0.0
  0
VERTEX
  5
2AF
  8
0
 10
0.0
 20
0.0
 30
0.0
  0
SEQEND
  5
4CD
  8
0
  0
ENDBLK
  5
4CF
  8
0
  0
BLOCK
  8
0
  2
$ARROW3$
 70
     0
 10
0.0
 20
0.0
 30
0.0
  3
$ARROW3$
  1

  0
POLYLINE
  5
3E
  8
0
 66
     1
 10
0.0
 20
0.0
 30
0.0
 70
     1
 40
0.4572
 41
0.4572
  0
VERTEX
  5
2B1
  8
0
 10
-6.35
 20
0.0
 30
0.0
  0
VERTEX
  5
2B2
  8
0
 10
-6.2535
 20
-1.10284
 30
0.0
  0
VERTEX
  5
2B3
  8
0
 10
-5.96699
 20
-2.17198
 30
0.0
  0
VERTEX
  5
2B4
  8
0
 10
-5.49919
 20
-3.17512
 30
0.0
  0
VERTEX
  5
2B5
  8
0
 10
-4.86431
 20
-4.08179
 30
0.0
  0
VERTEX
  5
2B6
  8
0
 10
-4.08164
 20
-4.86443
 30
0.0
  0
VERTEX
  5
2B7
  8
0
 10
-3.17496
 20
-5.49929
 30
0.0
  0
VERTEX
  5
2B8
  8
0
 10
-2.17179
 20
-5.96706
 30
0.0
  0
VERTEX
  5
2B9
  8
0
 10
-1.10264
 20
-6.25353
 30
0.0
  0
VERTEX
  5
2BA
  8
0
 10
0.0001
 20
-6.35
 30
0.0
  0
VERTEX
  5
2BB
  8
0
 10
0.0
 20
-6.35
 30
0.0
  0
VERTEX
  5
2BC
  8
0
 10
1.10274
 20
-6.25352
 30
0.0
  0
VERTEX
  5
2BD
  8
0
 10
2.17188
 20
-5.96703
 30
0.0
  0
VERTEX
  5
2BE
  8
0
 10
3.17504
 20
-5.49924
 30
0.0
  0
VERTEX
  5
2BF
  8
0
 10
4.08172
 20
-4.86437
 30
0.0
  0
VERTEX
  5
2C0
  8
0
 10
4.86443
 20
-4.08164
 30
0.0
  0
VERTEX
  5
2C1
  8
0
 10
5.49929
 20
-3.17496
 30
0.0
  0
VERTEX
  5
2C2
  8
0
 10
5.96706
 20
-2.17179
 30
0.0
  0
VERTEX
  5
2C3
  8
0
 10
6.25353
 20
-1.10264
 30
0.0
  0
VERTEX
  5
2C4
  8
0
 10
6.35
 20
0.0
 30
0.0
  0
VERTEX
  5
2C5
  8
0
 10
6.25353
 20
1.10264
 30
0.0
  0
VERTEX
  5
2C6
  8
0
 10
5.96703
 20
2.17188
 30
0.0
  0
VERTEX
  5
2C7
  8
0
 10
5.49924
 20
3.17504
 30
0.0
  0
VERTEX
  5
2C8
  8
0
 10
4.86437
 20
4.08172
 30
0.0
  0
VERTEX
  5
2C9
  8
0
 10
4.08172
 20
4.86437
 30
0.0
  0
VERTEX
  5
2CA
  8
0
 10
3.17504
 20
5.49924
 30
0.0
  0
VERTEX
  5
2CB
  8
0
 10
2.17179
 20
5.96706
 30
0.0
  0
VERTEX
  5
2CC
  8
0
 10
1.10264
 20
6.25353
 30
0.0
  0
VERTEX
  5
2CD
  8
0
 10
0.0
 20
6.35
 30
0.0
  0
VERTEX
  5
2CE
  8
0
 10
-1.10264
 20
6.25353
 30
0.0
  0
VERTEX
  5
2CF
  8
0
 10
-2.17188
 20
5.96703
 30
0.0
  0
VERTEX
  5
2D0
  8
0
 10
-3.17504
 20
5.49924
 30
0.0
  0
VERTEX
  5
2D1
  8
0
 10
-4.08172
 20
4.86437
 30
0.0
  0
VERTEX
  5
2D2
  8
0
 10
-4.86437
 20
4.08172
 30
0.0
  0
VERTEX
  5
2D3
  8
0
 10
-5.49929
 20
3.17496
 30
0.0
  0
VERTEX
  5
2D4
  8
0
 10
-5.96706
 20
2.17179
 30
0.0
  0
VERTEX
  5
2D5
  8
0
 10
-6.25353
 20
1.10264
 30
0.0
  0
VERTEX
  5
2D6
  8
0
 10
-6.35
 20
0.0
 30
0.0
  0
SEQEND
  5
4D0
  8
0
  0
ENDBLK
  5
4D2
  8
0
  0
BLOCK
  8
0
  2
$ARROW4$
 70
     0
 10
0.0
 20
0.0
 30
0.0
  3
$ARROW4$
  1

  0
LINE
  5
69
  8
0
 10
12.7
 20
12.7
 30
0.0
 11
-12.7
 21
-12.7
 31
0.0
  0
ENDBLK
  5
4D4
  8
0
  0
BLOCK
  8
0
  2
$ARROW5$
 70
     0
 10
0.0
 20
0.0
 30
0.0
  3
$ARROW5$
  1

  0
LINE
  5
6D
  8
0
 10
12.7
 20
12.7
 30
0.0
 11
-12.7
 21
-12.7
 31
0.0
  0
LINE
  5
6E
  8
0
 10
-12.7
 20
12.7
 30
0.0
 11
12.7
 21
-12.7
 31
0.0
  0
ENDBLK
  5
4D6
  8
0
  0
BLOCK
  8
0
  2
SIMBOLO_N__1
 70
     0
 10
0.0
 20
0.0
 30
0.0
  3
SIMBOLO_N__1
  1

  0
POLYLINE
  5
72
  8
0
 62
     3
 66
     1
 10
0.0
 20
0.0
 30
0.0
 40
0.5715
 41
0.5715
  0
VERTEX
  5
2D8
  8
0
 62
     3
 10
199.64487
 20
101.16079
 30
0.0
  0
VERTEX
  5
2D9
  8
0
 62
     3
 10
185.83757
 20
124.94331
 30
0.0
  0
SEQEND
  5
4D7
  8
0
 62
     3
  0
POLYLINE
  5
76
  8
0
 62
     3
 66
     1
 10
0.0
 20
0.0
 30
0.0
 40
0.5715
 41
0.5715
  0
VERTEX
  5
2DB
  8
0
 62
     3
 10
5.17231
 20
-10.00875
 30
0.0
  0
VERTEX
  5
2DC
  8
0
 62
     3
 10
-5.27892
 20
7.99306
 30
0.0
  0
SEQEND
  5
4D8
  8
0
 62
     3
  0
POLYLINE
  5
7A
  8
0
 62
     3
 66
     1
 10
0.0
 20
0.0
 30
0.0
 40
0.5715
 41
0.5715
  0
VERTEX
  5
2DE
  8
0
 62
     3
 10
-188.29491
 20
122.59743
 30
0.0
  0
VERTEX
  5
2DF
  8
0
 62
     3
 10
-201.98753
 20
98.74869
 30
0.0
  0
SEQEND
  5
4D9
  8
0
 62
     3
  0
POLYLINE
  5
7E
  8
0
 62
     3
 66
     1
 10
0.0
 20
0.0
 30
0.0
 40
1.0287
 41
1.0287
  0
VERTEX
  5
2E1
  8
0
 62
     3
 10
-30.12803
 20
-27.01569
 30
0.0
  0
VERTEX
  5
2E2
  8
0
 62
     3
 10
-28.47411
 20
-29.21419
 30
0.0
  0
VERTEX
  5
2E3
  8
0
 62
     3
 10
-27.25183
 20
-31.67644
 30
0.0
  0
VERTEX
  5
2E4
  8
0
 62
     3
 10
-26.50134
 20
-34.3215
 30
0.0
  0
VERTEX
  5
2E5
  8
0
 62
     3
 10
-26.24815
 20
-37.0632
 30
0.0
  0
SEQEND
  5
4DA
  8
0
 62
     3
  0
POLYLINE
  5
85
  8
0
 62
     3
 66
     1
 10
0.0
 20
0.0
 30
0.0
 40
1.0287
 41
1.0287
  0
VERTEX
  5
2E7
  8
0
 62
     3
 10
-45.36469
 20
-4.13574
 30
0.0
  0
VERTEX
  5
2E8
  8
0
 62
     3
 10
-43.10926
 20
-5.71502
 30
0.0
  0
VERTEX
  5
2E9
  8
0
 62
     3
 10
-41.18435
 20
-7.67824
 30
0.0
  0
VERTEX
  5
2EA
  8
0
 62
     3
 10
-39.65216
 20
-9.960459999999999
 30
0.0
  0
VERTEX
  5
2EB
  8
0
 62
     3
 10
-38.56293
 20
-12.48691
 30
0.0
  0
SEQEND
  5
4DB
  8
0
 62
     3
  0
POLYLINE
  5
8C
  8
0
 62
     3
 66
     1
 10
0.0
 20
0.0
 30
0.0
 40
1.0287
 41
1.0287
  0
VERTEX
  5
2ED
  8
0
 62
     3
 10
18.37965
 20
40.66612
 30
0.0
  0
VERTEX
  5
2EE
  8
0
 62
     3
 10
15.88429
 20
39.50243
 30
0.0
  0
VERTEX
  5
2EF
  8
0
 62
     3
 10
13.22155
 20
38.81707
 30
0.0
  0
VERTEX
  5
2F0
  8
0
 62
     3
 10
10.479
 20
38.63126
 30
0.0
  0
VERTEX
  5
2F1
  8
0
 62
     3
 10
7.74645
 20
38.95125
 30
0.0
  0
SEQEND
  5
4DC
  8
0
 62
     3
  0
POLYLINE
  5
93
  8
0
 62
     3
 66
     1
 10
0.0
 20
0.0
 30
0.0
 40
1.0287
 41
1.0287
  0
VERTEX
  5
2F3
  8
0
 62
     3
 10
25.30698
 20
-36.93902
 30
0.0
  0
VERTEX
  5
2F4
  8
0
 62
     3
 10
25.54696
 20
-34.19614
 30
0.0
  0
VERTEX
  5
2F5
  8
0
 62
     3
 10
26.28474
 20
-31.54747
 30
0.0
  0
VERTEX
  5
2F6
  8
0
 62
     3
 10
27.4951
 20
-29.07944
 30
0.0
  0
VERTEX
  5
2F7
  8
0
 62
     3
 10
29.13855
 20
-26.87302
 30
0.0
  0
SEQEND
  5
4DD
  8
0
 62
     3
  0
POLYLINE
  5
9A
  8
0
 62
     3
 66
     1
 10
0.0
 20
0.0
 30
0.0
 40
1.0287
 41
1.0287
  0
VERTEX
  5
2F9
  8
0
 62
     3
 10
-9.05325
 20
38.91082
 30
0.0
  0
VERTEX
  5
2FA
  8
0
 62
     3
 10
-11.78422
 20
38.5776
 30
0.0
  0
VERTEX
  5
2FB
  8
0
 62
     3
 10
-14.52769
 20
38.75029
 30
0.0
  0
VERTEX
  5
2FC
  8
0
 62
     3
 10
-17.19362
 20
39.42278
 30
0.0
  0
VERTEX
  5
2FD
  8
0
 62
     3
 10
-19.69465
 20
40.57445
 30
0.0
  0
SEQEND
  5
4DE
  8
0
 62
     3
  0
POLYLINE
  5
A1
  8
0
 62
     3
 66
     1
 10
0.0
 20
0.0
 30
0.0
 40
1.0287
 41
1.0287
  0
VERTEX
  5
2FF
  8
0
 62
     3
 10
37.50335
 20
-12.30381
 30
0.0
  0
VERTEX
  5
300
  8
0
 62
     3
 10
38.58034
 20
-9.77214
 30
0.0
  0
VERTEX
  5
301
  8
0
 62
     3
 10
40.10151
 20
-7.48257
 30
0.0
  0
VERTEX
  5
302
  8
0
 62
     3
 10
42.01695
 20
-5.51001
 30
0.0
  0
VERTEX
  5
303
  8
0
 62
     3
 10
44.26479
 20
-3.91996
 30
0.0
  0
SEQEND
  5
4DF
  8
0
 62
     3
  0
POLYLINE
  5
A8
  8
0
 62
     3
 66
     1
 10
0.0
 20
0.0
 30
0.0
 40
1.0287
 41
1.0287
  0
VERTEX
  5
305
  8
0
 62
     3
 10
-30.12803
 20
-27.01569
 30
0.0
  0
VERTEX
  5
306
  8
0
 62
     3
 10
-28.47411
 20
-29.21419
 30
0.0
  0
VERTEX
  5
307
  8
0
 62
     3
 10
-27.25183
 20
-31.67644
 30
0.0
  0
VERTEX
  5
308
  8
0
 62
     3
 10
-26.50134
 20
-34.3215
 30
0.0
  0
VERTEX
  5
309
  8
0
 62
     3
 10
-26.24815
 20
-37.0632
 30
0.0
  0
SEQEND
  5
4E0
  8
0
 62
     3
  0
POLYLINE
  5
AF
  8
0
 62
     3
 66
     1
 10
0.0
 20
0.0
 30
0.0
 40
1.0287
 41
1.0287
  0
VERTEX
  5
30B
  8
0
 62
     3
 10
-45.36469
 20
-4.13574
 30
0.0
  0
VERTEX
  5
30C
  8
0
 62
     3
 10
-43.10926
 20
-5.71502
 30
0.0
  0
VERTEX
  5
30D
  8
0
 62
     3
 10
-41.18435
 20
-7.67824
 30
0.0
  0
VERTEX
  5
30E
  8
0
 62
     3
 10
-39.65216
 20
-9.960459999999999
 30
0.0
  0
VERTEX
  5
30F
  8
0
 62
     3
 10
-38.56293
 20
-12.48691
 30
0.0
  0
SEQEND
  5
4E1
  8
0
 62
     3
  0
POLYLINE
  5
B6
  8
0
 62
     3
 66
     1
 10
0.0
 20
0.0
 30
0.0
 40
1.0287
 41
1.0287
  0
VERTEX
  5
311
  8
0
 62
     3
 10
18.37965
 20
40.66612
 30
0.0
  0
VERTEX
  5
312
  8
0
 62
     3
 10
15.88429
 20
39.50243
 30
0.0
  0
VERTEX
  5
313
  8
0
 62
     3
 10
13.22155
 20
38.81707
 30
0.0
  0
VERTEX
  5
314
  8
0
 62
     3
 10
10.479
 20
38.63126
 30
0.0
  0
VERTEX
  5
315
  8
0
 62
     3
 10
7.74645
 20
38.95125
 30
0.0
  0
SEQEND
  5
4E2
  8
0
 62
     3
  0
POLYLINE
  5
BD
  8
0
 62
     3
 66
     1
 10
0.0
 20
0.0
 30
0.0
 40
1.0287
 41
1.0287
  0
VERTEX
  5
317
  8
0
 62
     3
 10
25.30698
 20
-36.93902
 30
0.0
  0
VERTEX
  5
318
  8
0
 62
     3
 10
25.54696
 20
-34.19614
 30
0.0
  0
VERTEX
  5
319
  8
0
 62
     3
 10
26.28474
 20
-31.54747
 30
0.0
  0
VERTEX
  5
31A
  8
0
 62
     3
 10
27.4951
 20
-29.07944
 30
0.0
  0
VERTEX
  5
31B
  8
0
 62
     3
 10
29.13855
 20
-26.87302
 30
0.0
  0
SEQEND
  5
4E3
  8
0
 62
     3
  0
POLYLINE
  5
C4
  8
0
 62
     3
 66
     1
 10
0.0
 20
0.0
 30
0.0
 40
1.0287
 41
1.0287
  0
VERTEX
  5
31D
  8
0
 62
     3
 10
-9.05325
 20
38.91082
 30
0.0
  0
VERTEX
  5
31E
  8
0
 62
     3
 10
-11.78422
 20
38.5776
 30
0.0
  0
VERTEX
  5
31F
  8
0
 62
     3
 10
-14.52769
 20
38.75029
 30
0.0
  0
VERTEX
  5
320
  8
0
 62
     3
 10
-17.19362
 20
39.42278
 30
0.0
  0
VERTEX
  5
321
  8
0
 62
     3
 10
-19.69465
 20
40.57445
 30
0.0
  0
SEQEND
  5
4E4
  8
0
 62
     3
  0
POLYLINE
  5
CB
  8
0
 62
     3
 66
     1
 10
0.0
 20
0.0
 30
0.0
 40
1.0287
 41
1.0287
  0
VERTEX
  5
323
  8
0
 62
     3
 10
37.50335
 20
-12.30381
 30
0.0
  0
VERTEX
  5
324
  8
0
 62
     3
 10
38.58034
 20
-9.77214
 30
0.0
  0
VERTEX
  5
325
  8
0
 62
     3
 10
40.10151
 20
-7.48257
 30
0.0
  0
VERTEX
  5
326
  8
0
 62
     3
 10
42.01695
 20
-5.51001
 30
0.0
  0
VERTEX
  5
327
  8
0
 62
     3
 10
44.26479
 20
-3.91996
 30
0.0
  0
SEQEND
  5
4E5
  8
0
 62
     3
  0
POLYLINE
  5
D2
  8
0
 62
     3
 66
     1
 10
0.0
 20
0.0
 30
0.0
 40
1.0287
 41
1.0287
  0
VERTEX
  5
329
  8
0
 62
     3
 10
18.37965
 20
40.66612
 30
0.0
  0
VERTEX
  5
32A
  8
0
 62
     3
 10
19.35911
 20
41.23823
 30
0.0
  0
SEQEND
  5
4E6
  8
0
 62
     3
  0
POLYLINE
  5
D6
  8
0
 62
     3
 66
     1
 10
0.0
 20
0.0
 30
0.0
 40
1.0287
 41
1.0287
  0
VERTEX
  5
32C
  8
0
 62
     3
 10
18.37965
 20
40.66612
 30
0.0
  0
VERTEX
  5
32D
  8
0
 62
     3
 10
19.43425
 20
41.28208
 30
0.0
  0
SEQEND
  5
4E7
  8
0
 62
     3
  0
POLYLINE
  5
DA
  8
0
 62
     3
 66
     1
 10
0.0
 20
0.0
 30
0.0
 40
1.0287
 41
1.0287
  0
VERTEX
  5
32F
  8
0
 62
     3
 10
-30.1575
 20
-27.0424
 30
0.0
  0
VERTEX
  5
330
  8
0
 62
     3
 10
-33.64914
 20
-22.6098
 30
0.0
  0
VERTEX
  5
331
  8
0
 62
     3
 10
-36.48239
 20
-17.72985
 30
0.0
  0
VERTEX
  5
332
  8
0
 62
     3
 10
-38.60084
 20
-12.49909
 30
0.0
  0
SEQEND
  5
4E8
  8
0
 62
     3
  0
POLYLINE
  5
E0
  8
0
 62
     3
 66
     1
 10
0.0
 20
0.0
 30
0.0
 40
1.0287
 41
1.0287
  0
VERTEX
  5
334
  8
0
 62
     3
 10
37.54121
 20
-12.31582
 30
0.0
  0
VERTEX
  5
335
  8
0
 62
     3
 10
35.44843
 20
-17.55583
 30
0.0
  0
VERTEX
  5
336
  8
0
 62
     3
 10
32.63849
 20
-22.45006
 30
0.0
  0
VERTEX
  5
337
  8
0
 62
     3
 10
29.16796
 20
-26.89977
 30
0.0
  0
SEQEND
  5
4E9
  8
0
 62
     3
  0
POLYLINE
  5
E6
  8
0
 62
     3
 66
     1
 10
0.0
 20
0.0
 30
0.0
 40
1.0287
 41
1.0287
  0
VERTEX
  5
339
  8
0
 62
     3
 10
-9.06176
 20
38.94959
 30
0.0
  0
VERTEX
  5
33A
  8
0
 62
     3
 10
-3.47691
 20
39.75724
 30
0.0
  0
VERTEX
  5
33B
  8
0
 62
     3
 10
2.16601
 20
39.77078
 30
0.0
  0
VERTEX
  5
33C
  8
0
 62
     3
 10
7.75487
 20
38.99013
 30
0.0
  0
SEQEND
  5
4EA
  8
0
 62
     3
  0
POLYLINE
  5
EC
  8
0
 62
     3
 66
     1
 10
0.0
 20
0.0
 30
0.0
 40
1.0287
 41
1.0287
  0
VERTEX
  5
33E
  8
0
 62
     3
 10
-30.1575
 20
-27.0424
 30
0.0
  0
VERTEX
  5
33F
  8
0
 62
     3
 10
-33.64914
 20
-22.6098
 30
0.0
  0
VERTEX
  5
340
  8
0
 62
     3
 10
-36.48239
 20
-17.72985
 30
0.0
  0
VERTEX
  5
341
  8
0
 62
     3
 10
-38.60084
 20
-12.49909
 30
0.0
  0
SEQEND
  5
4EB
  8
0
 62
     3
  0
POLYLINE
  5
F2
  8
0
 62
     3
 66
     1
 10
0.0
 20
0.0
 30
0.0
 40
1.0287
 41
1.0287
  0
VERTEX
  5
343
  8
0
 62
     3
 10
37.54121
 20
-12.31582
 30
0.0
  0
VERTEX
  5
344
  8
0
 62
     3
 10
35.44843
 20
-17.55583
 30
0.0
  0
VERTEX
  5
345
  8
0
 62
     3
 10
32.63849
 20
-22.45006
 30
0.0
  0
VERTEX
  5
346
  8
0
 62
     3
 10
29.16796
 20
-26.89977
 30
0.0
  0
SEQEND
  5
4EC
  8
0
 62
     3
  0
POLYLINE
  5
F8
  8
0
 62
     3
 66
     1
 10
0.0
 20
0.0
 30
0.0
 40
1.0287
 41
1.0287
  0
VERTEX
  5
348
  8
0
 62
     3
 10
-9.06176
 20
38.94959
 30
0.0
  0
VERTEX
  5
349
  8
0
 62
     3
 10
-3.47691
 20
39.75724
 30
0.0
  0
VERTEX
  5
34A
  8
0
 62
     3
 10
2.16601
 20
39.77078
 30
0.0
  0
VERTEX
  5
34B
  8
0
 62
     3
 10
7.75487
 20
38.99013
 30
0.0
  0
SEQEND
  5
4ED
  8
0
 62
     3
  0
POLYLINE
  5
FE
  8
0
 62
     3
 66
     1
 10
0.0
 20
0.0
 30
0.0
 40
1.0287
 41
1.0287
  0
VERTEX
  5
34D
  8
0
 62
     3
 10
-205.23192
 20
93.16041
 30
0.0
  0
VERTEX
  5
34E
  8
0
 62
     3
 10
-208.24011
 20
95.24539
 30
0.0
  0
VERTEX
  5
34F
  8
0
 62
     3
 10
-210.8407
 20
97.82152000000001
 30
0.0
  0
VERTEX
  5
350
  8
0
 62
     3
 10
-212.95466
 20
100.81026
 30
0.0
  0
VERTEX
  5
351
  8
0
 62
     3
 10
-214.51733
 20
104.12032
 30
0.0
  0
VERTEX
  5
352
  8
0
 62
     3
 10
-215.48155
 20
107.65156
 30
0.0
  0
VERTEX
  5
353
  8
0
 62
     3
 10
-215.81794
 20
111.2966
 30
0.0
  0
VERTEX
  5
354
  8
0
 62
     3
 10
-215.51622
 20
114.94452
 30
0.0
  0
VERTEX
  5
355
  8
0
 62
     3
 10
-214.58553
 20
118.48501
 30
0.0
  0
VERTEX
  5
356
  8
0
 62
     3
 10
-213.05439
 20
121.80983
 30
0.0
  0
VERTEX
  5
357
  8
0
 62
     3
 10
-210.96911
 20
124.81831
 30
0.0
  0
VERTEX
  5
358
  8
0
 62
     3
 10
-208.39297
 20
127.41889
 30
0.0
  0
VERTEX
  5
359
  8
0
 62
     3
 10
-205.40449
 20
129.5327
 30
0.0
  0
VERTEX
  5
35A
  8
0
 62
     3
 10
-202.09417
 20
131.09553
 30
0.0
  0
VERTEX
  5
35B
  8
0
 62
     3
 10
-198.56294
 20
132.05975
 30
0.0
  0
VERTEX
  5
35C
  8
0
 62
     3
 10
-194.91789
 20
132.39614
 30
0.0
  0
VERTEX
  5
35D
  8
0
 62
     3
 10
-191.26997
 20
132.09441
 30
0.0
  0
VERTEX
  5
35E
  8
0
 62
     3
 10
-187.7298
 20
131.16389
 30
0.0
  0
VERTEX
  5
35F
  8
0
 62
     3
 10
-184.40438
 20
129.63229
 30
0.0
  0
SEQEND
  5
4EE
  8
0
 62
     3
  0
POLYLINE
  5
113
  8
0
 62
     3
 66
     1
 10
0.0
 20
0.0
 30
0.0
 40
1.0287
 41
1.0287
  0
VERTEX
  5
361
  8
0
 62
     3
 10
182.61635
 20
130.49173
 30
0.0
  0
VERTEX
  5
362
  8
0
 62
     3
 10
185.93008
 20
132.0467
 30
0.0
  0
VERTEX
  5
363
  8
0
 62
     3
 10
189.46358
 20
133.00264
 30
0.0
  0
VERTEX
  5
364
  8
0
 62
     3
 10
193.10965
 20
133.33049
 30
0.0
  0
VERTEX
  5
365
  8
0
 62
     3
 10
196.75699
 20
133.02022
 30
0.0
  0
VERTEX
  5
366
  8
0
 62
     3
 10
200.29494
 20
132.08136
 30
0.0
  0
VERTEX
  5
367
  8
0
 62
     3
 10
203.61621
 20
130.54237
 30
0.0
  0
VERTEX
  5
368
  8
0
 62
     3
 10
206.61998
 20
128.44985
 30
0.0
  0
VERTEX
  5
369
  8
0
 62
     3
 10
209.21458
 20
125.86769
 30
0.0
  0
VERTEX
  5
36A
  8
0
 62
     3
 10
211.32131
 20
122.87429
 30
0.0
  0
VERTEX
  5
36B
  8
0
 62
     3
 10
212.87628
 20
119.56057
 30
0.0
  0
VERTEX
  5
36C
  8
0
 62
     3
 10
213.83222
 20
116.02707
 30
0.0
  0
VERTEX
  5
36D
  8
0
 62
     3
 10
214.16007
 20
112.38099
 30
0.0
  0
VERTEX
  5
36E
  8
0
 62
     3
 10
213.8498
 20
108.73366
 30
0.0
  0
VERTEX
  5
36F
  8
0
 62
     3
 10
212.91093
 20
105.1957
 30
0.0
  0
VERTEX
  5
370
  8
0
 62
     3
 10
211.37195
 20
101.87443
 30
0.0
  0
VERTEX
  5
371
  8
0
 62
     3
 10
209.27942
 20
98.87066
 30
0.0
  0
VERTEX
  5
372
  8
0
 62
     3
 10
206.69728
 20
96.27606
 30
0.0
  0
VERTEX
  5
373
  8
0
 62
     3
 10
203.70374
 20
94.16937
 30
0.0
  0
SEQEND
  5
4EF
  8
0
 62
     3
  0
POLYLINE
  5
128
  8
0
 62
     3
 66
     1
 10
0.0
 20
0.0
 30
0.0
 40
1.0287
 41
1.0287
  0
VERTEX
  5
375
  8
0
 62
     3
 10
57.98634
 20
31.54072
 30
0.0
  0
VERTEX
  5
376
  8
0
 62
     3
 10
22.38925
 20
10.87398
 30
0.0
  0
SEQEND
  5
4F0
  8
0
 62
     3
  0
POLYLINE
  5
12C
  8
0
 62
     3
 66
     1
 10
0.0
 20
0.0
 30
0.0
 40
1.0287
 41
1.0287
  0
VERTEX
  5
378
  8
0
 62
     3
 10
55.978
 20
35.0
 30
0.0
  0
VERTEX
  5
379
  8
0
 62
     3
 10
56.03705
 20
35.69476
 30
0.0
  0
VERTEX
  5
37A
  8
0
 62
     3
 10
56.21588
 20
36.36865
 30
0.0
  0
VERTEX
  5
37B
  8
0
 62
     3
 10
56.50908
 20
37.00128
 30
0.0
  0
VERTEX
  5
37C
  8
0
 62
     3
 10
56.9076
 20
37.57341
 30
0.0
  0
VERTEX
  5
37D
  8
0
 62
     3
 10
57.39948
 20
38.06757
 30
0.0
  0
VERTEX
  5
37E
  8
0
 62
     3
 10
57.96965
 20
38.46891
 30
0.0
  0
VERTEX
  5
37F
  8
0
 62
     3
 10
58.60089
 20
38.76506
 30
0.0
  0
VERTEX
  5
380
  8
0
 62
     3
 10
59.27392
 20
38.94721
 30
0.0
  0
VERTEX
  5
381
  8
0
 62
     3
 10
59.96836
 20
39.00961
 30
0.0
  0
VERTEX
  5
382
  8
0
 62
     3
 10
60.66313
 20
38.95056
 30
0.0
  0
VERTEX
  5
383
  8
0
 62
     3
 10
61.33701
 20
38.77173
 30
0.0
  0
VERTEX
  5
384
  8
0
 62
     3
 10
61.96964
 20
38.47853
 30
0.0
  0
VERTEX
  5
385
  8
0
 62
     3
 10
62.54177
 20
38.08002
 30
0.0
  0
VERTEX
  5
386
  8
0
 62
     3
 10
63.03594
 20
37.58813
 30
0.0
  0
VERTEX
  5
387
  8
0
 62
     3
 10
63.43727
 20
37.01796
 30
0.0
  0
VERTEX
  5
388
  8
0
 62
     3
 10
63.73344
 20
36.38673
 30
0.0
  0
VERTEX
  5
389
  8
0
 62
     3
 10
63.91557
 20
35.7137
 30
0.0
  0
VERTEX
  5
38A
  8
0
 62
     3
 10
63.97798
 20
35.01925
 30
0.0
  0
VERTEX
  5
38B
  8
0
 62
     3
 10
63.91888
 20
34.32457
 30
0.0
  0
VERTEX
  5
38C
  8
0
 62
     3
 10
63.74011
 20
33.6506
 30
0.0
  0
VERTEX
  5
38D
  8
0
 62
     3
 10
63.4469
 20
33.01797
 30
0.0
  0
VERTEX
  5
38E
  8
0
 62
     3
 10
63.04838
 20
32.44585
 30
0.0
  0
VERTEX
  5
38F
  8
0
 62
     3
 10
62.55651
 20
31.95168
 30
0.0
  0
VERTEX
  5
390
  8
0
 62
     3
 10
61.98642
 20
31.5504
 30
0.0
  0
VERTEX
  5
391
  8
0
 62
     3
 10
61.3551
 20
31.25419
 30
0.0
  0
VERTEX
  5
392
  8
0
 62
     3
 10
60.68206
 20
31.07205
 30
0.0
  0
VERTEX
  5
393
  8
0
 62
     3
 10
59.98762
 20
31.00964
 30
0.0
  0
VERTEX
  5
394
  8
0
 62
     3
 10
59.29295
 20
31.06874
 30
0.0
  0
VERTEX
  5
395
  8
0
 62
     3
 10
58.61906
 20
31.24757
 30
0.0
  0
VERTEX
  5
396
  8
0
 62
     3
 10
57.98634
 20
31.54072
 30
0.0
  0
SEQEND
  5
4F1
  8
0
 62
     3
  0
POLYLINE
  5
14D
  8
0
 62
     3
 66
     1
 10
0.0
 20
0.0
 30
0.0
 40
1.0287
 41
1.0287
  0
VERTEX
  5
398
  8
0
 62
     3
 10
-19.69465
 20
40.57445
 30
0.0
  0
VERTEX
  5
399
  8
0
 62
     3
 10
-184.40494
 20
129.63265
 30
0.0
  0
SEQEND
  5
4F2
  8
0
 62
     3
  0
POLYLINE
  5
151
  8
0
 62
     3
 66
     1
 10
0.0
 20
0.0
 30
0.0
 40
1.0287
 41
1.0287
  0
VERTEX
  5
39B
  8
0
 62
     3
 10
-45.36474
 20
-4.13565
 30
0.0
  0
VERTEX
  5
39C
  8
0
 62
     3
 10
-205.23163
 20
93.16011
 30
0.0
  0
SEQEND
  5
4F3
  8
0
 62
     3
  0
POLYLINE
  5
155
  8
0
 62
     3
 66
     1
 10
0.0
 20
0.0
 30
0.0
 40
1.0287
 41
1.0287
  0
VERTEX
  5
39E
  8
0
 62
     3
 10
18.37965
 20
40.66612
 30
0.0
  0
VERTEX
  5
39F
  8
0
 62
     3
 10
182.61635
 20
130.49173
 30
0.0
  0
SEQEND
  5
4F4
  8
0
 62
     3
  0
POLYLINE
  5
159
  8
0
 62
     3
 66
     1
 10
0.0
 20
0.0
 30
0.0
 40
1.0287
 41
1.0287
  0
VERTEX
  5
3A1
  8
0
 62
     3
 10
44.26477
 20
-3.91974
 30
0.0
  0
VERTEX
  5
3A2
  8
0
 62
     3
 10
203.70387
 20
94.16933
 30
0.0
  0
SEQEND
  5
4F5
  8
0
 62
     3
  0
POLYLINE
  5
15D
  8
0
 62
     3
 66
     1
 10
0.0
 20
0.0
 30
0.0
 40
0.5715
 41
0.5715
  0
VERTEX
  5
3A4
  8
0
 62
     3
 10
-10.02625
 20
-5.6324
 30
0.0
  0
VERTEX
  5
3A5
  8
0
 62
     3
 10
8.99977
 20
5.41344
 30
0.0
  0
SEQEND
  5
4F6
  8
0
 62
     3
  0
POLYLINE
  5
161
  8
0
 62
     3
 66
     1
 10
0.0
 20
0.0
 30
0.0
 40
0.5715
 41
0.5715
  0
VERTEX
  5
3A7
  8
0
 62
     3
 10
183.6932
 20
106.83437
 30
0.0
  0
VERTEX
  5
3A8
  8
0
 62
     3
 10
204.44885
 20
118.88438
 30
0.0
  0
SEQEND
  5
4F7
  8
0
 62
     3
  0
POLYLINE
  5
165
  8
0
 62
     3
 66
     1
 10
0.0
 20
0.0
 30
0.0
 40
0.5715
 41
0.5715
  0
VERTEX
  5
3AA
  8
0
 62
     3
 10
-185.23255
 20
105.94604
 30
0.0
  0
VERTEX
  5
3AB
  8
0
 62
     3
 10
-206.04604
 20
117.89604
 30
0.0
  0
SEQEND
  5
4F8
  8
0
 62
     3
  0
POLYLINE
  5
169
  8
0
 62
     3
 66
     1
 10
0.0
 20
0.0
 30
0.0
 40
1.0287
 41
1.0287
  0
VERTEX
  5
3AD
  8
0
 62
     3
 10
35.02634
 20
18.12989
 30
0.0
  0
VERTEX
  5
3AE
  8
0
 62
     3
 10
37.6236
 20
11.78283
 30
0.0
  0
VERTEX
  5
3AF
  8
0
 62
     3
 10
39.0983
 20
5.08584
 30
0.0
  0
VERTEX
  5
3B0
  8
0
 62
     3
 10
39.40752
 20
-1.76524
 30
0.0
  0
VERTEX
  5
3B1
  8
0
 62
     3
 10
38.54183
 20
-8.568350000000001
 30
0.0
  0
VERTEX
  5
3B2
  8
0
 62
     3
 10
36.52705
 20
-15.123
 30
0.0
  0
VERTEX
  5
3B3
  8
0
 62
     3
 10
33.4219
 20
-21.23773
 30
0.0
  0
VERTEX
  5
3B4
  8
0
 62
     3
 10
29.31792
 20
-26.73222
 30
0.0
  0
VERTEX
  5
3B5
  8
0
 62
     3
 10
24.3361
 20
-31.44465
 30
0.0
  0
VERTEX
  5
3B6
  8
0
 62
     3
 10
18.6222
 20
-35.23707
 30
0.0
  0
VERTEX
  5
3B7
  8
0
 62
     3
 10
12.34436
 20
-37.99777
 30
0.0
  0
VERTEX
  5
3B8
  8
0
 62
     3
 10
5.6878
 20
-39.64545
 30
0.0
  0
VERTEX
  5
3B9
  8
0
 62
     3
 10
-1.15294
 20
-40.13183
 30
0.0
  0
VERTEX
  5
3BA
  8
0
 62
     3
 10
-7.97625
 20
-39.44264
 30
0.0
  0
VERTEX
  5
3BB
  8
0
 62
     3
 10
-14.5814
 20
-37.59802
 30
0.0
  0
VERTEX
  5
3BC
  8
0
 62
     3
 10
-20.77391
 20
-34.65249
 30
0.0
  0
VERTEX
  5
3BD
  8
0
 62
     3
 10
-26.37294
 20
-30.69211
 30
0.0
  0
VERTEX
  5
3BE
  8
0
 62
     3
 10
-31.21303
 20
-25.83356
 30
0.0
  0
VERTEX
  5
3BF
  8
0
 62
     3
 10
-35.15179
 20
-20.22011
 30
0.0
  0
VERTEX
  5
3C0
  8
0
 62
     3
 10
-38.07409
 20
-14.01585
 30
0.0
  0
VERTEX
  5
3C1
  8
0
 62
     3
 10
-39.89363
 20
-7.40367
 30
0.0
  0
VERTEX
  5
3C2
  8
0
 62
     3
 10
-40.55688
 20
-0.57832
 30
0.0
  0
VERTEX
  5
3C3
  8
0
 62
     3
 10
-40.04458
 20
6.26047
 30
0.0
  0
VERTEX
  5
3C4
  8
0
 62
     3
 10
-38.37155
 20
12.91123
 30
0.0
  0
VERTEX
  5
3C5
  8
0
 62
     3
 10
-35.5874
 20
19.17794
 30
0.0
  0
VERTEX
  5
3C6
  8
0
 62
     3
 10
-31.77328
 20
24.87753
 30
0.0
  0
VERTEX
  5
3C7
  8
0
 62
     3
 10
-27.04167
 20
29.84188
 30
0.0
  0
VERTEX
  5
3C8
  8
0
 62
     3
 10
-21.53217
 20
33.92462
 30
0.0
  0
VERTEX
  5
3C9
  8
0
 62
     3
 10
-15.40568
 20
37.00655
 30
0.0
  0
VERTEX
  5
3CA
  8
0
 62
     3
 10
-8.84268
 20
38.99665
 30
0.0
  0
VERTEX
  5
3CB
  8
0
 62
     3
 10
-2.03682
 20
39.83649
 30
0.0
  0
VERTEX
  5
3CC
  8
0
 62
     3
 10
4.81291
 20
39.50132
 30
0.0
  0
VERTEX
  5
3CD
  8
0
 62
     3
 10
11.50471
 20
38.00118
 30
0.0
  0
VERTEX
  5
3CE
  8
0
 62
     3
 10
17.84141
 20
35.38011
 30
0.0
  0
VERTEX
  5
3CF
  8
0
 62
     3
 10
23.63794
 20
31.71489
 30
0.0
  0
VERTEX
  5
3D0
  8
0
 62
     3
 10
28.72308
 20
27.11342
 30
0.0
  0
VERTEX
  5
3D1
  8
0
 62
     3
 10
32.94757
 20
21.7105
 30
0.0
  0
SEQEND
  5
4F9
  8
0
 62
     3
  0
LINE
  5
190
  8
0
 62
     3
 10
-26.2481
 20
-104.10948
 30
0.0
 11
25.30703
 21
-104.10948
 31
0.0
  0
POLYLINE
  5
191
  8
0
 62
     3
 66
     1
 10
0.0
 20
0.0
 30
0.0
 40
1.0287
 41
1.0287
  0
VERTEX
  5
3D3
  8
0
 62
     3
 10
-26.2481
 20
-37.06329
 30
0.0
  0
VERTEX
  5
3D4
  8
0
 62
     3
 10
-26.2481
 20
-104.10948
 30
0.0
  0
SEQEND
  5
4FA
  8
0
 62
     3
  0
POLYLINE
  5
195
  8
0
 62
     3
 66
     1
 10
0.0
 20
0.0
 30
0.0
 40
1.0287
 41
1.0287
  0
VERTEX
  5
3D6
  8
0
 62
     3
 10
25.30703
 20
-36.93911
 30
0.0
  0
VERTEX
  5
3D7
  8
0
 62
     3
 10
25.30703
 20
-104.10948
 30
0.0
  0
SEQEND
  5
4FB
  8
0
 62
     3
  0
LINE
  5
199
  8
0
  6
MCDASH7
 10
-21.51033
 20
-34.10948
 30
0.0
 11
20.88967
 21
-34.10948
 31
0.0
  0
LINE
  5
19A
  8
0
  6
MCDASH7
 10
-21.51033
 20
-104.10948
 30
0.0
 11
-21.51033
 21
-34.10948
 31
0.0
  0
LINE
  5
19B
  8
0
  6
MCDASH7
 10
20.88967
 20
-104.10948
 30
0.0
 11
20.88967
 21
-34.10948
 31
0.0
  0
ARC
  5
19C
  8
0
 62
     3
 10
-0.51324
 20
-0.10948
 30
0.0
 40
25.4
 50
34.654144
 51
25.621796
  0
POLYLINE
  5
19D
  8
0
 62
     3
 66
     1
 10
0.0
 20
0.0
 30
0.0
 40
1.0287
 41
1.0287
  0
VERTEX
  5
3D9
  8
0
 62
     3
 10
55.978
 20
35.0
 30
0.0
  0
VERTEX
  5
3DA
  8
0
 62
     3
 10
20.38079
 20
14.3335
 30
0.0
  0
SEQEND
  5
4FC
  8
0
 62
     3
  0
ENDBLK
  5
4FE
  8
0
  0
BLOCK
  8
0
  2
SIMBOLO_N__2
 70
     0
 10
0.0
 20
0.0
 30
0.0
  3
SIMBOLO_N__2
  1

  0
POLYLINE
  5
1A4
  8
0
 62
     3
 66
     1
 10
0.0
 20
0.0
 30
0.0
 40
0.5715
 41
0.5715
  0
VERTEX
  5
3DC
  8
0
 62
     3
 10
-3.6921
 20
0.0
 30
0.0
  0
VERTEX
  5
3DD
  8
0
 62
     3
 10
92.3079
 20
0.0
 30
0.0
  0
SEQEND
  5
4FF
  8
0
 62
     3
  0
POLYLINE
  5
1A8
  8
0
 62
     3
 66
     1
 10
0.0
 20
0.0
 30
0.0
 40
1.0287
 41
1.0287
  0
VERTEX
  5
3DF
  8
0
 62
     3
 10
83.0
 20
-39.95
 30
0.0
  0
VERTEX
  5
3E0
  8
0
 62
     3
 10
83.62309999999999
 20
-39.8503
 30
0.0
  0
VERTEX
  5
3E1
  8
0
 62
     3
 10
84.1798
 20
-39.5644
 30
0.0
  0
VERTEX
  5
3E2
  8
0
 62
     3
 10
84.615
 20
-39.1286
 30
0.0
  0
VERTEX
  5
3E3
  8
0
 62
     3
 10
84.9007
 20
-38.5705
 30
0.0
  0
VERTEX
  5
3E4
  8
0
 62
     3
 10
85.0
 20
-37.9474
 30
0.0
  0
SEQEND
  5
500
  8
0
 62
     3
  0
POLYLINE
  5
1B0
  8
0
 62
     3
 66
     1
 10
0.0
 20
0.0
 30
0.0
 40
1.0287
 41
1.0287
  0
VERTEX
  5
3E6
  8
0
 62
     3
 10
112.1427
 20
131.8526
 30
0.0
  0
VERTEX
  5
3E7
  8
0
 62
     3
 10
145.0
 20
133.0
 30
0.0
  0
SEQEND
  5
501
  8
0
 62
     3
  0
POLYLINE
  5
1B4
  8
0
 62
     3
 66
     1
 10
0.0
 20
0.0
 30
0.0
 40
1.0287
 41
1.0287
  0
VERTEX
  5
3E9
  8
0
 62
     3
 10
130.0996
 20
91.0
 30
0.0
  0
VERTEX
  5
3EA
  8
0
 62
     3
 10
145.0
 20
91.0
 30
0.0
  0
SEQEND
  5
502
  8
0
 62
     3
  0
POLYLINE
  5
1B8
  8
0
 62
     3
 66
     1
 10
0.0
 20
0.0
 30
0.0
 40
1.0287
 41
1.0287
  0
VERTEX
  5
3EC
  8
0
 62
     3
 10
5.8952
 20
38.6541
 30
0.0
  0
VERTEX
  5
3ED
  8
0
 62
     3
 10
11.9801
 20
38.7603
 30
0.0
  0
SEQEND
  5
503
  8
0
 62
     3
  0
POLYLINE
  5
1BC
  8
0
 62
     3
 66
     1
 10
0.0
 20
0.0
 30
0.0
 40
1.0287
 41
1.0287
  0
VERTEX
  5
3EF
  8
0
 62
     3
 10
9.3131
 20
29.4354
 30
0.0
  0
VERTEX
  5
3F0
  8
0
 62
     3
 10
9.312099999999999
 20
29.4309
 30
0.0
  0
SEQEND
  5
504
  8
0
 62
     3
  0
POLYLINE
  5
1C0
  8
0
 62
     3
 66
     1
 10
0.0
 20
0.0
 30
0.0
 40
1.0287
 41
1.0287
  0
VERTEX
  5
3F2
  8
0
 62
     3
 10
0.0
 20
32.655
 30
0.0
  0
VERTEX
  5
3F3
  8
0
 62
     3
 10
0.0
 20
-32.655
 30
0.0
  0
SEQEND
  5
505
  8
0
 62
     3
  0
POLYLINE
  5
1C4
  8
0
 62
     3
 66
     1
 10
0.0
 20
0.0
 30
0.0
 40
1.0287
 41
1.0287
  0
VERTEX
  5
3F5
  8
0
 62
     3
 10
8.8965
 20
-48.0503
 30
0.0
  0
VERTEX
  5
3F6
  8
0
 62
     3
 10
9.013
 20
-49.0033
 30
0.0
  0
SEQEND
  5
506
  8
0
 62
     3
  0
POLYLINE
  5
1C8
  8
0
 62
     3
 66
     1
 10
0.0
 20
0.0
 30
0.0
 40
1.0287
 41
1.0287
  0
VERTEX
  5
3F8
  8
0
 62
     3
 10
81.6056
 20
-39.9256
 30
0.0
  0
VERTEX
  5
3F9
  8
0
 62
     3
 10
83.0
 20
-39.95
 30
0.0
  0
SEQEND
  5
507
  8
0
 62
     3
  0
POLYLINE
  5
1CC
  8
0
 62
     3
 66
     1
 10
0.0
 20
0.0
 30
0.0
 40
1.0287
 41
1.0287
  0
VERTEX
  5
3FB
  8
0
 62
     3
 10
85.0
 20
12.5404
 30
0.0
  0
VERTEX
  5
3FC
  8
0
 62
     3
 10
85.0
 20
-37.9474
 30
0.0
  0
SEQEND
  5
508
  8
0
 62
     3
  0
POLYLINE
  5
1D0
  8
0
 62
     3
 66
     1
 10
0.0
 20
0.0
 30
0.0
 40
1.0287
 41
1.0287
  0
VERTEX
  5
3FE
  8
0
 62
     3
 10
145.0
 20
91.0003
 30
0.0
  0
VERTEX
  5
3FF
  8
0
 62
     3
 10
145.0
 20
132.9998
 30
0.0
  0
SEQEND
  5
509
  8
0
 62
     3
  0
POLYLINE
  5
1D4
  8
0
 62
     3
 66
     1
 10
0.0
 20
0.0
 30
0.0
 40
1.0287
 41
1.0287
  0
VERTEX
  5
401
  8
0
 62
     3
 10
5.8953
 20
38.654
 30
0.0
  0
VERTEX
  5
402
  8
0
 62
     3
 10
4.8666
 20
38.547
 30
0.0
  0
VERTEX
  5
403
  8
0
 62
     3
 10
3.8715
 20
38.2648
 30
0.0
  0
VERTEX
  5
404
  8
0
 62
     3
 10
2.9398
 20
37.8159
 30
0.0
  0
VERTEX
  5
405
  8
0
 62
     3
 10
2.0989
 20
37.2137
 30
0.0
  0
VERTEX
  5
406
  8
0
 62
     3
 10
1.3739
 20
36.4759
 30
0.0
  0
VERTEX
  5
407
  8
0
 62
     3
 10
0.7865
 20
35.6247
 30
0.0
  0
VERTEX
  5
408
  8
0
 62
     3
 10
0.3539
 20
34.6852
 30
0.0
  0
VERTEX
  5
409
  8
0
 62
     3
 10
0.0891
 20
33.6854
 30
0.0
  0
VERTEX
  5
40A
  8
0
 62
     3
 10
0.0
 20
32.655
 30
0.0
  0
SEQEND
  5
50A
  8
0
 62
     3
  0
POLYLINE
  5
1E0
  8
0
 62
     3
 66
     1
 10
0.0
 20
0.0
 30
0.0
 40
0.5715
 41
0.5715
  0
VERTEX
  5
40C
  8
0
 62
     3
 10
85.7255
 20
115.6879
 30
0.0
  0
VERTEX
  5
40D
  8
0
 62
     3
 10
71.1416
 20
108.7823
 30
0.0
  0
SEQEND
  5
50B
  8
0
 62
     3
  0
POLYLINE
  5
1E4
  8
0
 62
     3
 66
     1
 10
0.0
 20
0.0
 30
0.0
 40
0.5715
 41
0.5715
  0
VERTEX
  5
40F
  8
0
 62
     3
 10
71.1416
 20
108.7824
 30
0.0
  0
VERTEX
  5
410
  8
0
 62
     3
 10
50.4117
 20
91.2751
 30
0.0
  0
VERTEX
  5
411
  8
0
 62
     3
 10
32.8203
 20
70.6161
 30
0.0
  0
VERTEX
  5
412
  8
0
 62
     3
 10
18.8388
 20
47.358
 30
0.0
  0
VERTEX
  5
413
  8
0
 62
     3
 10
8.8454
 20
22.1278
 30
0.0
  0
SEQEND
  5
50C
  8
0
 62
     3
  0
POLYLINE
  5
1EB
  8
0
 62
     3
 66
     1
 10
0.0
 20
0.0
 30
0.0
 40
0.5715
 41
0.5715
  0
VERTEX
  5
415
  8
0
 62
     3
 10
43.4452
 20
38.6567
 30
0.0
  0
VERTEX
  5
416
  8
0
 62
     3
 10
35.0034
 20
19.5194
 30
0.0
  0
VERTEX
  5
417
  8
0
 62
     3
 10
29.3902
 20
-0.6332
 30
0.0
  0
SEQEND
  5
50D
  8
0
 62
     3
  0
POLYLINE
  5
1F0
  8
0
 62
     3
 66
     1
 10
0.0
 20
0.0
 30
0.0
 40
0.5715
 41
0.5715
  0
VERTEX
  5
419
  8
0
 62
     3
 10
86.00360000000001
 20
87.2842
 30
0.0
  0
VERTEX
  5
41A
  8
0
 62
     3
 10
69.6572
 20
73.05500000000001
 30
0.0
  0
VERTEX
  5
41B
  8
0
 62
     3
 10
55.3841
 20
56.7466
 30
0.0
  0
VERTEX
  5
41C
  8
0
 62
     3
 10
43.4448
 20
38.656
 30
0.0
  0
VERTEX
  5
41D
  8
0
 62
     3
 10
43.444
 20
38.6544
 30
0.0
  0
SEQEND
  5
50E
  8
0
 62
     3
  0
POLYLINE
  5
1F7
  8
0
 62
     3
 66
     1
 10
0.0
 20
0.0
 30
0.0
 40
0.5715
 41
0.5715
  0
VERTEX
  5
41F
  8
0
 62
     3
 10
114.8128
 20
95.2231
 30
0.0
  0
VERTEX
  5
420
  8
0
 62
     3
 10
107.2253
 20
95.0004
 30
0.0
  0
VERTEX
  5
421
  8
0
 62
     3
 10
99.7692
 20
93.5739
 30
0.0
  0
VERTEX
  5
422
  8
0
 62
     3
 10
92.6348
 20
90.9798
 30
0.0
  0
VERTEX
  5
423
  8
0
 62
     3
 10
86.003
 20
87.28360000000001
 30
0.0
  0
SEQEND
  5
50F
  8
0
 62
     3
  0
POLYLINE
  5
1FE
  8
0
 62
     3
 66
     1
 10
0.0
 20
0.0
 30
0.0
 40
0.5715
 41
0.5715
  0
VERTEX
  5
425
  8
0
 62
     3
 10
145.0
 20
94.2914
 30
0.0
  0
VERTEX
  5
426
  8
0
 62
     3
 10
110.2241
 20
95.3156
 30
0.0
  0
SEQEND
  5
510
  8
0
 62
     3
  0
POLYLINE
  5
202
  8
0
 62
     3
 66
     1
 10
0.0
 20
0.0
 30
0.0
 40
0.5715
 41
0.5715
  0
VERTEX
  5
428
  8
0
 62
     3
 10
28.8336
 20
-10.8264
 30
0.0
  0
VERTEX
  5
429
  8
0
 62
     3
 10
80.7192
 20
-12.2592
 30
0.0
  0
SEQEND
  5
511
  8
0
 62
     3
  0
POLYLINE
  5
206
  8
0
 62
     3
 66
     1
 10
0.0
 20
0.0
 30
0.0
 40
0.5715
 41
0.5715
  0
VERTEX
  5
42B
  8
0
 62
     3
 10
5.8954
 20
34.5005
 30
0.0
  0
VERTEX
  5
42C
  8
0
 62
     3
 10
10.9612
 20
35.1354
 30
0.0
  0
SEQEND
  5
512
  8
0
 62
     3
  0
POLYLINE
  5
20A
  8
0
 62
     3
 66
     1
 10
0.0
 20
0.0
 30
0.0
 40
1.0287
 41
1.0287
  0
VERTEX
  5
42E
  8
0
 62
     3
 10
74.106
 20
118.8114
 30
0.0
  0
VERTEX
  5
42F
  8
0
 62
     3
 10
56.0124
 20
104.2092
 30
0.0
  0
VERTEX
  5
430
  8
0
 62
     3
 10
39.9317
 20
87.41500000000001
 30
0.0
  0
VERTEX
  5
431
  8
0
 62
     3
 10
26.1265
 20
68.7024
 30
0.0
  0
SEQEND
  5
513
  8
0
 62
     3
  0
POLYLINE
  5
210
  8
0
 62
     3
 66
     1
 10
0.0
 20
0.0
 30
0.0
 40
1.0287
 41
1.0287
  0
VERTEX
  5
433
  8
0
 62
     3
 10
26.1274
 20
68.7037
 30
0.0
  0
VERTEX
  5
434
  8
0
 62
     3
 10
16.0054
 20
49.8047
 30
0.0
  0
VERTEX
  5
435
  8
0
 62
     3
 10
9.3125
 20
29.4322
 30
0.0
  0
SEQEND
  5
514
  8
0
 62
     3
  0
POLYLINE
  5
215
  8
0
 62
     3
 66
     1
 10
0.0
 20
0.0
 30
0.0
 40
1.0287
 41
1.0287
  0
VERTEX
  5
437
  8
0
 62
     3
 10
26.7849
 20
-27.1784
 30
0.0
  0
VERTEX
  5
438
  8
0
 62
     3
 10
19.4735
 20
-28.0822
 30
0.0
  0
VERTEX
  5
439
  8
0
 62
     3
 10
12.3551
 20
-29.9842
 30
0.0
  0
VERTEX
  5
43A
  8
0
 62
     3
 10
5.566
 20
-32.8484
 30
0.0
  0
SEQEND
  5
515
  8
0
 62
     3
  0
POLYLINE
  5
21B
  8
0
 62
     3
 66
     1
 10
0.0
 20
0.0
 30
0.0
 40
1.0287
 41
1.0287
  0
VERTEX
  5
43C
  8
0
 62
     3
 10
80.71899999999999
 20
-26.8043
 30
0.0
  0
VERTEX
  5
43D
  8
0
 62
     3
 10
26.7852
 20
-27.1783
 30
0.0
  0
SEQEND
  5
516
  8
0
 62
     3
  0
POLYLINE
  5
21F
  8
0
 62
     3
 66
     1
 10
0.0
 20
0.0
 30
0.0
 40
1.0287
 41
1.0287
  0
VERTEX
  5
43F
  8
0
 62
     3
 10
5.5663
 20
-32.8482
 30
0.0
  0
VERTEX
  5
440
  8
0
 62
     3
 10
2.5735
 20
-37.5272
 30
0.0
  0
SEQEND
  5
517
  8
0
 62
     3
  0
POLYLINE
  5
223
  8
0
 62
     3
 66
     1
 10
0.0
 20
0.0
 30
0.0
 40
1.0287
 41
1.0287
  0
VERTEX
  5
442
  8
0
 62
     3
 10
8.8964
 20
-48.0502
 30
0.0
  0
VERTEX
  5
443
  8
0
 62
     3
 10
8.311
 20
-45.6056
 30
0.0
  0
VERTEX
  5
444
  8
0
 62
     3
 10
7.3598
 20
-43.2788
 30
0.0
  0
VERTEX
  5
445
  8
0
 62
     3
 10
6.0651
 20
-41.1241
 30
0.0
  0
VERTEX
  5
446
  8
0
 62
     3
 10
4.4572
 20
-39.1919
 30
0.0
  0
VERTEX
  5
447
  8
0
 62
     3
 10
2.5734
 20
-37.5273
 30
0.0
  0
SEQEND
  5
518
  8
0
 62
     3
  0
POLYLINE
  5
22B
  8
0
 62
     3
 66
     1
 10
0.0
 20
0.0
 30
0.0
 40
1.0287
 41
1.0287
  0
VERTEX
  5
449
  8
0
 62
     3
 10
0.0
 20
-32.655
 30
0.0
  0
VERTEX
  5
44A
  8
0
 62
     3
 10
0.0763
 20
-33.6088
 30
0.0
  0
VERTEX
  5
44B
  8
0
 62
     3
 10
0.3033
 20
-34.5384
 30
0.0
  0
VERTEX
  5
44C
  8
0
 62
     3
 10
0.6751
 20
-35.4201
 30
0.0
  0
VERTEX
  5
44D
  8
0
 62
     3
 10
1.1824
 20
-36.2314
 30
0.0
  0
VERTEX
  5
44E
  8
0
 62
     3
 10
1.8122
 20
-36.9518
 30
0.0
  0
VERTEX
  5
44F
  8
0
 62
     3
 10
2.5485
 20
-37.5629
 30
0.0
  0
VERTEX
  5
450
  8
0
 62
     3
 10
2.5486
 20
-37.5629
 30
0.0
  0
SEQEND
  5
519
  8
0
 62
     3
  0
POLYLINE
  5
235
  8
0
 62
     3
 66
     1
 10
0.0
 20
0.0
 30
0.0
 40
1.0287
 41
1.0287
  0
VERTEX
  5
452
  8
0
 62
     3
 10
130.0997
 20
90.9999
 30
0.0
  0
VERTEX
  5
453
  8
0
 62
     3
 10
111.7092
 20
68.4205
 30
0.0
  0
VERTEX
  5
454
  8
0
 62
     3
 10
96.92619999999999
 20
43.3284
 30
0.0
  0
VERTEX
  5
455
  8
0
 62
     3
 10
86.08880000000001
 20
16.2966
 30
0.0
  0
VERTEX
  5
456
  8
0
 62
     3
 10
79.44410000000001
 20
-12.0585
 30
0.0
  0
VERTEX
  5
457
  8
0
 62
     3
 10
79.44370000000001
 20
-12.0613
 30
0.0
  0
SEQEND
  5
51A
  8
0
 62
     3
  0
POLYLINE
  5
23D
  8
0
  6
MCDASH7
 66
     1
 10
0.0
 20
0.0
 30
0.0
 40
0.5715
 41
0.5715
  0
VERTEX
  5
459
  8
0
  6
MCDASH7
 10
0.0
 20
-25.4
 30
0.0
  0
VERTEX
  5
45A
  8
0
  6
MCDASH7
 10
85.0
 20
-25.4
 30
0.0
  0
SEQEND
  5
51B
  8
0
  6
MCDASH7
  0
POLYLINE
  5
241
  8
0
  6
MCDASH7
 66
     1
 10
0.0
 20
0.0
 30
0.0
 40
0.5715
 41
0.5715
  0
VERTEX
  5
45C
  8
0
  6
MCDASH7
 10
0.0
 20
25.4
 30
0.0
  0
VERTEX
  5
45D
  8
0
  6
MCDASH7
 10
84.92522
 20
25.4
 30
0.0
  0
SEQEND
  5
51C
  8
0
  6
MCDASH7
  0
POLYLINE
  5
245
  8
0
 62
     3
 66
     1
 10
0.0
 20
0.0
 30
0.0
 40
1.0287
 41
1.0287
  0
VERTEX
  5
45F
  8
0
 62
     3
 10
147.4976
 20
112.0
 30
0.0
  0
VERTEX
  5
460
  8
0
 62
     3
 10
86.0044
 20
112.0
 30
0.0
  0
SEQEND
  5
51D
  8
0
 62
     3
  0
POLYLINE
  5
249
  8
0
  6
MCDASH7
 66
     1
 10
0.0
 20
0.0
 30
0.0
 40
1.0287
 41
1.0287
  0
VERTEX
  5
462
  8
0
  6
MCDASH7
 10
85.0
 20
12.5404
 30
0.0
  0
VERTEX
  5
463
  8
0
  6
MCDASH7
 10
84.92522
 20
25.4
 30
0.0
  0
SEQEND
  5
51E
  8
0
  6
MCDASH7
  0
POLYLINE
  5
24D
  8
0
 62
     3
 66
     1
 10
0.0
 20
0.0
 30
0.0
 40
1.0287
 41
1.0287
  0
VERTEX
  5
465
  8
0
 62
     3
 10
8.846
 20
22.1303
 30
0.0
  0
VERTEX
  5
466
  8
0
 62
     3
 10
2.5729
 20
17.4743
 30
0.0
  0
SEQEND
  5
51F
  8
0
 62
     3
  0
POLYLINE
  5
251
  8
0
 62
     3
 66
     1
 10
0.0
 20
0.0
 30
0.0
 40
1.0287
 41
1.0287
  0
VERTEX
  5
468
  8
0
 62
     3
 10
5.8954
 20
34.5005
 30
0.0
  0
VERTEX
  5
469
  8
0
 62
     3
 10
2.5729
 20
17.4743
 30
0.0
  0
SEQEND
  5
520
  8
0
 62
     3
  0
POLYLINE
  5
255
  8
0
  6
MCDASH7
 66
     1
 10
0.0
 20
0.0
 30
0.0
 40
1.0287
 41
1.0287
  0
VERTEX
  5
46B
  8
0
  6
MCDASH7
 10
145.0
 20
120.0
 30
0.0
  0
VERTEX
  5
46C
  8
0
  6
MCDASH7
 10
91.0
 20
120.0
 30
0.0
  0
SEQEND
  5
521
  8
0
  6
MCDASH7
  0
POLYLINE
  5
259
  8
0
  6
MCDASH7
 66
     1
 10
0.0
 20
0.0
 30
0.0
 40
1.0287
 41
1.0287
  0
VERTEX
  5
46E
  8
0
  6
MCDASH7
 10
145.0
 20
104.0
 30
0.0
  0
VERTEX
  5
46F
  8
0
  6
MCDASH7
 10
91.0
 20
104.0
 30
0.0
  0
SEQEND
  5
522
  8
0
  6
MCDASH7
  0
POLYLINE
  5
25D
  8
0
  6
MCDASH7
 66
     1
 10
0.0
 20
0.0
 30
0.0
 40
1.0287
 41
1.0287
  0
VERTEX
  5
471
  8
0
  6
MCDASH7
 10
91.0
 20
104.0
 30
0.0
  0
VERTEX
  5
472
  8
0
  6
MCDASH7
 10
91.0
 20
120.0
 30
0.0
  0
SEQEND
  5
523
  8
0
  6
MCDASH7
  0
POLYLINE
  5
261
  8
0
 62
     3
 66
     1
 10
0.0
 20
0.0
 30
0.0
 40
1.0287
 41
1.0287
  0
VERTEX
  5
474
  8
0
 62
     3
 10
2.5729
 20
17.4743
 30
0.0
  0
VERTEX
  5
475
  8
0
 62
     3
 10
2.8976
 20
11.7467
 30
0.0
  0
SEQEND
  5
524
  8
0
 62
     3
  0
POLYLINE
  5
265
  8
0
 62
     3
 66
     1
 10
0.0
 20
0.0
 30
0.0
 40
1.0287
 41
1.0287
  0
VERTEX
  5
477
  8
0
 62
     3
 10
2.8907
 20
11.8689
 30
0.0
  0
VERTEX
  5
478
  8
0
 62
     3
 10
3.786
 20
5.3684
 30
0.0
  0
SEQEND
  5
525
  8
0
 62
     3
  0
POLYLINE
  5
269
  8
0
 62
     3
 66
     1
 10
0.0
 20
0.0
 30
0.0
 40
1.0287
 41
1.0287
  0
VERTEX
  5
47A
  8
0
 62
     3
 10
3.7542
 20
5.5221
 30
0.0
  0
VERTEX
  5
47B
  8
0
 62
     3
 10
5.9364
 20
-2.1865
 30
0.0
  0
SEQEND
  5
526
  8
0
 62
     3
  0
POLYLINE
  5
26D
  8
0
 62
     3
 66
     1
 10
0.0
 20
0.0
 30
0.0
 40
1.0287
 41
1.0287
  0
VERTEX
  5
47D
  8
0
 62
     3
 10
5.8684
 20
-1.9464
 30
0.0
  0
VERTEX
  5
47E
  8
0
 62
     3
 10
14.1908
 20
-7.2763
 30
0.0
  0
SEQEND
  5
527
  8
0
 62
     3
  0
POLYLINE
  5
271
  8
0
 62
     3
 66
     1
 10
0.0
 20
0.0
 30
0.0
 40
1.0287
 41
1.0287
  0
VERTEX
  5
480
  8
0
 62
     3
 10
14.0044
 20
-7.1569
 30
0.0
  0
VERTEX
  5
481
  8
0
 62
     3
 10
20.7443
 20
-9.605700000000001
 30
0.0
  0
SEQEND
  5
528
  8
0
 62
     3
  0
POLYLINE
  5
275
  8
0
 62
     3
 66
     1
 10
0.0
 20
0.0
 30
0.0
 40
1.0287
 41
1.0287
  0
VERTEX
  5
483
  8
0
 62
     3
 10
20.595
 20
-9.551500000000001
 30
0.0
  0
VERTEX
  5
484
  8
0
 62
     3
 10
28.8336
 20
-10.8264
 30
0.0
  0
SEQEND
  5
529
  8
0
 62
     3
  0
POLYLINE
  5
279
  8
0
 62
     3
 66
     1
 10
0.0
 20
0.0
 30
0.0
 40
1.0287
 41
1.0287
  0
VERTEX
  5
486
  8
0
 62
     3
 10
112.1439
 20
131.8527
 30
0.0
  0
VERTEX
  5
487
  8
0
 62
     3
 10
98.7788
 20
129.7084
 30
0.0
  0
VERTEX
  5
488
  8
0
 62
     3
 10
85.9739
 20
125.3182
 30
0.0
  0
VERTEX
  5
489
  8
0
 62
     3
 10
74.104
 20
118.81
 30
0.0
  0
SEQEND
  5
52A
  8
0
 62
     3
  0
POLYLINE
  5
27F
  8
0
 62
     3
 66
     1
 10
0.0
 20
0.0
 30
0.0
 40
0.5715
 41
0.5715
  0
VERTEX
  5
48B
  8
0
 62
     3
 10
9.013
 20
-104.0
 30
0.0
  0
VERTEX
  5
48C
  8
0
 62
     3
 10
80.71899999999999
 20
-104.0
 30
0.0
  0
SEQEND
  5
52B
  8
0
 62
     3
  0
POLYLINE
  5
283
  8
0
  6
MCDASH7
 66
     1
 10
0.0
 20
0.0
 30
0.0
 40
0.5715
 41
0.5715
  0
VERTEX
  5
48E
  8
0
  6
MCDASH7
 10
13.8
 20
-34.0
 30
0.0
  0
VERTEX
  5
48F
  8
0
  6
MCDASH7
 10
56.2
 20
-34.0
 30
0.0
  0
SEQEND
  5
52C
  8
0
  6
MCDASH7
  0
LINE
  5
287
  8
0
 62
     3
 10
80.71899999999999
 20
-26.8043
 30
0.0
 11
80.71899999999999
 21
-104.0
 31
0.0
  0
LINE
  5
288
  8
0
 62
     3
 10
9.013
 20
-49.0033
 30
0.0
 11
9.013
 21
-104.0
 31
0.0
  0
POLYLINE
  5
289
  8
0
  6
MCDASH7
 66
     1
 10
0.0
 20
0.0
 30
0.0
 40
1.0287
 41
1.0287
  0
VERTEX
  5
491
  8
0
  6
MCDASH7
 10
13.8
 20
-34.0
 30
0.0
  0
VERTEX
  5
492
  8
0
  6
MCDASH7
 10
13.8
 20
-104.0
 30
0.0
  0
SEQEND
  5
52D
  8
0
  6
MCDASH7
  0
POLYLINE
  5
28D
  8
0
  6
MCDASH7
 66
     1
 10
0.0
 20
0.0
 30
0.0
 40
1.0287
 41
1.0287
  0
VERTEX
  5
494
  8
0
  6
MCDASH7
 10
56.2
 20
-34.0
 30
0.0
  0
VERTEX
  5
495
  8
0
  6
MCDASH7
 10
56.2
 20
-104.0
 30
0.0
  0
SEQEND
  5
52E
  8
0
  6
MCDASH7
  0
POLYLINE
  5
291
  8
0
 62
     3
 66
     1
 10
0.0
 20
0.0
 30
0.0
 40
1.0287
 41
1.0287
  0
VERTEX
  5
497
  8
0
 62
     3
 10
35.0
 20
-88.05929999999999
 30
0.0
  0
VERTEX
  5
498
  8
0
 62
     3
 10
35.0
 20
-112.5593
 30
0.0
  0
SEQEND
  5
52F
  8
0
 62
     3
  0
ENDBLK
  5
531
  8
0
  0
ENDSEC
  0
SECTION
  2
ENTITIES
  0
INSERT
  5
296
  8
0
  2
SIMBOLO_N__1
 10
151.25994
 20
-113.20263
 30
0.0
  0
INSERT
  5
297
  8
0
  2
SIMBOLO_N__2
 10
-308.56775
 20
-113.28929
 30
0.0
  0
ENDSEC
  0
EOF
