  0
SECTION
  2
HEADER
  9
$ACADVER
  1
AC1009
  9
$DWGCODEPAGE
  3
ansi_1252
  9
$INSBASE
 10
0.0
 20
0.0
 30
0.0
  9
$EXTMIN
 10
-427.0375
 20
-619.9186999999999
 30
0.0
  9
$EXTMAX
 10
427.0375
 20
619.9186999999999
 30
0.0
  9
$LIMMIN
 10
0.0
 20
0.0
  9
$LIMMAX
 10
12.0
 20
9.0
  9
$ORTHOMODE
 70
     0
  9
$REGENMODE
 70
     1
  9
$FILLMODE
 70
     1
  9
$QTEXTMODE
 70
     0
  9
$MIRRTEXT
 70
     1
  9
$DRAGMODE
 70
     2
  9
$LTSCALE
 40
4.5
  9
$OSMODE
 70
    37
  9
$ATTMODE
 70
     1
  9
$TEXTSIZE
 40
0.2
  9
$TRACEWID
 40
0.05
  9
$TEXTSTYLE
  7
STANDARD
  9
$CLAYER
  8
0
  9
$CELTYPE
  6
BYBLOCK
  9
$CECOLOR
 62
   256
  9
$DIMSCALE
 40
1.0
  9
$DIMASZ
 40
0.18
  9
$DIMEXO
 40
0.0625
  9
$DIMDLI
 40
0.38
  9
$DIMRND
 40
0.0
  9
$DIMDLE
 40
0.0
  9
$DIMEXE
 40
0.18
  9
$DIMTP
 40
0.0
  9
$DIMTM
 40
0.0
  9
$DIMTXT
 40
0.18
  9
$DIMCEN
 40
0.09
  9
$DIMTSZ
 40
0.0
  9
$DIMTOL
 70
     0
  9
$DIMLIM
 70
     0
  9
$DIMTIH
 70
     1
  9
$DIMTOH
 70
     1
  9
$DIMSE1
 70
     0
  9
$DIMSE2
 70
     0
  9
$DIMTAD
 70
     0
  9
$DIMZIN
 70
     0
  9
$DIMBLK
  1

  9
$DIMASO
 70
     1
  9
$DIMSHO
 70
     1
  9
$DIMPOST
  1

  9
$DIMAPOST
  1

  9
$DIMALT
 70
     0
  9
$DIMALTD
 70
     2
  9
$DIMALTF
 40
25.4
  9
$DIMLFAC
 40
1.0
  9
$DIMTOFL
 70
     0
  9
$DIMTVP
 40
0.0
  9
$DIMTIX
 70
     0
  9
$DIMSOXD
 70
     0
  9
$DIMSAH
 70
     0
  9
$DIMBLK1
  1

  9
$DIMBLK2
  1

  9
$DIMSTYLE
  2
STANDARD
  9
$DIMCLRD
 70
     0
  9
$DIMCLRE
 70
     0
  9
$DIMCLRT
 70
     0
  9
$DIMTFAC
 40
1.0
  9
$DIMGAP
 40
0.09
  9
$LUNITS
 70
     2
  9
$LUPREC
 70
     4
  9
$SKETCHINC
 40
0.1
  9
$FILLETRAD
 40
0.5
  9
$AUNITS
 70
     0
  9
$AUPREC
 70
     0
  9
$MENU
  1
.
  9
$ELEVATION
 40
0.0
  9
$PELEVATION
 40
0.0
  9
$THICKNESS
 40
0.0
  9
$LIMCHECK
 70
     0
  9
$CHAMFERA
 40
0.5
  9
$CHAMFERB
 40
0.5
  9
$SKPOLY
 70
     0
  9
$TDCREATE
 40
2453619.496173739
  9
$TDUPDATE
 40
2453619.49617375
  9
$TDINDWG
 40
0.0000000116
  9
$TDUSRTIMER
 40
0.0000000116
  9
$USRTIMER
 70
     1
  9
$ANGBASE
 50
0.0
  9
$ANGDIR
 70
     0
  9
$PDMODE
 70
     0
  9
$PDSIZE
 40
0.0
  9
$PLINEWID
 40
0.0
  9
$COORDS
 70
     1
  9
$SPLFRAME
 70
     0
  9
$SPLINETYPE
 70
     6
  9
$SPLINESEGS
 70
     8
  9
$ATTDIA
 70
     0
  9
$ATTREQ
 70
     1
  9
$HANDLING
 70
     1
  9
$HANDSEED
  5
6AF
  9
$SURFTAB1
 70
     6
  9
$SURFTAB2
 70
     6
  9
$SURFTYPE
 70
     6
  9
$SURFU
 70
     6
  9
$SURFV
 70
     6
  9
$UCSNAME
  2

  9
$UCSORG
 10
0.0
 20
0.0
 30
0.0
  9
$UCSXDIR
 10
1.0
 20
0.0
 30
0.0
  9
$UCSYDIR
 10
0.0
 20
1.0
 30
0.0
  9
$PUCSNAME
  2

  9
$PUCSORG
 10
0.0
 20
0.0
 30
0.0
  9
$PUCSXDIR
 10
1.0
 20
0.0
 30
0.0
  9
$PUCSYDIR
 10
0.0
 20
1.0
 30
0.0
  9
$USERI1
 70
     0
  9
$USERI2
 70
     0
  9
$USERI3
 70
     0
  9
$USERI4
 70
     0
  9
$USERI5
 70
     0
  9
$USERR1
 40
0.0
  9
$USERR2
 40
0.0
  9
$USERR3
 40
0.0
  9
$USERR4
 40
0.0
  9
$USERR5
 40
0.0
  9
$WORLDVIEW
 70
     1
  9
$SHADEDGE
 70
     3
  9
$SHADEDIF
 70
    70
  9
$TILEMODE
 70
     1
  9
$MAXACTVP
 70
    64
  9
$PLIMCHECK
 70
     0
  9
$PEXTMIN
 10
1.000000000000000E+20
 20
1.000000000000000E+20
 30
1.000000000000000E+20
  9
$PEXTMAX
 10
-1.000000000000000E+20
 20
-1.000000000000000E+20
 30
-1.000000000000000E+20
  9
$PLIMMIN
 10
0.0
 20
0.0
  9
$PLIMMAX
 10
12.0
 20
9.0
  9
$UNITMODE
 70
     0
  9
$VISRETAIN
 70
     1
  9
$PLINEGEN
 70
     0
  9
$PSLTSCALE
 70
     1
  0
ENDSEC
  0
SECTION
  2
TABLES
  0
TABLE
  2
VPORT
 70
     1
  0
VPORT
  2
*ACTIVE
 70
     0
 10
0.0
 20
0.0
 11
1.0
 21
1.0
 12
10.42990654205607
 22
4.5
 13
0.0
 23
0.0
 14
0.5
 24
0.5
 15
0.5
 25
0.5
 16
0.0
 26
0.0
 36
1.0
 17
0.0
 27
0.0
 37
0.0
 40
9.0
 41
1.972972972850329
 42
50.0
 43
0.0
 44
0.0
 50
0.0
 51
0.0
 71
     0
 72
   100
 73
     1
 74
     3
 75
     0
 76
     0
 77
     0
 78
     0
  0
ENDTAB
  0
TABLE
  2
LTYPE
 70
     9
  0
LTYPE
  2
CONTINUOUS
 70
     0
  3
Solid Line
 72
    65
 73
     0
 40
0.0
  0
LTYPE
  2
MCDASH1
 70
     0
  3
MiniCad+ Generated
 72
    65
 73
     6
 40
8.740551
 49
2.497134
 49
-1.248761
 49
2.497134
 49
-1.248761
 49
0.000388
 49
-1.248373
  0
LTYPE
  2
MCDASH2
 70
     0
  3
MiniCad+ Generated
 72
    65
 73
     4
 40
9.989699999999999
 49
6.243417
 49
-1.248761
 49
1.248761
 49
-1.248761
  0
LTYPE
  2
MCDASH3
 70
     0
  3
MiniCad+ Generated
 72
    65
 73
     4
 40
4.994656
 49
2.497134
 49
-1.248761
 49
0.000388
 49
-1.248373
  0
LTYPE
  2
MCDASH4
 70
     0
  3
MiniCad+ Generated
 72
    65
 73
     2
 40
3.745895
 49
2.497134
 49
-1.248761
  0
LTYPE
  2
MCDASH5
 70
     0
  3
MiniCad+ Generated
 72
    65
 73
     6
 40
6.243417
 49
2.497134
 49
-1.248761
 49
0.000388
 49
-1.248373
 49
0.000388
 49
-1.248373
  0
LTYPE
  2
MCDASH6
 70
     0
  3
MiniCad+ Generated
 72
    65
 73
     4
 40
2.497522
 49
0.000388
 49
-1.248373
 49
0.000388
 49
-1.248373
  0
LTYPE
  2
MCDASH7
 70
     0
  3
MiniCad+ Generated
 72
    65
 73
     2
 40
1.873141
 49
1.248761
 49
-0.6243800000000001
  0
LTYPE
  2
MCDASH8
 70
     0
  3
MiniCad+ Generated
 72
    65
 73
     6
 40
12.487222
 49
6.243417
 49
-1.248761
 49
1.248761
 49
-1.248761
 49
1.248761
 49
-1.248761
  0
ENDTAB
  0
TABLE
  2
LAYER
 70
     2
  0
LAYER
  2
0
 70
     0
 62
     7
  6
CONTINUOUS
  0
LAYER
  2
1
 70
     0
 62
     7
  6
CONTINUOUS
  0
ENDTAB
  0
TABLE
  2
STYLE
 70
     1
  0
STYLE
  2
STANDARD
 70
     0
 40
0.0
 41
1.0
 50
0.0
 71
     0
 42
0.2
  3
txt
  4

  0
ENDTAB
  0
TABLE
  2
VIEW
 70
     0
  0
ENDTAB
  0
TABLE
  2
UCS
 70
     0
  0
ENDTAB
  0
TABLE
  2
APPID
 70
     1
  0
APPID
  2
ACAD
 70
     0
  0
ENDTAB
  0
TABLE
  2
DIMSTYLE
 70
     1
  0
DIMSTYLE
  2
STANDARD
 70
     0
  3

  4

  5

  6

  7

 40
1.0
 41
0.18
 42
0.0625
 43
0.38
 44
0.18
 45
0.0
 46
0.0
 47
0.0
 48
0.0
140
0.18
141
0.09
142
0.0
143
25.4
144
1.0
145
0.0
146
1.0
147
0.09
 71
     0
 72
     0
 73
     1
 74
     1
 75
     0
 76
     0
 77
     0
 78
     0
170
     0
171
     2
172
     0
173
     0
174
     0
175
     0
176
     0
177
     0
178
     0
  0
ENDTAB
  0
ENDSEC
  0
SECTION
  2
BLOCKS
  0
BLOCK
  8
0
  2
$MODEL_SPACE
 70
     0
 10
0.0
 20
0.0
 30
0.0
  3
$MODEL_SPACE
  1

  0
ENDBLK
  5
6AA
  8
0
  0
BLOCK
 67
     1
  8
0
  2
$PAPER_SPACE
 70
     0
 10
0.0
 20
0.0
 30
0.0
  3
$PAPER_SPACE
  1

  0
ENDBLK
  5
6A8
 67
     1
  8
0
  0
BLOCK
  8
0
  2
$ARROW1$
 70
     0
 10
0.0
 20
0.0
 30
0.0
  3
$ARROW1$
  1

  0
SOLID
  5
2E
  8
0
 62
     0
 10
-25.4
 20
4.318
 30
0.0
 11
-25.4
 21
-4.318
 31
0.0
 12
0.0
 22
0.0
 32
0.0
 13
0.0
 23
0.0
 33
0.0
  0
ENDBLK
  5
62F
  8
0
  0
BLOCK
  8
0
  2
$ARROW2$
 70
     0
 10
0.0
 20
0.0
 30
0.0
  3
$ARROW2$
  1

  0
SOLID
  5
32
  8
0
 62
     0
 10
-25.4
 20
12.7
 30
0.0
 11
-25.4
 21
-12.7
 31
0.0
 12
0.0
 22
0.0
 32
0.0
 13
0.0
 23
0.0
 33
0.0
  0
ENDBLK
  5
631
  8
0
  0
BLOCK
  8
0
  2
$ARROW3$
 70
     0
 10
0.0
 20
0.0
 30
0.0
  3
$ARROW3$
  1

  0
POLYLINE
  5
36
  8
0
  6
BYBLOCK
 62
     0
 66
     1
 10
0.0
 20
0.0
 30
0.0
 70
     1
 40
0.5
 41
0.5
  0
VERTEX
  5
361
  8
0
  6
BYBLOCK
 62
     0
 10
-6.35
 20
0.0
 30
0.0
 42
1.0
  0
VERTEX
  5
362
  8
0
  6
BYBLOCK
 62
     0
 10
6.35
 20
0.0
 30
0.0
 42
1.0
  0
SEQEND
  5
632
  8
0
  6
BYBLOCK
 62
     0
  0
ENDBLK
  5
634
  8
0
  0
BLOCK
  8
0
  2
$ARROW4$
 70
     0
 10
0.0
 20
0.0
 30
0.0
  3
$ARROW4$
  1

  0
LINE
  5
3D
  8
0
  6
BYBLOCK
 62
     0
 10
12.7
 20
12.7
 30
0.0
 11
-12.7
 21
-12.7
 31
0.0
  0
ENDBLK
  5
636
  8
0
  0
BLOCK
  8
0
  2
$ARROW5$
 70
     0
 10
0.0
 20
0.0
 30
0.0
  3
$ARROW5$
  1

  0
LINE
  5
41
  8
0
  6
BYBLOCK
 62
     0
 10
12.7
 20
12.7
 30
0.0
 11
-12.7
 21
-12.7
 31
0.0
  0
LINE
  5
42
  8
0
  6
BYBLOCK
 62
     0
 10
-12.7
 20
12.7
 30
0.0
 11
12.7
 21
-12.7
 31
0.0
  0
ENDBLK
  5
638
  8
0
  0
BLOCK
  8
0
  2
SIMBOLO_N__1
 70
     0
 10
0.0
 20
0.0
 30
0.0
  3
SIMBOLO_N__1
  1

  0
POLYLINE
  5
46
  8
0
 62
     3
 66
     1
 10
0.0
 20
0.0
 30
0.0
 40
0.5715
 41
0.5715
  0
VERTEX
  5
364
  8
0
 62
     3
 10
223.9467
 20
-12.9157
 30
0.0
  0
VERTEX
  5
365
  8
0
 62
     3
 10
223.9467
 20
14.5843
 30
0.0
  0
SEQEND
  5
639
  8
0
 62
     3
  0
POLYLINE
  5
4A
  8
0
 62
     3
 66
     1
 10
0.0
 20
0.0
 30
0.0
 40
0.5715
 41
0.5715
  0
VERTEX
  5
367
  8
0
 62
     3
 10
-0.0533
 20
-11.4157
 30
0.0
  0
VERTEX
  5
368
  8
0
 62
     3
 10
-0.0533
 20
9.4
 30
0.0
  0
SEQEND
  5
63A
  8
0
 62
     3
  0
POLYLINE
  5
4E
  8
0
 62
     3
 66
     1
 10
0.0
 20
0.0
 30
0.0
 40
0.5715
 41
0.5715
  0
VERTEX
  5
36A
  8
0
 62
     3
 10
-100.788
 20
200.4014
 30
0.0
  0
VERTEX
  5
36B
  8
0
 62
     3
 10
-124.6037
 20
186.6514
 30
0.0
  0
SEQEND
  5
63B
  8
0
 62
     3
  0
POLYLINE
  5
52
  8
0
 62
     3
 66
     1
 10
0.0
 20
0.0
 30
0.0
 40
0.5715
 41
0.5715
  0
VERTEX
  5
36D
  8
0
 62
     3
 10
-123.1587
 20
-187.4857
 30
0.0
  0
VERTEX
  5
36E
  8
0
 62
     3
 10
-99.343
 20
-201.2357
 30
0.0
  0
SEQEND
  5
63C
  8
0
 62
     3
  0
POLYLINE
  5
56
  8
0
 62
     3
 66
     1
 10
0.0
 20
0.0
 30
0.0
 40
1.0287
 41
1.0287
  0
VERTEX
  5
370
  8
0
 62
     3
 10
-39.1206
 20
-8.399900000000001
 30
0.0
  0
VERTEX
  5
371
  8
0
 62
     3
 10
-38.7941
 20
-11.1316
 30
0.0
  0
VERTEX
  5
372
  8
0
 62
     3
 10
-38.9733
 20
-13.8747
 30
0.0
  0
VERTEX
  5
373
  8
0
 62
     3
 10
-39.6523
 20
-16.539
 30
0.0
  0
VERTEX
  5
374
  8
0
 62
     3
 10
-40.8099
 20
-19.0372
 30
0.0
  0
SEQEND
  5
63D
  8
0
 62
     3
  0
POLYLINE
  5
5D
  8
0
 62
     3
 66
     1
 10
0.0
 20
0.0
 30
0.0
 40
1.0287
 41
1.0287
  0
VERTEX
  5
376
  8
0
 62
     3
 10
-40.8099
 20
19.0372
 30
0.0
  0
VERTEX
  5
377
  8
0
 62
     3
 10
-39.6523
 20
16.539
 30
0.0
  0
VERTEX
  5
378
  8
0
 62
     3
 10
-38.9733
 20
13.8747
 30
0.0
  0
VERTEX
  5
379
  8
0
 62
     3
 10
-38.7941
 20
11.1317
 30
0.0
  0
VERTEX
  5
37A
  8
0
 62
     3
 10
-39.1206
 20
8.399900000000001
 30
0.0
  0
SEQEND
  5
63E
  8
0
 62
     3
  0
POLYLINE
  5
64
  8
0
 62
     3
 66
     1
 10
0.0
 20
0.0
 30
0.0
 40
1.0287
 41
1.0287
  0
VERTEX
  5
37C
  8
0
 62
     3
 10
36.8117
 20
25.7777
 30
0.0
  0
VERTEX
  5
37D
  8
0
 62
     3
 10
34.0694
 20
26.0242
 30
0.0
  0
VERTEX
  5
37E
  8
0
 62
     3
 10
31.4225
 20
26.7684
 30
0.0
  0
VERTEX
  5
37F
  8
0
 62
     3
 10
28.9574
 20
27.9847
 30
0.0
  0
VERTEX
  5
380
  8
0
 62
     3
 10
26.7549
 20
29.6334
 30
0.0
  0
SEQEND
  5
63F
  8
0
 62
     3
  0
POLYLINE
  5
6B
  8
0
 62
     3
 66
     1
 10
0.0
 20
0.0
 30
0.0
 40
1.0287
 41
1.0287
  0
VERTEX
  5
382
  8
0
 62
     3
 10
3.8383
 20
-44.8148
 30
0.0
  0
VERTEX
  5
383
  8
0
 62
     3
 10
5.423
 20
-42.5632
 30
0.0
  0
VERTEX
  5
384
  8
0
 62
     3
 10
7.3909
 20
-40.643
 30
0.0
  0
VERTEX
  5
385
  8
0
 62
     3
 10
9.6768
 20
-39.1163
 30
0.0
  0
VERTEX
  5
386
  8
0
 62
     3
 10
12.2059
 20
-38.0333
 30
0.0
  0
SEQEND
  5
640
  8
0
 62
     3
  0
POLYLINE
  5
72
  8
0
 62
     3
 66
     1
 10
0.0
 20
0.0
 30
0.0
 40
1.0287
 41
1.0287
  0
VERTEX
  5
388
  8
0
 62
     3
 10
12.2059
 20
38.0333
 30
0.0
  0
VERTEX
  5
389
  8
0
 62
     3
 10
9.6768
 20
39.1163
 30
0.0
  0
VERTEX
  5
38A
  8
0
 62
     3
 10
7.3909
 20
40.6431
 30
0.0
  0
VERTEX
  5
38B
  8
0
 62
     3
 10
5.423
 20
42.5632
 30
0.0
  0
VERTEX
  5
38C
  8
0
 62
     3
 10
3.8383
 20
44.8149
 30
0.0
  0
SEQEND
  5
641
  8
0
 62
     3
  0
POLYLINE
  5
79
  8
0
 62
     3
 66
     1
 10
0.0
 20
0.0
 30
0.0
 40
1.0287
 41
1.0287
  0
VERTEX
  5
38E
  8
0
 62
     3
 10
26.7549
 20
-29.6334
 30
0.0
  0
VERTEX
  5
38F
  8
0
 62
     3
 10
28.9574
 20
-27.9847
 30
0.0
  0
VERTEX
  5
390
  8
0
 62
     3
 10
31.4225
 20
-26.7684
 30
0.0
  0
VERTEX
  5
391
  8
0
 62
     3
 10
34.0694
 20
-26.0242
 30
0.0
  0
VERTEX
  5
392
  8
0
 62
     3
 10
36.8117
 20
-25.7777
 30
0.0
  0
SEQEND
  5
642
  8
0
 62
     3
  0
POLYLINE
  5
80
  8
0
 62
     3
 66
     1
 10
0.0
 20
0.0
 30
0.0
 40
1.0287
 41
1.0287
  0
VERTEX
  5
394
  8
0
 62
     3
 10
-39.1206
 20
-8.399900000000001
 30
0.0
  0
VERTEX
  5
395
  8
0
 62
     3
 10
-38.7941
 20
-11.1316
 30
0.0
  0
VERTEX
  5
396
  8
0
 62
     3
 10
-38.9733
 20
-13.8747
 30
0.0
  0
VERTEX
  5
397
  8
0
 62
     3
 10
-39.6523
 20
-16.539
 30
0.0
  0
VERTEX
  5
398
  8
0
 62
     3
 10
-40.8099
 20
-19.0372
 30
0.0
  0
SEQEND
  5
643
  8
0
 62
     3
  0
POLYLINE
  5
87
  8
0
 62
     3
 66
     1
 10
0.0
 20
0.0
 30
0.0
 40
1.0287
 41
1.0287
  0
VERTEX
  5
39A
  8
0
 62
     3
 10
-40.8099
 20
19.0372
 30
0.0
  0
VERTEX
  5
39B
  8
0
 62
     3
 10
-39.6523
 20
16.539
 30
0.0
  0
VERTEX
  5
39C
  8
0
 62
     3
 10
-38.9733
 20
13.8747
 30
0.0
  0
VERTEX
  5
39D
  8
0
 62
     3
 10
-38.7941
 20
11.1317
 30
0.0
  0
VERTEX
  5
39E
  8
0
 62
     3
 10
-39.1206
 20
8.399900000000001
 30
0.0
  0
SEQEND
  5
644
  8
0
 62
     3
  0
POLYLINE
  5
8E
  8
0
 62
     3
 66
     1
 10
0.0
 20
0.0
 30
0.0
 40
1.0287
 41
1.0287
  0
VERTEX
  5
3A0
  8
0
 62
     3
 10
36.8117
 20
25.7777
 30
0.0
  0
VERTEX
  5
3A1
  8
0
 62
     3
 10
34.0694
 20
26.0242
 30
0.0
  0
VERTEX
  5
3A2
  8
0
 62
     3
 10
31.4225
 20
26.7684
 30
0.0
  0
VERTEX
  5
3A3
  8
0
 62
     3
 10
28.9574
 20
27.9847
 30
0.0
  0
VERTEX
  5
3A4
  8
0
 62
     3
 10
26.7549
 20
29.6334
 30
0.0
  0
SEQEND
  5
645
  8
0
 62
     3
  0
POLYLINE
  5
95
  8
0
 62
     3
 66
     1
 10
0.0
 20
0.0
 30
0.0
 40
1.0287
 41
1.0287
  0
VERTEX
  5
3A6
  8
0
 62
     3
 10
3.8383
 20
-44.8148
 30
0.0
  0
VERTEX
  5
3A7
  8
0
 62
     3
 10
5.423
 20
-42.5632
 30
0.0
  0
VERTEX
  5
3A8
  8
0
 62
     3
 10
7.3909
 20
-40.643
 30
0.0
  0
VERTEX
  5
3A9
  8
0
 62
     3
 10
9.6768
 20
-39.1163
 30
0.0
  0
VERTEX
  5
3AA
  8
0
 62
     3
 10
12.2059
 20
-38.0333
 30
0.0
  0
SEQEND
  5
646
  8
0
 62
     3
  0
POLYLINE
  5
9C
  8
0
 62
     3
 66
     1
 10
0.0
 20
0.0
 30
0.0
 40
1.0287
 41
1.0287
  0
VERTEX
  5
3AC
  8
0
 62
     3
 10
12.2059
 20
38.0333
 30
0.0
  0
VERTEX
  5
3AD
  8
0
 62
     3
 10
9.6768
 20
39.1163
 30
0.0
  0
VERTEX
  5
3AE
  8
0
 62
     3
 10
7.3909
 20
40.6431
 30
0.0
  0
VERTEX
  5
3AF
  8
0
 62
     3
 10
5.423
 20
42.5632
 30
0.0
  0
VERTEX
  5
3B0
  8
0
 62
     3
 10
3.8383
 20
44.8149
 30
0.0
  0
SEQEND
  5
647
  8
0
 62
     3
  0
POLYLINE
  5
A3
  8
0
 62
     3
 66
     1
 10
0.0
 20
0.0
 30
0.0
 40
1.0287
 41
1.0287
  0
VERTEX
  5
3B2
  8
0
 62
     3
 10
26.7549
 20
-29.6334
 30
0.0
  0
VERTEX
  5
3B3
  8
0
 62
     3
 10
28.9574
 20
-27.9847
 30
0.0
  0
VERTEX
  5
3B4
  8
0
 62
     3
 10
31.4225
 20
-26.7684
 30
0.0
  0
VERTEX
  5
3B5
  8
0
 62
     3
 10
34.0694
 20
-26.0242
 30
0.0
  0
VERTEX
  5
3B6
  8
0
 62
     3
 10
36.8117
 20
-25.7777
 30
0.0
  0
SEQEND
  5
648
  8
0
 62
     3
  0
POLYLINE
  5
AA
  8
0
 62
     3
 66
     1
 10
0.0
 20
0.0
 30
0.0
 40
1.0287
 41
1.0287
  0
VERTEX
  5
3B8
  8
0
 62
     3
 10
36.8117
 20
25.7777
 30
0.0
  0
VERTEX
  5
3B9
  8
0
 62
     3
 10
37.946
 20
25.7807
 30
0.0
  0
SEQEND
  5
649
  8
0
 62
     3
  0
POLYLINE
  5
AE
  8
0
 62
     3
 66
     1
 10
0.0
 20
0.0
 30
0.0
 40
1.0287
 41
1.0287
  0
VERTEX
  5
3BB
  8
0
 62
     3
 10
36.8117
 20
25.7777
 30
0.0
  0
VERTEX
  5
3BC
  8
0
 62
     3
 10
38.033
 20
25.7809
 30
0.0
  0
SEQEND
  5
64A
  8
0
 62
     3
  0
POLYLINE
  5
B2
  8
0
 62
     3
 66
     1
 10
0.0
 20
0.0
 30
0.0
 40
1.0287
 41
1.0287
  0
VERTEX
  5
3BE
  8
0
 62
     3
 10
-39.1595
 20
-8.408200000000001
 30
0.0
  0
VERTEX
  5
3BF
  8
0
 62
     3
 10
-39.9536
 20
-2.8217
 30
0.0
  0
VERTEX
  5
3C0
  8
0
 62
     3
 10
-39.9537
 20
2.8211
 30
0.0
  0
VERTEX
  5
3C1
  8
0
 62
     3
 10
-39.1595
 20
8.4084
 30
0.0
  0
SEQEND
  5
64B
  8
0
 62
     3
  0
POLYLINE
  5
B8
  8
0
 62
     3
 66
     1
 10
0.0
 20
0.0
 30
0.0
 40
1.0287
 41
1.0287
  0
VERTEX
  5
3C3
  8
0
 62
     3
 10
-93.8729
 20
-204.5002
 30
0.0
  0
VERTEX
  5
3C4
  8
0
 62
     3
 10
-95.9742
 20
-207.4976
 30
0.0
  0
VERTEX
  5
3C5
  8
0
 62
     3
 10
-98.56399999999999
 20
-210.0844
 30
0.0
  0
VERTEX
  5
3C6
  8
0
 62
     3
 10
-101.5637
 20
-212.1822
 30
0.0
  0
VERTEX
  5
3C7
  8
0
 62
     3
 10
-104.8821
 20
-213.7273
 30
0.0
  0
VERTEX
  5
3C8
  8
0
 62
     3
 10
-108.4184
 20
-214.6727
 30
0.0
  0
VERTEX
  5
3C9
  8
0
 62
     3
 10
-112.0655
 20
-214.9897
 30
0.0
  0
VERTEX
  5
3CA
  8
0
 62
     3
 10
-115.7118
 20
-214.6686
 30
0.0
  0
VERTEX
  5
3CB
  8
0
 62
     3
 10
-119.2471
 20
-213.7191
 30
0.0
  0
VERTEX
  5
3CC
  8
0
 62
     3
 10
-122.5637
 20
-212.1702
 30
0.0
  0
VERTEX
  5
3CD
  8
0
 62
     3
 10
-125.561
 20
-210.069
 30
0.0
  0
VERTEX
  5
3CE
  8
0
 62
     3
 10
-128.1478
 20
-207.4792
 30
0.0
  0
VERTEX
  5
3CF
  8
0
 62
     3
 10
-130.2458
 20
-204.4793
 30
0.0
  0
VERTEX
  5
3D0
  8
0
 62
     3
 10
-131.7909
 20
-201.1609
 30
0.0
  0
VERTEX
  5
3D1
  8
0
 62
     3
 10
-132.7363
 20
-197.6246
 30
0.0
  0
VERTEX
  5
3D2
  8
0
 62
     3
 10
-133.0533
 20
-193.9778
 30
0.0
  0
VERTEX
  5
3D3
  8
0
 62
     3
 10
-132.7322
 20
-190.3315
 30
0.0
  0
VERTEX
  5
3D4
  8
0
 62
     3
 10
-131.7827
 20
-186.7959
 30
0.0
  0
VERTEX
  5
3D5
  8
0
 62
     3
 10
-130.2337
 20
-183.4792
 30
0.0
  0
SEQEND
  5
64C
  8
0
 62
     3
  0
POLYLINE
  5
CD
  8
0
 62
     3
 66
     1
 10
0.0
 20
0.0
 30
0.0
 40
1.0287
 41
1.0287
  0
VERTEX
  5
3D7
  8
0
 62
     3
 10
26.7816
 20
-29.6628
 30
0.0
  0
VERTEX
  5
3D8
  8
0
 62
     3
 10
22.3408
 20
-33.1437
 30
0.0
  0
VERTEX
  5
3D9
  8
0
 62
     3
 10
17.4534
 20
-35.9655
 30
0.0
  0
VERTEX
  5
3DA
  8
0
 62
     3
 10
12.2179
 20
-38.0712
 30
0.0
  0
SEQEND
  5
64D
  8
0
 62
     3
  0
POLYLINE
  5
D3
  8
0
 62
     3
 66
     1
 10
0.0
 20
0.0
 30
0.0
 40
1.0287
 41
1.0287
  0
VERTEX
  5
3DC
  8
0
 62
     3
 10
12.218
 20
38.0711
 30
0.0
  0
VERTEX
  5
3DD
  8
0
 62
     3
 10
17.4534
 20
35.9655
 30
0.0
  0
VERTEX
  5
3DE
  8
0
 62
     3
 10
22.3403
 20
33.144
 30
0.0
  0
VERTEX
  5
3DF
  8
0
 62
     3
 10
26.7817
 20
29.6628
 30
0.0
  0
SEQEND
  5
64E
  8
0
 62
     3
  0
POLYLINE
  5
D9
  8
0
 62
     3
 66
     1
 10
0.0
 20
0.0
 30
0.0
 40
1.0287
 41
1.0287
  0
VERTEX
  5
3E1
  8
0
 62
     3
 10
-39.1595
 20
-8.408200000000001
 30
0.0
  0
VERTEX
  5
3E2
  8
0
 62
     3
 10
-39.9536
 20
-2.8217
 30
0.0
  0
VERTEX
  5
3E3
  8
0
 62
     3
 10
-39.9537
 20
2.8211
 30
0.0
  0
VERTEX
  5
3E4
  8
0
 62
     3
 10
-39.1595
 20
8.4084
 30
0.0
  0
SEQEND
  5
64F
  8
0
 62
     3
  0
POLYLINE
  5
DF
  8
0
 62
     3
 66
     1
 10
0.0
 20
0.0
 30
0.0
 40
1.0287
 41
1.0287
  0
VERTEX
  5
3E6
  8
0
 62
     3
 10
26.7816
 20
-29.6628
 30
0.0
  0
VERTEX
  5
3E7
  8
0
 62
     3
 10
22.3408
 20
-33.1437
 30
0.0
  0
VERTEX
  5
3E8
  8
0
 62
     3
 10
17.4534
 20
-35.9655
 30
0.0
  0
VERTEX
  5
3E9
  8
0
 62
     3
 10
12.2179
 20
-38.0712
 30
0.0
  0
SEQEND
  5
650
  8
0
 62
     3
  0
POLYLINE
  5
E5
  8
0
 62
     3
 66
     1
 10
0.0
 20
0.0
 30
0.0
 40
1.0287
 41
1.0287
  0
VERTEX
  5
3EB
  8
0
 62
     3
 10
12.218
 20
38.0711
 30
0.0
  0
VERTEX
  5
3EC
  8
0
 62
     3
 10
17.4534
 20
35.9655
 30
0.0
  0
VERTEX
  5
3ED
  8
0
 62
     3
 10
22.3403
 20
33.144
 30
0.0
  0
VERTEX
  5
3EE
  8
0
 62
     3
 10
26.7817
 20
29.6628
 30
0.0
  0
SEQEND
  5
651
  8
0
 62
     3
  0
POLYLINE
  5
EB
  8
0
 62
     3
 66
     1
 10
0.0
 20
0.0
 30
0.0
 40
1.0287
 41
1.0287
  0
VERTEX
  5
3F0
  8
0
 62
     3
 10
-130.2153
 20
183.4475
 30
0.0
  0
VERTEX
  5
3F1
  8
0
 62
     3
 10
-131.77
 20
186.761
 30
0.0
  0
VERTEX
  5
3F2
  8
0
 62
     3
 10
-132.7256
 20
190.2946
 30
0.0
  0
VERTEX
  5
3F3
  8
0
 62
     3
 10
-133.0532
 20
193.9407
 30
0.0
  0
VERTEX
  5
3F4
  8
0
 62
     3
 10
-132.7427
 20
197.5879
 30
0.0
  0
VERTEX
  5
3F5
  8
0
 62
     3
 10
-131.8036
 20
201.1259
 30
0.0
  0
VERTEX
  5
3F6
  8
0
 62
     3
 10
-130.2644
 20
204.4471
 30
0.0
  0
VERTEX
  5
3F7
  8
0
 62
     3
 10
-128.1719
 20
207.4504
 30
0.0
  0
VERTEX
  5
3F8
  8
0
 62
     3
 10
-125.5894
 20
210.045
 30
0.0
  0
VERTEX
  5
3F9
  8
0
 62
     3
 10
-122.5959
 20
212.1516
 30
0.0
  0
VERTEX
  5
3FA
  8
0
 62
     3
 10
-119.282
 20
213.7064
 30
0.0
  0
VERTEX
  5
3FB
  8
0
 62
     3
 10
-115.7484
 20
214.662
 30
0.0
  0
VERTEX
  5
3FC
  8
0
 62
     3
 10
-112.1026
 20
214.9896
 30
0.0
  0
VERTEX
  5
3FD
  8
0
 62
     3
 10
-108.4551
 20
214.6791
 30
0.0
  0
VERTEX
  5
3FE
  8
0
 62
     3
 10
-104.9171
 20
213.74
 30
0.0
  0
VERTEX
  5
3FF
  8
0
 62
     3
 10
-101.5959
 20
212.2008
 30
0.0
  0
VERTEX
  5
400
  8
0
 62
     3
 10
-98.5926
 20
210.1083
 30
0.0
  0
VERTEX
  5
401
  8
0
 62
     3
 10
-95.9982
 20
207.5261
 30
0.0
  0
VERTEX
  5
402
  8
0
 62
     3
 10
-93.8913
 20
204.5319
 30
0.0
  0
SEQEND
  5
652
  8
0
 62
     3
  0
POLYLINE
  5
100
  8
0
 62
     3
 66
     1
 10
0.0
 20
0.0
 30
0.0
 40
1.0287
 41
1.0287
  0
VERTEX
  5
404
  8
0
 62
     3
 10
223.9467
 20
21.0
 30
0.0
  0
VERTEX
  5
405
  8
0
 62
     3
 10
227.5932
 20
20.681
 30
0.0
  0
VERTEX
  5
406
  8
0
 62
     3
 10
231.129
 20
19.7336
 30
0.0
  0
VERTEX
  5
407
  8
0
 62
     3
 10
234.4468
 20
18.1865
 30
0.0
  0
VERTEX
  5
408
  8
0
 62
     3
 10
237.4453
 20
16.0869
 30
0.0
  0
VERTEX
  5
409
  8
0
 62
     3
 10
240.0336
 20
13.4986
 30
0.0
  0
VERTEX
  5
40A
  8
0
 62
     3
 10
242.1332
 20
10.5001
 30
0.0
  0
VERTEX
  5
40B
  8
0
 62
     3
 10
243.6803
 20
7.1823
 30
0.0
  0
VERTEX
  5
40C
  8
0
 62
     3
 10
244.6277
 20
3.6465
 30
0.0
  0
VERTEX
  5
40D
  8
0
 62
     3
 10
244.9467
 20
0.0
 30
0.0
  0
VERTEX
  5
40E
  8
0
 62
     3
 10
244.6277
 20
-3.6465
 30
0.0
  0
VERTEX
  5
40F
  8
0
 62
     3
 10
243.6803
 20
-7.1823
 30
0.0
  0
VERTEX
  5
410
  8
0
 62
     3
 10
242.1332
 20
-10.5001
 30
0.0
  0
VERTEX
  5
411
  8
0
 62
     3
 10
240.0336
 20
-13.4986
 30
0.0
  0
VERTEX
  5
412
  8
0
 62
     3
 10
237.4453
 20
-16.0869
 30
0.0
  0
VERTEX
  5
413
  8
0
 62
     3
 10
234.4468
 20
-18.1865
 30
0.0
  0
VERTEX
  5
414
  8
0
 62
     3
 10
231.129
 20
-19.7336
 30
0.0
  0
VERTEX
  5
415
  8
0
 62
     3
 10
227.5932
 20
-20.681
 30
0.0
  0
VERTEX
  5
416
  8
0
 62
     3
 10
223.9466
 20
-20.9999
 30
0.0
  0
SEQEND
  5
653
  8
0
 62
     3
  0
POLYLINE
  5
115
  8
0
 62
     3
 66
     1
 10
0.0
 20
0.0
 30
0.0
 40
1.0287
 41
1.0287
  0
VERTEX
  5
418
  8
0
 62
     3
 10
21.0521
 20
-2.0001
 30
0.0
  0
VERTEX
  5
419
  8
0
 62
     3
 10
20.3865
 20
-5.6264
 30
0.0
  0
VERTEX
  5
41A
  8
0
 62
     3
 10
19.1025
 20
-9.082599999999999
 30
0.0
  0
VERTEX
  5
41B
  8
0
 62
     3
 10
17.2394
 20
-12.2638
 30
0.0
  0
VERTEX
  5
41C
  8
0
 62
     3
 10
14.8535
 20
-15.0741
 30
0.0
  0
VERTEX
  5
41D
  8
0
 62
     3
 10
12.0166
 20
-17.4286
 30
0.0
  0
VERTEX
  5
41E
  8
0
 62
     3
 10
8.8148
 20
-19.2561
 30
0.0
  0
VERTEX
  5
41F
  8
0
 62
     3
 10
5.3448
 20
-20.5012
 30
0.0
  0
VERTEX
  5
420
  8
0
 62
     3
 10
1.7112
 20
-21.1264
 30
0.0
  0
VERTEX
  5
421
  8
0
 62
     3
 10
-1.9754
 20
-21.1127
 30
0.0
  0
VERTEX
  5
422
  8
0
 62
     3
 10
-5.6039
 20
-20.4605
 30
0.0
  0
VERTEX
  5
423
  8
0
 62
     3
 10
-9.064500000000001
 20
-19.1895
 30
0.0
  0
VERTEX
  5
424
  8
0
 62
     3
 10
-12.2527
 20
-17.3383
 30
0.0
  0
VERTEX
  5
425
  8
0
 62
     3
 10
-15.0718
 20
-14.9628
 30
0.0
  0
VERTEX
  5
426
  8
0
 62
     3
 10
-17.4371
 20
-12.1345
 30
0.0
  0
VERTEX
  5
427
  8
0
 62
     3
 10
-19.2764
 20
-8.939399999999999
 30
0.0
  0
VERTEX
  5
428
  8
0
 62
     3
 10
-20.5344
 20
-5.4741
 30
0.0
  0
VERTEX
  5
429
  8
0
 62
     3
 10
-21.173
 20
-1.8432
 30
0.0
  0
VERTEX
  5
42A
  8
0
 62
     3
 10
-21.173
 20
1.8435
 30
0.0
  0
VERTEX
  5
42B
  8
0
 62
     3
 10
-20.5343
 20
5.4744
 30
0.0
  0
VERTEX
  5
42C
  8
0
 62
     3
 10
-19.2761
 20
8.94
 30
0.0
  0
VERTEX
  5
42D
  8
0
 62
     3
 10
-17.4367
 20
12.135
 30
0.0
  0
VERTEX
  5
42E
  8
0
 62
     3
 10
-15.0716
 20
14.963
 30
0.0
  0
VERTEX
  5
42F
  8
0
 62
     3
 10
-12.2524
 20
17.3385
 30
0.0
  0
VERTEX
  5
430
  8
0
 62
     3
 10
-9.0642
 20
19.1897
 30
0.0
  0
VERTEX
  5
431
  8
0
 62
     3
 10
-5.6036
 20
20.4606
 30
0.0
  0
VERTEX
  5
432
  8
0
 62
     3
 10
-1.9747
 20
21.1127
 30
0.0
  0
VERTEX
  5
433
  8
0
 62
     3
 10
1.7119
 20
21.1264
 30
0.0
  0
VERTEX
  5
434
  8
0
 62
     3
 10
5.3451
 20
20.5012
 30
0.0
  0
VERTEX
  5
435
  8
0
 62
     3
 10
8.815099999999999
 20
19.256
 30
0.0
  0
VERTEX
  5
436
  8
0
 62
     3
 10
12.0169
 20
17.4284
 30
0.0
  0
VERTEX
  5
437
  8
0
 62
     3
 10
14.8537
 20
15.0739
 30
0.0
  0
VERTEX
  5
438
  8
0
 62
     3
 10
17.2398
 20
12.2633
 30
0.0
  0
VERTEX
  5
439
  8
0
 62
     3
 10
19.1028
 20
9.082000000000001
 30
0.0
  0
VERTEX
  5
43A
  8
0
 62
     3
 10
20.3865
 20
5.6261
 30
0.0
  0
VERTEX
  5
43B
  8
0
 62
     3
 10
21.0521
 20
1.9999
 30
0.0
  0
SEQEND
  5
654
  8
0
 62
     3
  0
POLYLINE
  5
13B
  8
0
 62
     3
 66
     1
 10
0.0
 20
0.0
 30
0.0
 40
1.0287
 41
1.0287
  0
VERTEX
  5
43D
  8
0
 62
     3
 10
66.48260000000001
 20
2.0
 30
0.0
  0
VERTEX
  5
43E
  8
0
 62
     3
 10
66.88249999999999
 20
2.5712
 30
0.0
  0
VERTEX
  5
43F
  8
0
 62
     3
 10
67.3755
 20
3.0642
 30
0.0
  0
VERTEX
  5
440
  8
0
 62
     3
 10
67.94670000000001
 20
3.4641
 30
0.0
  0
VERTEX
  5
441
  8
0
 62
     3
 10
68.57859999999999
 20
3.7588
 30
0.0
  0
VERTEX
  5
442
  8
0
 62
     3
 10
69.2521
 20
3.9392
 30
0.0
  0
VERTEX
  5
443
  8
0
 62
     3
 10
69.94670000000001
 20
4.0
 30
0.0
  0
VERTEX
  5
444
  8
0
 62
     3
 10
70.6413
 20
3.9392
 30
0.0
  0
VERTEX
  5
445
  8
0
 62
     3
 10
71.31480000000001
 20
3.7588
 30
0.0
  0
VERTEX
  5
446
  8
0
 62
     3
 10
71.94670000000001
 20
3.4641
 30
0.0
  0
VERTEX
  5
447
  8
0
 62
     3
 10
72.5179
 20
3.0642
 30
0.0
  0
VERTEX
  5
448
  8
0
 62
     3
 10
73.01090000000001
 20
2.5712
 30
0.0
  0
VERTEX
  5
449
  8
0
 62
     3
 10
73.4108
 20
2.0
 30
0.0
  0
VERTEX
  5
44A
  8
0
 62
     3
 10
73.7055
 20
1.3681
 30
0.0
  0
VERTEX
  5
44B
  8
0
 62
     3
 10
73.88590000000001
 20
0.6946
 30
0.0
  0
VERTEX
  5
44C
  8
0
 62
     3
 10
73.94670000000001
 20
0.0
 30
0.0
  0
VERTEX
  5
44D
  8
0
 62
     3
 10
73.88590000000001
 20
-0.6946
 30
0.0
  0
VERTEX
  5
44E
  8
0
 62
     3
 10
73.7055
 20
-1.3681
 30
0.0
  0
VERTEX
  5
44F
  8
0
 62
     3
 10
73.4108
 20
-2.0
 30
0.0
  0
VERTEX
  5
450
  8
0
 62
     3
 10
73.01090000000001
 20
-2.5711
 30
0.0
  0
VERTEX
  5
451
  8
0
 62
     3
 10
72.5179
 20
-3.0642
 30
0.0
  0
VERTEX
  5
452
  8
0
 62
     3
 10
71.94670000000001
 20
-3.4641
 30
0.0
  0
VERTEX
  5
453
  8
0
 62
     3
 10
71.31480000000001
 20
-3.7588
 30
0.0
  0
VERTEX
  5
454
  8
0
 62
     3
 10
70.6413
 20
-3.9392
 30
0.0
  0
VERTEX
  5
455
  8
0
 62
     3
 10
69.9468
 20
-4.0
 30
0.0
  0
VERTEX
  5
456
  8
0
 62
     3
 10
69.2521
 20
-3.9392
 30
0.0
  0
VERTEX
  5
457
  8
0
 62
     3
 10
68.57859999999999
 20
-3.7588
 30
0.0
  0
VERTEX
  5
458
  8
0
 62
     3
 10
67.94670000000001
 20
-3.4641
 30
0.0
  0
VERTEX
  5
459
  8
0
 62
     3
 10
67.37560000000001
 20
-3.0642
 30
0.0
  0
VERTEX
  5
45A
  8
0
 62
     3
 10
66.8826
 20
-2.5712
 30
0.0
  0
VERTEX
  5
45B
  8
0
 62
     3
 10
66.48260000000001
 20
-2.0
 30
0.0
  0
SEQEND
  5
655
  8
0
 62
     3
  0
POLYLINE
  5
15C
  8
0
 62
     3
 66
     1
 10
0.0
 20
0.0
 30
0.0
 40
1.0287
 41
1.0287
  0
VERTEX
  5
45D
  8
0
 62
     3
 10
3.8383
 20
44.8149
 30
0.0
  0
VERTEX
  5
45E
  8
0
 62
     3
 10
-93.8916
 20
204.5325
 30
0.0
  0
SEQEND
  5
656
  8
0
 62
     3
  0
POLYLINE
  5
160
  8
0
 62
     3
 66
     1
 10
0.0
 20
0.0
 30
0.0
 40
1.0287
 41
1.0287
  0
VERTEX
  5
460
  8
0
 62
     3
 10
-40.8099
 20
19.0373
 30
0.0
  0
VERTEX
  5
461
  8
0
 62
     3
 10
-130.2152
 20
183.4471
 30
0.0
  0
SEQEND
  5
657
  8
0
 62
     3
  0
POLYLINE
  5
164
  8
0
 62
     3
 66
     1
 10
0.0
 20
0.0
 30
0.0
 40
1.0287
 41
1.0287
  0
VERTEX
  5
463
  8
0
 62
     3
 10
3.8383
 20
-44.8149
 30
0.0
  0
VERTEX
  5
464
  8
0
 62
     3
 10
-93.8728
 20
-204.5001
 30
0.0
  0
SEQEND
  5
658
  8
0
 62
     3
  0
POLYLINE
  5
168
  8
0
 62
     3
 66
     1
 10
0.0
 20
0.0
 30
0.0
 40
1.0287
 41
1.0287
  0
VERTEX
  5
466
  8
0
 62
     3
 10
-40.8099
 20
-19.0373
 30
0.0
  0
VERTEX
  5
467
  8
0
 62
     3
 10
-130.2338
 20
-183.4793
 30
0.0
  0
SEQEND
  5
659
  8
0
 62
     3
  0
POLYLINE
  5
16C
  8
0
 62
     3
 66
     1
 10
0.0
 20
0.0
 30
0.0
 40
1.0287
 41
1.0287
  0
VERTEX
  5
469
  8
0
 62
     3
 10
36.8117
 20
25.7777
 30
0.0
  0
VERTEX
  5
46A
  8
0
 62
     3
 10
223.9467
 20
21.0
 30
0.0
  0
SEQEND
  5
65A
  8
0
 62
     3
  0
POLYLINE
  5
170
  8
0
 62
     3
 66
     1
 10
0.0
 20
0.0
 30
0.0
 40
1.0287
 41
1.0287
  0
VERTEX
  5
46C
  8
0
 62
     3
 10
36.8118
 20
-25.7775
 30
0.0
  0
VERTEX
  5
46D
  8
0
 62
     3
 10
223.9467
 20
-21.0
 30
0.0
  0
SEQEND
  5
65B
  8
0
 62
     3
  0
POLYLINE
  5
174
  8
0
 62
     3
 66
     1
 10
0.0
 20
0.0
 30
0.0
 40
0.5715
 41
0.5715
  0
VERTEX
  5
46F
  8
0
 62
     3
 10
-11.0
 20
0.0
 30
0.0
  0
VERTEX
  5
470
  8
0
 62
     3
 10
11.0
 20
0.0
 30
0.0
  0
SEQEND
  5
65C
  8
0
 62
     3
  0
POLYLINE
  5
178
  8
0
 62
     3
 66
     1
 10
0.0
 20
0.0
 30
0.0
 40
0.5715
 41
0.5715
  0
VERTEX
  5
472
  8
0
 62
     3
 10
213.0
 20
0.0
 30
0.0
  0
VERTEX
  5
473
  8
0
 62
     3
 10
237.0
 20
0.0
 30
0.0
  0
SEQEND
  5
65D
  8
0
 62
     3
  0
POLYLINE
  5
17C
  8
0
 62
     3
 66
     1
 10
0.0
 20
0.0
 30
0.0
 40
0.5715
 41
0.5715
  0
VERTEX
  5
475
  8
0
 62
     3
 10
-106.5
 20
184.4634
 30
0.0
  0
VERTEX
  5
476
  8
0
 62
     3
 10
-118.5
 20
205.2481
 30
0.0
  0
SEQEND
  5
65E
  8
0
 62
     3
  0
POLYLINE
  5
180
  8
0
 62
     3
 66
     1
 10
0.0
 20
0.0
 30
0.0
 40
0.5715
 41
0.5715
  0
VERTEX
  5
478
  8
0
 62
     3
 10
-106.5
 20
-184.4634
 30
0.0
  0
VERTEX
  5
479
  8
0
 62
     3
 10
-118.5
 20
-205.2481
 30
0.0
  0
SEQEND
  5
65F
  8
0
 62
     3
  0
POLYLINE
  5
184
  8
0
 62
     3
 66
     1
 10
0.0
 20
0.0
 30
0.0
 40
1.0287
 41
1.0287
  0
VERTEX
  5
47B
  8
0
 62
     3
 10
39.893
 20
-2.0701
 30
0.0
  0
VERTEX
  5
47C
  8
0
 62
     3
 10
38.9524
 20
-8.863200000000001
 30
0.0
  0
VERTEX
  5
47D
  8
0
 62
     3
 10
36.8653
 20
-15.3953
 30
0.0
  0
VERTEX
  5
47E
  8
0
 62
     3
 10
33.6929
 20
-21.4755
 30
0.0
  0
VERTEX
  5
47F
  8
0
 62
     3
 10
29.5285
 20
-26.9243
 30
0.0
  0
VERTEX
  5
480
  8
0
 62
     3
 10
24.4951
 20
-31.5813
 30
0.0
  0
VERTEX
  5
481
  8
0
 62
     3
 10
18.7396
 20
-35.3104
 30
0.0
  0
VERTEX
  5
482
  8
0
 62
     3
 10
12.4317
 20
-38.0016
 30
0.0
  0
VERTEX
  5
483
  8
0
 62
     3
 10
5.7573
 20
-39.5757
 30
0.0
  0
VERTEX
  5
484
  8
0
 62
     3
 10
-1.0883
 20
-39.9866
 30
0.0
  0
VERTEX
  5
485
  8
0
 62
     3
 10
-7.9036
 20
-39.2221
 30
0.0
  0
VERTEX
  5
486
  8
0
 62
     3
 10
-14.4876
 20
-37.3049
 30
0.0
  0
VERTEX
  5
487
  8
0
 62
     3
 10
-20.6478
 20
-34.2909
 30
0.0
  0
VERTEX
  5
488
  8
0
 62
     3
 10
-26.2027
 20
-30.269
 30
0.0
  0
VERTEX
  5
489
  8
0
 62
     3
 10
-30.9888
 20
-25.3574
 30
0.0
  0
VERTEX
  5
48A
  8
0
 62
     3
 10
-34.8653
 20
-19.7009
 30
0.0
  0
VERTEX
  5
48B
  8
0
 62
     3
 10
-37.719
 20
-13.4647
 30
0.0
  0
VERTEX
  5
48C
  8
0
 62
     3
 10
-39.4654
 20
-6.8328
 30
0.0
  0
VERTEX
  5
48D
  8
0
 62
     3
 10
-40.0533
 20
-0.0006
 30
0.0
  0
VERTEX
  5
48E
  8
0
 62
     3
 10
-39.4655
 20
6.8322
 30
0.0
  0
VERTEX
  5
48F
  8
0
 62
     3
 10
-37.7192
 20
13.4641
 30
0.0
  0
VERTEX
  5
490
  8
0
 62
     3
 10
-34.8659
 20
19.6998
 30
0.0
  0
VERTEX
  5
491
  8
0
 62
     3
 10
-30.9892
 20
25.3569
 30
0.0
  0
VERTEX
  5
492
  8
0
 62
     3
 10
-26.2031
 20
30.2686
 30
0.0
  0
VERTEX
  5
493
  8
0
 62
     3
 10
-20.6489
 20
34.2903
 30
0.0
  0
VERTEX
  5
494
  8
0
 62
     3
 10
-14.4887
 20
37.3044
 30
0.0
  0
VERTEX
  5
495
  8
0
 62
     3
 10
-7.9042
 20
39.222
 30
0.0
  0
VERTEX
  5
496
  8
0
 62
     3
 10
-1.0896
 20
39.9866
 30
0.0
  0
VERTEX
  5
497
  8
0
 62
     3
 10
5.7561
 20
39.5759
 30
0.0
  0
VERTEX
  5
498
  8
0
 62
     3
 10
12.4311
 20
38.0018
 30
0.0
  0
VERTEX
  5
499
  8
0
 62
     3
 10
18.7386
 20
35.311
 30
0.0
  0
VERTEX
  5
49A
  8
0
 62
     3
 10
24.4941
 20
31.582
 30
0.0
  0
VERTEX
  5
49B
  8
0
 62
     3
 10
29.5281
 20
26.9248
 30
0.0
  0
VERTEX
  5
49C
  8
0
 62
     3
 10
33.6922
 20
21.4765
 30
0.0
  0
VERTEX
  5
49D
  8
0
 62
     3
 10
36.8649
 20
15.3964
 30
0.0
  0
VERTEX
  5
49E
  8
0
 62
     3
 10
38.9523
 20
8.8638
 30
0.0
  0
VERTEX
  5
49F
  8
0
 62
     3
 10
39.893
 20
2.0702
 30
0.0
  0
SEQEND
  5
660
  8
0
 62
     3
  0
POLYLINE
  5
1AB
  8
0
 62
     3
 66
     1
 10
0.0
 20
0.0
 30
0.0
 40
1.0287
 41
1.0287
  0
VERTEX
  5
4A1
  8
0
 62
     3
 10
66.48260000000001
 20
2.0
 30
0.0
  0
VERTEX
  5
4A2
  8
0
 62
     3
 10
21.0521
 20
2.0
 30
0.0
  0
SEQEND
  5
661
  8
0
 62
     3
  0
POLYLINE
  5
1AF
  8
0
 62
     3
 66
     1
 10
0.0
 20
0.0
 30
0.0
 40
1.0287
 41
1.0287
  0
VERTEX
  5
4A4
  8
0
 62
     3
 10
66.48260000000001
 20
-2.0
 30
0.0
  0
VERTEX
  5
4A5
  8
0
 62
     3
 10
21.0521
 20
-2.0
 30
0.0
  0
SEQEND
  5
662
  8
0
 62
     3
  0
ENDBLK
  5
664
  8
0
  0
BLOCK
  8
0
  2
SIMBOLO_N__2
 70
     0
 10
0.0
 20
0.0
 30
0.0
  3
SIMBOLO_N__2
  1

  0
POLYLINE
  5
1B6
  8
0
 62
     3
 66
     1
 10
0.0
 20
0.0
 30
0.0
 40
0.5715
 41
0.5715
  0
VERTEX
  5
4A7
  8
0
 62
     3
 10
0.0
 20
3.6921
 30
0.0
  0
VERTEX
  5
4A8
  8
0
 62
     3
 10
0.0
 20
-92.3079
 30
0.0
  0
SEQEND
  5
665
  8
0
 62
     3
  0
POLYLINE
  5
1BA
  8
0
 62
     3
 66
     1
 10
0.0
 20
0.0
 30
0.0
 40
0.5715
 41
0.5715
  0
VERTEX
  5
4AA
  8
0
 62
     3
 10
224.0
 20
-149.2083
 30
0.0
  0
VERTEX
  5
4AB
  8
0
 62
     3
 10
224.0
 20
-85.8976
 30
0.0
  0
SEQEND
  5
666
  8
0
 62
     3
  0
POLYLINE
  5
1BE
  8
0
 62
     3
 66
     1
 10
0.0
 20
0.0
 30
0.0
 40
1.0287
 41
1.0287
  0
VERTEX
  5
4AD
  8
0
 62
     3
 10
66.5864
 20
-11.5811
 30
0.0
  0
VERTEX
  5
4AE
  8
0
 62
     3
 10
67.2066
 20
-11.7001
 30
0.0
  0
VERTEX
  5
4AF
  8
0
 62
     3
 10
68.01170000000001
 20
-11.8682
 30
0.0
  0
VERTEX
  5
4B0
  8
0
 62
     3
 10
68.9542
 20
-12.0599
 30
0.0
  0
VERTEX
  5
4B1
  8
0
 62
     3
 10
69.9593
 20
-12.2484
 30
0.0
  0
VERTEX
  5
4B2
  8
0
 62
     3
 10
70.9755
 20
-12.4196
 30
0.0
  0
VERTEX
  5
4B3
  8
0
 62
     3
 10
71.9194
 20
-12.5635
 30
0.0
  0
VERTEX
  5
4B4
  8
0
 62
     3
 10
72.7449
 20
-12.6847
 30
0.0
  0
VERTEX
  5
4B5
  8
0
 62
     3
 10
73.38890000000001
 20
-12.79
 30
0.0
  0
SEQEND
  5
667
  8
0
 62
     3
  0
POLYLINE
  5
1C9
  8
0
 62
     3
 66
     1
 10
0.0
 20
0.0
 30
0.0
 40
1.0287
 41
1.0287
  0
VERTEX
  5
4B7
  8
0
 62
     3
 10
39.95
 20
-83.0
 30
0.0
  0
VERTEX
  5
4B8
  8
0
 62
     3
 10
39.8503
 20
-83.62309999999999
 30
0.0
  0
VERTEX
  5
4B9
  8
0
 62
     3
 10
39.5644
 20
-84.1798
 30
0.0
  0
VERTEX
  5
4BA
  8
0
 62
     3
 10
39.1286
 20
-84.615
 30
0.0
  0
VERTEX
  5
4BB
  8
0
 62
     3
 10
38.5705
 20
-84.9007
 30
0.0
  0
VERTEX
  5
4BC
  8
0
 62
     3
 10
37.9474
 20
-85.0
 30
0.0
  0
SEQEND
  5
668
  8
0
 62
     3
  0
POLYLINE
  5
1D1
  8
0
 62
     3
 66
     1
 10
0.0
 20
0.0
 30
0.0
 40
1.0287
 41
1.0287
  0
VERTEX
  5
4BE
  8
0
 62
     3
 10
-131.8526
 20
-112.1427
 30
0.0
  0
VERTEX
  5
4BF
  8
0
 62
     3
 10
-133.0
 20
-145.0
 30
0.0
  0
SEQEND
  5
669
  8
0
 62
     3
  0
POLYLINE
  5
1D5
  8
0
 62
     3
 66
     1
 10
0.0
 20
0.0
 30
0.0
 40
1.0287
 41
1.0287
  0
VERTEX
  5
4C1
  8
0
 62
     3
 10
-91.0
 20
-130.0996
 30
0.0
  0
VERTEX
  5
4C2
  8
0
 62
     3
 10
-91.0
 20
-145.0
 30
0.0
  0
SEQEND
  5
66A
  8
0
 62
     3
  0
POLYLINE
  5
1D9
  8
0
 62
     3
 66
     1
 10
0.0
 20
0.0
 30
0.0
 40
1.0287
 41
1.0287
  0
VERTEX
  5
4C4
  8
0
 62
     3
 10
-38.6541
 20
-5.8952
 30
0.0
  0
VERTEX
  5
4C5
  8
0
 62
     3
 10
-38.7603
 20
-11.9801
 30
0.0
  0
SEQEND
  5
66B
  8
0
 62
     3
  0
POLYLINE
  5
1DD
  8
0
 62
     3
 66
     1
 10
0.0
 20
0.0
 30
0.0
 40
1.0287
 41
1.0287
  0
VERTEX
  5
4C7
  8
0
 62
     3
 10
-29.4354
 20
-9.3131
 30
0.0
  0
VERTEX
  5
4C8
  8
0
 62
     3
 10
-29.4309
 20
-9.312099999999999
 30
0.0
  0
SEQEND
  5
66C
  8
0
 62
     3
  0
POLYLINE
  5
1E1
  8
0
 62
     3
 66
     1
 10
0.0
 20
0.0
 30
0.0
 40
1.0287
 41
1.0287
  0
VERTEX
  5
4CA
  8
0
 62
     3
 10
-32.655
 20
0.0
 30
0.0
  0
VERTEX
  5
4CB
  8
0
 62
     3
 10
32.655
 20
0.0
 30
0.0
  0
SEQEND
  5
66D
  8
0
 62
     3
  0
POLYLINE
  5
1E5
  8
0
 62
     3
 66
     1
 10
0.0
 20
0.0
 30
0.0
 40
1.0287
 41
1.0287
  0
VERTEX
  5
4CD
  8
0
 62
     3
 10
48.0503
 20
-8.8965
 30
0.0
  0
VERTEX
  5
4CE
  8
0
 62
     3
 10
49.0033
 20
-9.013
 30
0.0
  0
SEQEND
  5
66E
  8
0
 62
     3
  0
POLYLINE
  5
1E9
  8
0
 62
     3
 66
     1
 10
0.0
 20
0.0
 30
0.0
 40
1.0287
 41
1.0287
  0
VERTEX
  5
4D0
  8
0
 62
     3
 10
38.5
 20
-30.0
 30
0.0
  0
VERTEX
  5
4D1
  8
0
 62
     3
 10
38.5
 20
-81.48439999999999
 30
0.0
  0
SEQEND
  5
66F
  8
0
 62
     3
  0
POLYLINE
  5
1ED
  8
0
 62
     3
 66
     1
 10
0.0
 20
0.0
 30
0.0
 40
1.0287
 41
1.0287
  0
VERTEX
  5
4D3
  8
0
 62
     3
 10
39.9256
 20
-81.6056
 30
0.0
  0
VERTEX
  5
4D4
  8
0
 62
     3
 10
39.95
 20
-83.0
 30
0.0
  0
SEQEND
  5
670
  8
0
 62
     3
  0
POLYLINE
  5
1F1
  8
0
 62
     3
 66
     1
 10
0.0
 20
0.0
 30
0.0
 40
1.0287
 41
1.0287
  0
VERTEX
  5
4D6
  8
0
 62
     3
 10
61.5
 20
-83.7966
 30
0.0
  0
VERTEX
  5
4D7
  8
0
 62
     3
 10
61.5
 20
-30.0
 30
0.0
  0
SEQEND
  5
671
  8
0
 62
     3
  0
POLYLINE
  5
1F5
  8
0
 62
     3
 66
     1
 10
0.0
 20
0.0
 30
0.0
 40
1.0287
 41
1.0287
  0
VERTEX
  5
4D9
  8
0
 62
     3
 10
-12.5404
 20
-85.0
 30
0.0
  0
VERTEX
  5
4DA
  8
0
 62
     3
 10
37.9474
 20
-85.0
 30
0.0
  0
SEQEND
  5
672
  8
0
 62
     3
  0
POLYLINE
  5
1F9
  8
0
 62
     3
 66
     1
 10
0.0
 20
0.0
 30
0.0
 40
1.0287
 41
1.0287
  0
VERTEX
  5
4DC
  8
0
 62
     3
 10
-91.0003
 20
-145.0
 30
0.0
  0
VERTEX
  5
4DD
  8
0
 62
     3
 10
-132.9998
 20
-145.0
 30
0.0
  0
SEQEND
  5
673
  8
0
 62
     3
  0
POLYLINE
  5
1FD
  8
0
 62
     3
 66
     1
 10
0.0
 20
0.0
 30
0.0
 40
1.0287
 41
1.0287
  0
VERTEX
  5
4DF
  8
0
 62
     3
 10
244.9982
 20
-145.0
 30
0.0
  0
VERTEX
  5
4E0
  8
0
 62
     3
 10
203.0
 20
-145.0
 30
0.0
  0
SEQEND
  5
674
  8
0
 62
     3
  0
POLYLINE
  5
201
  8
0
 62
     3
 66
     1
 10
0.0
 20
0.0
 30
0.0
 40
1.0287
 41
1.0287
  0
VERTEX
  5
4E2
  8
0
 62
     3
 10
203.0
 20
-123.0634
 30
0.0
  0
VERTEX
  5
4E3
  8
0
 62
     3
 10
203.0
 20
-145.0
 30
0.0
  0
SEQEND
  5
675
  8
0
 62
     3
  0
POLYLINE
  5
205
  8
0
 62
     3
 66
     1
 10
0.0
 20
0.0
 30
0.0
 40
1.0287
 41
1.0287
  0
VERTEX
  5
4E5
  8
0
 62
     3
 10
244.0592
 20
-118.0585
 30
0.0
  0
VERTEX
  5
4E6
  8
0
 62
     3
 10
245.0
 20
-145.0
 30
0.0
  0
SEQEND
  5
676
  8
0
 62
     3
  0
POLYLINE
  5
209
  8
0
 62
     3
 66
     1
 10
0.0
 20
0.0
 30
0.0
 40
1.0287
 41
1.0287
  0
VERTEX
  5
4E8
  8
0
 62
     3
 10
38.5
 20
-29.9999
 30
0.0
  0
VERTEX
  5
4E9
  8
0
 62
     3
 10
38.6747
 20
-28.0032
 30
0.0
  0
VERTEX
  5
4EA
  8
0
 62
     3
 10
39.1935
 20
-26.0668
 30
0.0
  0
VERTEX
  5
4EB
  8
0
 62
     3
 10
40.0407
 20
-24.25
 30
0.0
  0
VERTEX
  5
4EC
  8
0
 62
     3
 10
41.1904
 20
-22.608
 30
0.0
  0
VERTEX
  5
4ED
  8
0
 62
     3
 10
42.6078
 20
-21.1906
 30
0.0
  0
VERTEX
  5
4EE
  8
0
 62
     3
 10
44.2498
 20
-20.0408
 30
0.0
  0
VERTEX
  5
4EF
  8
0
 62
     3
 10
46.0665
 20
-19.1936
 30
0.0
  0
VERTEX
  5
4F0
  8
0
 62
     3
 10
48.0029
 20
-18.6747
 30
0.0
  0
VERTEX
  5
4F1
  8
0
 62
     3
 10
49.9998
 20
-18.5
 30
0.0
  0
VERTEX
  5
4F2
  8
0
 62
     3
 10
51.9967
 20
-18.6747
 30
0.0
  0
VERTEX
  5
4F3
  8
0
 62
     3
 10
53.933
 20
-19.1934
 30
0.0
  0
VERTEX
  5
4F4
  8
0
 62
     3
 10
55.7498
 20
-20.0406
 30
0.0
  0
VERTEX
  5
4F5
  8
0
 62
     3
 10
57.3919
 20
-21.1904
 30
0.0
  0
VERTEX
  5
4F6
  8
0
 62
     3
 10
58.8094
 20
-22.6077
 30
0.0
  0
VERTEX
  5
4F7
  8
0
 62
     3
 10
59.9592
 20
-24.2497
 30
0.0
  0
VERTEX
  5
4F8
  8
0
 62
     3
 10
60.8064
 20
-26.0664
 30
0.0
  0
VERTEX
  5
4F9
  8
0
 62
     3
 10
61.3252
 20
-28.0027
 30
0.0
  0
VERTEX
  5
4FA
  8
0
 62
     3
 10
61.5
 20
-29.9999
 30
0.0
  0
SEQEND
  5
677
  8
0
 62
     3
  0
POLYLINE
  5
21E
  8
0
 62
     3
 66
     1
 10
0.0
 20
0.0
 30
0.0
 40
1.0287
 41
1.0287
  0
VERTEX
  5
4FC
  8
0
 62
     3
 10
26.8082
 20
-80.7192
 30
0.0
  0
VERTEX
  5
4FD
  8
0
 62
     3
 10
93.4187
 20
-88.80459999999999
 30
0.0
  0
VERTEX
  5
4FE
  8
0
 62
     3
 10
158.3509
 20
-105.7374
 30
0.0
  0
VERTEX
  5
4FF
  8
0
 62
     3
 10
220.431
 20
-131.2124
 30
0.0
  0
VERTEX
  5
500
  8
0
 62
     3
 10
220.4333
 20
-131.2138
 30
0.0
  0
SEQEND
  5
678
  8
0
 62
     3
  0
POLYLINE
  5
225
  8
0
 62
     3
 66
     1
 10
0.0
 20
0.0
 30
0.0
 40
1.0287
 41
1.0287
  0
VERTEX
  5
502
  8
0
 62
     3
 10
49.0031
 20
-9.013
 30
0.0
  0
VERTEX
  5
503
  8
0
 62
     3
 10
66.58629999999999
 20
-11.5812
 30
0.0
  0
SEQEND
  5
679
  8
0
 62
     3
  0
POLYLINE
  5
229
  8
0
 62
     3
 66
     1
 10
0.0
 20
0.0
 30
0.0
 40
1.0287
 41
1.0287
  0
VERTEX
  5
505
  8
0
 62
     3
 10
73.3888
 20
-12.7901
 30
0.0
  0
VERTEX
  5
506
  8
0
 62
     3
 10
123.4457
 20
-25.5251
 30
0.0
  0
VERTEX
  5
507
  8
0
 62
     3
 10
171.4419
 20
-44.6031
 30
0.0
  0
VERTEX
  5
508
  8
0
 62
     3
 10
216.5831
 20
-69.7089
 30
0.0
  0
SEQEND
  5
67A
  8
0
 62
     3
  0
POLYLINE
  5
22F
  8
0
 62
     3
 66
     1
 10
0.0
 20
0.0
 30
0.0
 40
1.0287
 41
1.0287
  0
VERTEX
  5
50A
  8
0
 62
     3
 10
216.5832
 20
-69.7089
 30
0.0
  0
VERTEX
  5
50B
  8
0
 62
     3
 10
224.2325
 20
-75.5538
 30
0.0
  0
VERTEX
  5
50C
  8
0
 62
     3
 10
230.8487
 20
-82.5472
 30
0.0
  0
VERTEX
  5
50D
  8
0
 62
     3
 10
236.261
 20
-90.508
 30
0.0
  0
VERTEX
  5
50E
  8
0
 62
     3
 10
240.3305
 20
-99.2321
 30
0.0
  0
VERTEX
  5
50F
  8
0
 62
     3
 10
242.9525
 20
-108.4956
 30
0.0
  0
VERTEX
  5
510
  8
0
 62
     3
 10
244.0592
 20
-118.0586
 30
0.0
  0
SEQEND
  5
67B
  8
0
 62
     3
  0
POLYLINE
  5
238
  8
0
 62
     3
 66
     1
 10
0.0
 20
0.0
 30
0.0
 40
1.0287
 41
1.0287
  0
VERTEX
  5
512
  8
0
 62
     3
 10
-38.654
 20
-5.8953
 30
0.0
  0
VERTEX
  5
513
  8
0
 62
     3
 10
-38.547
 20
-4.8666
 30
0.0
  0
VERTEX
  5
514
  8
0
 62
     3
 10
-38.2648
 20
-3.8715
 30
0.0
  0
VERTEX
  5
515
  8
0
 62
     3
 10
-37.8159
 20
-2.9398
 30
0.0
  0
VERTEX
  5
516
  8
0
 62
     3
 10
-37.2137
 20
-2.0989
 30
0.0
  0
VERTEX
  5
517
  8
0
 62
     3
 10
-36.4759
 20
-1.3739
 30
0.0
  0
VERTEX
  5
518
  8
0
 62
     3
 10
-35.6247
 20
-0.7865
 30
0.0
  0
VERTEX
  5
519
  8
0
 62
     3
 10
-34.6852
 20
-0.3539
 30
0.0
  0
VERTEX
  5
51A
  8
0
 62
     3
 10
-33.6854
 20
-0.0891
 30
0.0
  0
VERTEX
  5
51B
  8
0
 62
     3
 10
-32.655
 20
0.0
 30
0.0
  0
SEQEND
  5
67C
  8
0
 62
     3
  0
POLYLINE
  5
244
  8
0
 62
     3
 66
     1
 10
0.0
 20
0.0
 30
0.0
 70
     1
 40
1.0287
 41
1.0287
  0
VERTEX
  5
51D
  8
0
 62
     3
 10
50.0
 20
-36.25
 30
0.0
  0
VERTEX
  5
51E
  8
0
 62
     3
 10
48.9146
 20
-36.155
 30
0.0
  0
VERTEX
  5
51F
  8
0
 62
     3
 10
47.8623
 20
-35.8731
 30
0.0
  0
VERTEX
  5
520
  8
0
 62
     3
 10
46.875
 20
-35.4126
 30
0.0
  0
VERTEX
  5
521
  8
0
 62
     3
 10
45.9826
 20
-34.7878
 30
0.0
  0
VERTEX
  5
522
  8
0
 62
     3
 10
45.2122
 20
-34.0174
 30
0.0
  0
VERTEX
  5
523
  8
0
 62
     3
 10
44.5873
 20
-33.125
 30
0.0
  0
VERTEX
  5
524
  8
0
 62
     3
 10
44.1269
 20
-32.1376
 30
0.0
  0
VERTEX
  5
525
  8
0
 62
     3
 10
43.8449
 20
-31.0853
 30
0.0
  0
VERTEX
  5
526
  8
0
 62
     3
 10
43.75
 20
-30.0
 30
0.0
  0
VERTEX
  5
527
  8
0
 62
     3
 10
43.8449
 20
-28.9147
 30
0.0
  0
VERTEX
  5
528
  8
0
 62
     3
 10
44.1269
 20
-27.8623
 30
0.0
  0
VERTEX
  5
529
  8
0
 62
     3
 10
44.5874
 20
-26.875
 30
0.0
  0
VERTEX
  5
52A
  8
0
 62
     3
 10
45.2122
 20
-25.9826
 30
0.0
  0
VERTEX
  5
52B
  8
0
 62
     3
 10
45.9826
 20
-25.2122
 30
0.0
  0
VERTEX
  5
52C
  8
0
 62
     3
 10
46.875
 20
-24.5874
 30
0.0
  0
VERTEX
  5
52D
  8
0
 62
     3
 10
47.8624
 20
-24.1269
 30
0.0
  0
VERTEX
  5
52E
  8
0
 62
     3
 10
48.9147
 20
-23.8449
 30
0.0
  0
VERTEX
  5
52F
  8
0
 62
     3
 10
50.0
 20
-23.75
 30
0.0
  0
VERTEX
  5
530
  8
0
 62
     3
 10
51.0853
 20
-23.8449
 30
0.0
  0
VERTEX
  5
531
  8
0
 62
     3
 10
52.1376
 20
-24.1269
 30
0.0
  0
VERTEX
  5
532
  8
0
 62
     3
 10
53.125
 20
-24.5874
 30
0.0
  0
VERTEX
  5
533
  8
0
 62
     3
 10
54.0174
 20
-25.2122
 30
0.0
  0
VERTEX
  5
534
  8
0
 62
     3
 10
54.7878
 20
-25.9826
 30
0.0
  0
VERTEX
  5
535
  8
0
 62
     3
 10
55.4126
 20
-26.875
 30
0.0
  0
VERTEX
  5
536
  8
0
 62
     3
 10
55.8731
 20
-27.8623
 30
0.0
  0
VERTEX
  5
537
  8
0
 62
     3
 10
56.1551
 20
-28.9147
 30
0.0
  0
VERTEX
  5
538
  8
0
 62
     3
 10
56.25
 20
-30.0
 30
0.0
  0
VERTEX
  5
539
  8
0
 62
     3
 10
56.1551
 20
-31.0853
 30
0.0
  0
VERTEX
  5
53A
  8
0
 62
     3
 10
55.8731
 20
-32.1376
 30
0.0
  0
VERTEX
  5
53B
  8
0
 62
     3
 10
55.4127
 20
-33.125
 30
0.0
  0
VERTEX
  5
53C
  8
0
 62
     3
 10
54.7878
 20
-34.0174
 30
0.0
  0
VERTEX
  5
53D
  8
0
 62
     3
 10
54.0174
 20
-34.7878
 30
0.0
  0
VERTEX
  5
53E
  8
0
 62
     3
 10
53.125
 20
-35.4126
 30
0.0
  0
VERTEX
  5
53F
  8
0
 62
     3
 10
52.1377
 20
-35.8731
 30
0.0
  0
VERTEX
  5
540
  8
0
 62
     3
 10
51.0853
 20
-36.155
 30
0.0
  0
SEQEND
  5
67D
  8
0
 62
     3
  0
POLYLINE
  5
26A
  8
0
 62
     3
 66
     1
 10
0.0
 20
0.0
 30
0.0
 70
     1
 40
1.0287
 41
1.0287
  0
VERTEX
  5
542
  8
0
 62
     3
 10
50.0
 20
-74.25
 30
0.0
  0
VERTEX
  5
543
  8
0
 62
     3
 10
48.9146
 20
-74.155
 30
0.0
  0
VERTEX
  5
544
  8
0
 62
     3
 10
47.8623
 20
-73.87309999999999
 30
0.0
  0
VERTEX
  5
545
  8
0
 62
     3
 10
46.875
 20
-73.4126
 30
0.0
  0
VERTEX
  5
546
  8
0
 62
     3
 10
45.9826
 20
-72.7878
 30
0.0
  0
VERTEX
  5
547
  8
0
 62
     3
 10
45.2122
 20
-72.0174
 30
0.0
  0
VERTEX
  5
548
  8
0
 62
     3
 10
44.5873
 20
-71.125
 30
0.0
  0
VERTEX
  5
549
  8
0
 62
     3
 10
44.1269
 20
-70.13760000000001
 30
0.0
  0
VERTEX
  5
54A
  8
0
 62
     3
 10
43.8449
 20
-69.0853
 30
0.0
  0
VERTEX
  5
54B
  8
0
 62
     3
 10
43.75
 20
-68.0
 30
0.0
  0
VERTEX
  5
54C
  8
0
 62
     3
 10
43.8449
 20
-66.9147
 30
0.0
  0
VERTEX
  5
54D
  8
0
 62
     3
 10
44.1269
 20
-65.86230000000001
 30
0.0
  0
VERTEX
  5
54E
  8
0
 62
     3
 10
44.5874
 20
-64.875
 30
0.0
  0
VERTEX
  5
54F
  8
0
 62
     3
 10
45.2122
 20
-63.9826
 30
0.0
  0
VERTEX
  5
550
  8
0
 62
     3
 10
45.9826
 20
-63.2122
 30
0.0
  0
VERTEX
  5
551
  8
0
 62
     3
 10
46.875
 20
-62.5874
 30
0.0
  0
VERTEX
  5
552
  8
0
 62
     3
 10
47.8624
 20
-62.1269
 30
0.0
  0
VERTEX
  5
553
  8
0
 62
     3
 10
48.9147
 20
-61.8449
 30
0.0
  0
VERTEX
  5
554
  8
0
 62
     3
 10
50.0
 20
-61.75
 30
0.0
  0
VERTEX
  5
555
  8
0
 62
     3
 10
51.0853
 20
-61.8449
 30
0.0
  0
VERTEX
  5
556
  8
0
 62
     3
 10
52.1376
 20
-62.1269
 30
0.0
  0
VERTEX
  5
557
  8
0
 62
     3
 10
53.125
 20
-62.5874
 30
0.0
  0
VERTEX
  5
558
  8
0
 62
     3
 10
54.0174
 20
-63.2122
 30
0.0
  0
VERTEX
  5
559
  8
0
 62
     3
 10
54.7878
 20
-63.9826
 30
0.0
  0
VERTEX
  5
55A
  8
0
 62
     3
 10
55.4126
 20
-64.875
 30
0.0
  0
VERTEX
  5
55B
  8
0
 62
     3
 10
55.8731
 20
-65.86230000000001
 30
0.0
  0
VERTEX
  5
55C
  8
0
 62
     3
 10
56.1551
 20
-66.9147
 30
0.0
  0
VERTEX
  5
55D
  8
0
 62
     3
 10
56.25
 20
-68.0
 30
0.0
  0
VERTEX
  5
55E
  8
0
 62
     3
 10
56.1551
 20
-69.0853
 30
0.0
  0
VERTEX
  5
55F
  8
0
 62
     3
 10
55.8731
 20
-70.13760000000001
 30
0.0
  0
VERTEX
  5
560
  8
0
 62
     3
 10
55.4127
 20
-71.125
 30
0.0
  0
VERTEX
  5
561
  8
0
 62
     3
 10
54.7878
 20
-72.0174
 30
0.0
  0
VERTEX
  5
562
  8
0
 62
     3
 10
54.0174
 20
-72.7878
 30
0.0
  0
VERTEX
  5
563
  8
0
 62
     3
 10
53.125
 20
-73.4126
 30
0.0
  0
VERTEX
  5
564
  8
0
 62
     3
 10
52.1377
 20
-73.87309999999999
 30
0.0
  0
VERTEX
  5
565
  8
0
 62
     3
 10
51.0853
 20
-74.155
 30
0.0
  0
SEQEND
  5
67E
  8
0
 62
     3
  0
POLYLINE
  5
290
  8
0
 62
     3
 66
     1
 10
0.0
 20
0.0
 30
0.0
 40
0.5715
 41
0.5715
  0
VERTEX
  5
567
  8
0
 62
     3
 10
63.0
 20
-32.5191
 30
0.0
  0
VERTEX
  5
568
  8
0
 62
     3
 10
64.91410000000001
 20
-32.8477
 30
0.0
  0
SEQEND
  5
67F
  8
0
 62
     3
  0
POLYLINE
  5
294
  8
0
 62
     3
 66
     1
 10
0.0
 20
0.0
 30
0.0
 40
0.5715
 41
0.5715
  0
VERTEX
  5
56A
  8
0
 62
     3
 10
-115.6879
 20
-85.7255
 30
0.0
  0
VERTEX
  5
56B
  8
0
 62
     3
 10
-108.7823
 20
-71.1416
 30
0.0
  0
SEQEND
  5
680
  8
0
 62
     3
  0
POLYLINE
  5
298
  8
0
 62
     3
 66
     1
 10
0.0
 20
0.0
 30
0.0
 40
0.5715
 41
0.5715
  0
VERTEX
  5
56D
  8
0
 62
     3
 10
-108.7824
 20
-71.1416
 30
0.0
  0
VERTEX
  5
56E
  8
0
 62
     3
 10
-91.2751
 20
-50.4117
 30
0.0
  0
VERTEX
  5
56F
  8
0
 62
     3
 10
-70.6161
 20
-32.8203
 30
0.0
  0
VERTEX
  5
570
  8
0
 62
     3
 10
-47.358
 20
-18.8388
 30
0.0
  0
VERTEX
  5
571
  8
0
 62
     3
 10
-22.1278
 20
-8.8454
 30
0.0
  0
SEQEND
  5
681
  8
0
 62
     3
  0
POLYLINE
  5
29F
  8
0
 62
     3
 66
     1
 10
0.0
 20
0.0
 30
0.0
 40
0.5715
 41
0.5715
  0
VERTEX
  5
573
  8
0
 62
     3
 10
-38.6567
 20
-43.4452
 30
0.0
  0
VERTEX
  5
574
  8
0
 62
     3
 10
-19.5194
 20
-35.0034
 30
0.0
  0
VERTEX
  5
575
  8
0
 62
     3
 10
0.6332
 20
-29.3902
 30
0.0
  0
SEQEND
  5
682
  8
0
 62
     3
  0
POLYLINE
  5
2A4
  8
0
 62
     3
 66
     1
 10
0.0
 20
0.0
 30
0.0
 40
0.5715
 41
0.5715
  0
VERTEX
  5
577
  8
0
 62
     3
 10
-87.2842
 20
-86.00360000000001
 30
0.0
  0
VERTEX
  5
578
  8
0
 62
     3
 10
-73.05500000000001
 20
-69.6572
 30
0.0
  0
VERTEX
  5
579
  8
0
 62
     3
 10
-56.7466
 20
-55.3841
 30
0.0
  0
VERTEX
  5
57A
  8
0
 62
     3
 10
-38.656
 20
-43.4448
 30
0.0
  0
VERTEX
  5
57B
  8
0
 62
     3
 10
-38.6544
 20
-43.444
 30
0.0
  0
SEQEND
  5
683
  8
0
 62
     3
  0
POLYLINE
  5
2AB
  8
0
 62
     3
 66
     1
 10
0.0
 20
0.0
 30
0.0
 40
0.5715
 41
0.5715
  0
VERTEX
  5
57D
  8
0
 62
     3
 10
-95.2231
 20
-114.8128
 30
0.0
  0
VERTEX
  5
57E
  8
0
 62
     3
 10
-95.0004
 20
-107.2253
 30
0.0
  0
VERTEX
  5
57F
  8
0
 62
     3
 10
-93.5739
 20
-99.7692
 30
0.0
  0
VERTEX
  5
580
  8
0
 62
     3
 10
-90.9798
 20
-92.6348
 30
0.0
  0
VERTEX
  5
581
  8
0
 62
     3
 10
-87.28360000000001
 20
-86.003
 30
0.0
  0
SEQEND
  5
684
  8
0
 62
     3
  0
POLYLINE
  5
2B2
  8
0
 62
     3
 66
     1
 10
0.0
 20
0.0
 30
0.0
 40
0.5715
 41
0.5715
  0
VERTEX
  5
583
  8
0
 62
     3
 10
-94.2914
 20
-145.0
 30
0.0
  0
VERTEX
  5
584
  8
0
 62
     3
 10
-95.3156
 20
-110.2241
 30
0.0
  0
SEQEND
  5
685
  8
0
 62
     3
  0
POLYLINE
  5
2B6
  8
0
 62
     3
 66
     1
 10
0.0
 20
0.0
 30
0.0
 40
0.5715
 41
0.5715
  0
VERTEX
  5
586
  8
0
 62
     3
 10
10.8264
 20
-28.8336
 30
0.0
  0
VERTEX
  5
587
  8
0
 62
     3
 10
12.2592
 20
-80.7192
 30
0.0
  0
SEQEND
  5
686
  8
0
 62
     3
  0
POLYLINE
  5
2BA
  8
0
 62
     3
 66
     1
 10
0.0
 20
0.0
 30
0.0
 40
0.5715
 41
0.5715
  0
VERTEX
  5
589
  8
0
 62
     3
 10
-34.5005
 20
-5.8954
 30
0.0
  0
VERTEX
  5
58A
  8
0
 62
     3
 10
-35.1354
 20
-10.9612
 30
0.0
  0
SEQEND
  5
687
  8
0
 62
     3
  0
POLYLINE
  5
2BE
  8
0
 62
     3
 66
     1
 10
0.0
 20
0.0
 30
0.0
 40
1.0287
 41
1.0287
  0
VERTEX
  5
58C
  8
0
 62
     3
 10
-118.8114
 20
-74.106
 30
0.0
  0
VERTEX
  5
58D
  8
0
 62
     3
 10
-104.2092
 20
-56.0124
 30
0.0
  0
VERTEX
  5
58E
  8
0
 62
     3
 10
-87.41500000000001
 20
-39.9317
 30
0.0
  0
VERTEX
  5
58F
  8
0
 62
     3
 10
-68.7024
 20
-26.1265
 30
0.0
  0
SEQEND
  5
688
  8
0
 62
     3
  0
POLYLINE
  5
2C4
  8
0
 62
     3
 66
     1
 10
0.0
 20
0.0
 30
0.0
 40
1.0287
 41
1.0287
  0
VERTEX
  5
591
  8
0
 62
     3
 10
-68.7037
 20
-26.1274
 30
0.0
  0
VERTEX
  5
592
  8
0
 62
     3
 10
-49.8047
 20
-16.0054
 30
0.0
  0
VERTEX
  5
593
  8
0
 62
     3
 10
-29.4322
 20
-9.3125
 30
0.0
  0
SEQEND
  5
689
  8
0
 62
     3
  0
POLYLINE
  5
2C9
  8
0
 62
     3
 66
     1
 10
0.0
 20
0.0
 30
0.0
 40
1.0287
 41
1.0287
  0
VERTEX
  5
595
  8
0
 62
     3
 10
27.1784
 20
-26.7849
 30
0.0
  0
VERTEX
  5
596
  8
0
 62
     3
 10
28.0822
 20
-19.4735
 30
0.0
  0
VERTEX
  5
597
  8
0
 62
     3
 10
29.9842
 20
-12.3551
 30
0.0
  0
VERTEX
  5
598
  8
0
 62
     3
 10
32.8484
 20
-5.566
 30
0.0
  0
SEQEND
  5
68A
  8
0
 62
     3
  0
POLYLINE
  5
2CF
  8
0
 62
     3
 66
     1
 10
0.0
 20
0.0
 30
0.0
 40
1.0287
 41
1.0287
  0
VERTEX
  5
59A
  8
0
 62
     3
 10
26.8043
 20
-80.71899999999999
 30
0.0
  0
VERTEX
  5
59B
  8
0
 62
     3
 10
27.1783
 20
-26.7852
 30
0.0
  0
SEQEND
  5
68B
  8
0
 62
     3
  0
POLYLINE
  5
2D3
  8
0
 62
     3
 66
     1
 10
0.0
 20
0.0
 30
0.0
 40
1.0287
 41
1.0287
  0
VERTEX
  5
59D
  8
0
 62
     3
 10
32.8482
 20
-5.5663
 30
0.0
  0
VERTEX
  5
59E
  8
0
 62
     3
 10
37.5272
 20
-2.5735
 30
0.0
  0
SEQEND
  5
68C
  8
0
 62
     3
  0
POLYLINE
  5
2D7
  8
0
 62
     3
 66
     1
 10
0.0
 20
0.0
 30
0.0
 40
1.0287
 41
1.0287
  0
VERTEX
  5
5A0
  8
0
 62
     3
 10
48.0502
 20
-8.8964
 30
0.0
  0
VERTEX
  5
5A1
  8
0
 62
     3
 10
45.6056
 20
-8.311
 30
0.0
  0
VERTEX
  5
5A2
  8
0
 62
     3
 10
43.2788
 20
-7.3598
 30
0.0
  0
VERTEX
  5
5A3
  8
0
 62
     3
 10
41.1241
 20
-6.0651
 30
0.0
  0
VERTEX
  5
5A4
  8
0
 62
     3
 10
39.1919
 20
-4.4572
 30
0.0
  0
VERTEX
  5
5A5
  8
0
 62
     3
 10
37.5273
 20
-2.5734
 30
0.0
  0
SEQEND
  5
68D
  8
0
 62
     3
  0
POLYLINE
  5
2DF
  8
0
 62
     3
 66
     1
 10
0.0
 20
0.0
 30
0.0
 40
0.5715
 41
0.5715
  0
VERTEX
  5
5A7
  8
0
 62
     3
 10
62.9965
 20
-32.5187
 30
0.0
  0
VERTEX
  5
5A8
  8
0
 62
     3
 10
113.4249
 20
-42.9324
 30
0.0
  0
VERTEX
  5
5A9
  8
0
 62
     3
 10
161.8105
 20
-60.56
 30
0.0
  0
VERTEX
  5
5AA
  8
0
 62
     3
 10
207.1215
 20
-85.0266
 30
0.0
  0
SEQEND
  5
68E
  8
0
 62
     3
  0
POLYLINE
  5
2E5
  8
0
 62
     3
 66
     1
 10
0.0
 20
0.0
 30
0.0
 40
0.5715
 41
0.5715
  0
VERTEX
  5
5AC
  8
0
 62
     3
 10
206.8568
 20
-84.8571
 30
0.0
  0
VERTEX
  5
5AD
  8
0
 62
     3
 10
212.5379
 20
-89.2758
 30
0.0
  0
VERTEX
  5
5AE
  8
0
 62
     3
 10
217.3847
 20
-94.5959
 30
0.0
  0
VERTEX
  5
5AF
  8
0
 62
     3
 10
221.2568
 20
-100.6632
 30
0.0
  0
VERTEX
  5
5B0
  8
0
 62
     3
 10
224.0406
 20
-107.3001
 30
0.0
  0
VERTEX
  5
5B1
  8
0
 62
     3
 10
224.0406
 20
-107.3003
 30
0.0
  0
SEQEND
  5
68F
  8
0
 62
     3
  0
POLYLINE
  5
2ED
  8
0
 62
     3
 66
     1
 10
0.0
 20
0.0
 30
0.0
 40
1.0287
 41
1.0287
  0
VERTEX
  5
5B3
  8
0
 62
     3
 10
32.655
 20
0.0
 30
0.0
  0
VERTEX
  5
5B4
  8
0
 62
     3
 10
33.6088
 20
-0.0763
 30
0.0
  0
VERTEX
  5
5B5
  8
0
 62
     3
 10
34.5384
 20
-0.3033
 30
0.0
  0
VERTEX
  5
5B6
  8
0
 62
     3
 10
35.4201
 20
-0.6751
 30
0.0
  0
VERTEX
  5
5B7
  8
0
 62
     3
 10
36.2314
 20
-1.1824
 30
0.0
  0
VERTEX
  5
5B8
  8
0
 62
     3
 10
36.9518
 20
-1.8122
 30
0.0
  0
VERTEX
  5
5B9
  8
0
 62
     3
 10
37.5629
 20
-2.5485
 30
0.0
  0
VERTEX
  5
5BA
  8
0
 62
     3
 10
37.5629
 20
-2.5486
 30
0.0
  0
SEQEND
  5
690
  8
0
 62
     3
  0
POLYLINE
  5
2F7
  8
0
 62
     3
 66
     1
 10
0.0
 20
0.0
 30
0.0
 40
1.0287
 41
1.0287
  0
VERTEX
  5
5BC
  8
0
 62
     3
 10
-90.9999
 20
-130.0997
 30
0.0
  0
VERTEX
  5
5BD
  8
0
 62
     3
 10
-68.4205
 20
-111.7092
 30
0.0
  0
VERTEX
  5
5BE
  8
0
 62
     3
 10
-43.3284
 20
-96.92619999999999
 30
0.0
  0
VERTEX
  5
5BF
  8
0
 62
     3
 10
-16.2966
 20
-86.08880000000001
 30
0.0
  0
VERTEX
  5
5C0
  8
0
 62
     3
 10
12.0585
 20
-79.44410000000001
 30
0.0
  0
VERTEX
  5
5C1
  8
0
 62
     3
 10
12.0613
 20
-79.44370000000001
 30
0.0
  0
SEQEND
  5
691
  8
0
 62
     3
  0
POLYLINE
  5
2FF
  8
0
  6
MCDASH7
 66
     1
 10
0.0
 20
0.0
 30
0.0
 40
0.5715
 41
0.5715
  0
VERTEX
  5
5C3
  8
0
  6
MCDASH7
 10
21.2
 20
0.0
 30
0.0
  0
VERTEX
  5
5C4
  8
0
  6
MCDASH7
 10
21.2
 20
-85.0
 30
0.0
  0
SEQEND
  5
692
  8
0
  6
MCDASH7
  0
POLYLINE
  5
303
  8
0
  6
MCDASH7
 66
     1
 10
0.0
 20
0.0
 30
0.0
 40
0.5715
 41
0.5715
  0
VERTEX
  5
5C6
  8
0
  6
MCDASH7
 10
-21.2
 20
0.0
 30
0.0
  0
VERTEX
  5
5C7
  8
0
  6
MCDASH7
 10
-21.2
 20
-84.94970000000001
 30
0.0
  0
SEQEND
  5
693
  8
0
  6
MCDASH7
  0
POLYLINE
  5
307
  8
0
 62
     3
 66
     1
 10
0.0
 20
0.0
 30
0.0
 40
1.0287
 41
1.0287
  0
VERTEX
  5
5C9
  8
0
 62
     3
 10
-112.0
 20
-147.4976
 30
0.0
  0
VERTEX
  5
5CA
  8
0
 62
     3
 10
-112.0
 20
-86.0044
 30
0.0
  0
SEQEND
  5
694
  8
0
 62
     3
  0
POLYLINE
  5
30B
  8
0
  6
MCDASH7
 66
     1
 10
0.0
 20
0.0
 30
0.0
 40
1.0287
 41
1.0287
  0
VERTEX
  5
5CC
  8
0
  6
MCDASH7
 10
-12.5404
 20
-85.0
 30
0.0
  0
VERTEX
  5
5CD
  8
0
  6
MCDASH7
 10
-21.2
 20
-84.94970000000001
 30
0.0
  0
SEQEND
  5
695
  8
0
  6
MCDASH7
  0
POLYLINE
  5
30F
  8
0
 62
     3
 66
     1
 10
0.0
 20
0.0
 30
0.0
 40
1.0287
 41
1.0287
  0
VERTEX
  5
5CF
  8
0
 62
     3
 10
-22.1303
 20
-8.846
 30
0.0
  0
VERTEX
  5
5D0
  8
0
 62
     3
 10
-17.4743
 20
-2.5729
 30
0.0
  0
SEQEND
  5
696
  8
0
 62
     3
  0
POLYLINE
  5
313
  8
0
 62
     3
 66
     1
 10
0.0
 20
0.0
 30
0.0
 40
1.0287
 41
1.0287
  0
VERTEX
  5
5D2
  8
0
 62
     3
 10
-34.5005
 20
-5.8954
 30
0.0
  0
VERTEX
  5
5D3
  8
0
 62
     3
 10
-17.4743
 20
-2.5729
 30
0.0
  0
SEQEND
  5
697
  8
0
 62
     3
  0
POLYLINE
  5
317
  8
0
  6
MCDASH7
 66
     1
 10
0.0
 20
0.0
 30
0.0
 40
1.0287
 41
1.0287
  0
VERTEX
  5
5D5
  8
0
  6
MCDASH7
 10
-120.0
 20
-145.0
 30
0.0
  0
VERTEX
  5
5D6
  8
0
  6
MCDASH7
 10
-120.0
 20
-91.0
 30
0.0
  0
SEQEND
  5
698
  8
0
  6
MCDASH7
  0
POLYLINE
  5
31B
  8
0
  6
MCDASH7
 66
     1
 10
0.0
 20
0.0
 30
0.0
 40
1.0287
 41
1.0287
  0
VERTEX
  5
5D8
  8
0
  6
MCDASH7
 10
-104.0
 20
-145.0
 30
0.0
  0
VERTEX
  5
5D9
  8
0
  6
MCDASH7
 10
-104.0
 20
-91.0
 30
0.0
  0
SEQEND
  5
699
  8
0
  6
MCDASH7
  0
POLYLINE
  5
31F
  8
0
  6
MCDASH7
 66
     1
 10
0.0
 20
0.0
 30
0.0
 40
1.0287
 41
1.0287
  0
VERTEX
  5
5DB
  8
0
  6
MCDASH7
 10
-104.0
 20
-91.0
 30
0.0
  0
VERTEX
  5
5DC
  8
0
  6
MCDASH7
 10
-120.0
 20
-91.0
 30
0.0
  0
SEQEND
  5
69A
  8
0
  6
MCDASH7
  0
POLYLINE
  5
323
  8
0
  6
MCDASH7
 66
     1
 10
0.0
 20
0.0
 30
0.0
 40
1.0287
 41
1.0287
  0
VERTEX
  5
5DE
  8
0
  6
MCDASH7
 10
216.0
 20
-145.0
 30
0.0
  0
VERTEX
  5
5DF
  8
0
  6
MCDASH7
 10
216.0
 20
-91.0
 30
0.0
  0
SEQEND
  5
69B
  8
0
  6
MCDASH7
  0
POLYLINE
  5
327
  8
0
  6
MCDASH7
 66
     1
 10
0.0
 20
0.0
 30
0.0
 40
1.0287
 41
1.0287
  0
VERTEX
  5
5E1
  8
0
  6
MCDASH7
 10
232.0
 20
-145.0
 30
0.0
  0
VERTEX
  5
5E2
  8
0
  6
MCDASH7
 10
232.0
 20
-91.0
 30
0.0
  0
SEQEND
  5
69C
  8
0
  6
MCDASH7
  0
POLYLINE
  5
32B
  8
0
  6
MCDASH7
 66
     1
 10
0.0
 20
0.0
 30
0.0
 40
1.0287
 41
1.0287
  0
VERTEX
  5
5E4
  8
0
  6
MCDASH7
 10
232.0
 20
-91.0
 30
0.0
  0
VERTEX
  5
5E5
  8
0
  6
MCDASH7
 10
216.0
 20
-91.0
 30
0.0
  0
SEQEND
  5
69D
  8
0
  6
MCDASH7
  0
POLYLINE
  5
32F
  8
0
 62
     3
 66
     1
 10
0.0
 20
0.0
 30
0.0
 40
1.0287
 41
1.0287
  0
VERTEX
  5
5E7
  8
0
 62
     3
 10
-17.4743
 20
-2.5729
 30
0.0
  0
VERTEX
  5
5E8
  8
0
 62
     3
 10
-11.7467
 20
-2.8976
 30
0.0
  0
SEQEND
  5
69E
  8
0
 62
     3
  0
POLYLINE
  5
333
  8
0
 62
     3
 66
     1
 10
0.0
 20
0.0
 30
0.0
 40
1.0287
 41
1.0287
  0
VERTEX
  5
5EA
  8
0
 62
     3
 10
-11.8689
 20
-2.8907
 30
0.0
  0
VERTEX
  5
5EB
  8
0
 62
     3
 10
-5.3684
 20
-3.786
 30
0.0
  0
SEQEND
  5
69F
  8
0
 62
     3
  0
POLYLINE
  5
337
  8
0
 62
     3
 66
     1
 10
0.0
 20
0.0
 30
0.0
 40
1.0287
 41
1.0287
  0
VERTEX
  5
5ED
  8
0
 62
     3
 10
-5.5221
 20
-3.7542
 30
0.0
  0
VERTEX
  5
5EE
  8
0
 62
     3
 10
2.1865
 20
-5.9364
 30
0.0
  0
SEQEND
  5
6A0
  8
0
 62
     3
  0
POLYLINE
  5
33B
  8
0
 62
     3
 66
     1
 10
0.0
 20
0.0
 30
0.0
 40
1.0287
 41
1.0287
  0
VERTEX
  5
5F0
  8
0
 62
     3
 10
1.9464
 20
-5.8684
 30
0.0
  0
VERTEX
  5
5F1
  8
0
 62
     3
 10
7.2763
 20
-14.1908
 30
0.0
  0
SEQEND
  5
6A1
  8
0
 62
     3
  0
POLYLINE
  5
33F
  8
0
 62
     3
 66
     1
 10
0.0
 20
0.0
 30
0.0
 40
1.0287
 41
1.0287
  0
VERTEX
  5
5F3
  8
0
 62
     3
 10
7.1569
 20
-14.0044
 30
0.0
  0
VERTEX
  5
5F4
  8
0
 62
     3
 10
9.605700000000001
 20
-20.7443
 30
0.0
  0
SEQEND
  5
6A2
  8
0
 62
     3
  0
POLYLINE
  5
343
  8
0
 62
     3
 66
     1
 10
0.0
 20
0.0
 30
0.0
 40
1.0287
 41
1.0287
  0
VERTEX
  5
5F6
  8
0
 62
     3
 10
9.551500000000001
 20
-20.595
 30
0.0
  0
VERTEX
  5
5F7
  8
0
 62
     3
 10
10.8264
 20
-28.8336
 30
0.0
  0
SEQEND
  5
6A3
  8
0
 62
     3
  0
POLYLINE
  5
347
  8
0
 62
     3
 66
     1
 10
0.0
 20
0.0
 30
0.0
 40
1.0287
 41
1.0287
  0
VERTEX
  5
5F9
  8
0
 62
     3
 10
-131.8527
 20
-112.1439
 30
0.0
  0
VERTEX
  5
5FA
  8
0
 62
     3
 10
-129.7084
 20
-98.7788
 30
0.0
  0
VERTEX
  5
5FB
  8
0
 62
     3
 10
-125.3182
 20
-85.9739
 30
0.0
  0
VERTEX
  5
5FC
  8
0
 62
     3
 10
-118.81
 20
-74.104
 30
0.0
  0
SEQEND
  5
6A4
  8
0
 62
     3
  0
ENDBLK
  5
6A6
  8
0
  0
ENDSEC
  0
SECTION
  2
ENTITIES
  0
INSERT
  5
34E
  8
0
  2
SIMBOLO_N__2
 10
-82.40560000000001
 20
394.7081
 30
0.0
  0
INSERT
  5
34F
  8
0
  2
SIMBOLO_N__1
 10
-82.40560000000001
 20
-42.2919
 30
0.0
  0
ENDSEC
  0
EOF
