  0
SECTION
  2
HEADER
  9
$ACADVER
  1
AC1009
  9
$DWGCODEPAGE
  3
ansi_1252
  9
$INSBASE
 10
0.0
 20
0.0
 30
0.0
  9
$EXTMIN
 10
-189.79444
 20
-275.51944
 30
0.0
  9
$EXTMAX
 10
189.79444
 20
275.51944
 30
0.0
  9
$LIMMIN
 10
0.0
 20
0.0
  9
$LIMMAX
 10
12.0
 20
9.0
  9
$ORTHOMODE
 70
     0
  9
$REGENMODE
 70
     1
  9
$FILLMODE
 70
     1
  9
$QTEXTMODE
 70
     0
  9
$MIRRTEXT
 70
     1
  9
$DRAGMODE
 70
     2
  9
$LTSCALE
 40
2.0
  9
$OSMODE
 70
    37
  9
$ATTMODE
 70
     1
  9
$TEXTSIZE
 40
0.2
  9
$TRACEWID
 40
0.05
  9
$TEXTSTYLE
  7
STANDARD
  9
$CLAYER
  8
0
  9
$CELTYPE
  6
BYBLOCK
  9
$CECOLOR
 62
   256
  9
$DIMSCALE
 40
1.0
  9
$DIMASZ
 40
0.18
  9
$DIMEXO
 40
0.0625
  9
$DIMDLI
 40
0.38
  9
$DIMRND
 40
0.0
  9
$DIMDLE
 40
0.0
  9
$DIMEXE
 40
0.18
  9
$DIMTP
 40
0.0
  9
$DIMTM
 40
0.0
  9
$DIMTXT
 40
0.18
  9
$DIMCEN
 40
0.09
  9
$DIMTSZ
 40
0.0
  9
$DIMTOL
 70
     0
  9
$DIMLIM
 70
     0
  9
$DIMTIH
 70
     1
  9
$DIMTOH
 70
     1
  9
$DIMSE1
 70
     0
  9
$DIMSE2
 70
     0
  9
$DIMTAD
 70
     0
  9
$DIMZIN
 70
     0
  9
$DIMBLK
  1

  9
$DIMASO
 70
     1
  9
$DIMSHO
 70
     1
  9
$DIMPOST
  1

  9
$DIMAPOST
  1

  9
$DIMALT
 70
     0
  9
$DIMALTD
 70
     2
  9
$DIMALTF
 40
25.4
  9
$DIMLFAC
 40
1.0
  9
$DIMTOFL
 70
     0
  9
$DIMTVP
 40
0.0
  9
$DIMTIX
 70
     0
  9
$DIMSOXD
 70
     0
  9
$DIMSAH
 70
     0
  9
$DIMBLK1
  1

  9
$DIMBLK2
  1

  9
$DIMSTYLE
  2
STANDARD
  9
$DIMCLRD
 70
     0
  9
$DIMCLRE
 70
     0
  9
$DIMCLRT
 70
     0
  9
$DIMTFAC
 40
1.0
  9
$DIMGAP
 40
0.09
  9
$LUNITS
 70
     2
  9
$LUPREC
 70
     4
  9
$SKETCHINC
 40
0.1
  9
$FILLETRAD
 40
0.5
  9
$AUNITS
 70
     0
  9
$AUPREC
 70
     0
  9
$MENU
  1
.
  9
$ELEVATION
 40
0.0
  9
$PELEVATION
 40
0.0
  9
$THICKNESS
 40
0.0
  9
$LIMCHECK
 70
     0
  9
$CHAMFERA
 40
0.5
  9
$CHAMFERB
 40
0.5
  9
$SKPOLY
 70
     0
  9
$TDCREATE
 40
2453619.496164005
  9
$TDUPDATE
 40
2453619.496164016
  9
$TDINDWG
 40
0.0000000116
  9
$TDUSRTIMER
 40
0.0000000116
  9
$USRTIMER
 70
     1
  9
$ANGBASE
 50
0.0
  9
$ANGDIR
 70
     0
  9
$PDMODE
 70
     0
  9
$PDSIZE
 40
0.0
  9
$PLINEWID
 40
0.0
  9
$COORDS
 70
     1
  9
$SPLFRAME
 70
     0
  9
$SPLINETYPE
 70
     6
  9
$SPLINESEGS
 70
     8
  9
$ATTDIA
 70
     0
  9
$ATTREQ
 70
     1
  9
$HANDLING
 70
     1
  9
$HANDSEED
  5
203
  9
$SURFTAB1
 70
     6
  9
$SURFTAB2
 70
     6
  9
$SURFTYPE
 70
     6
  9
$SURFU
 70
     6
  9
$SURFV
 70
     6
  9
$UCSNAME
  2

  9
$UCSORG
 10
0.0
 20
0.0
 30
0.0
  9
$UCSXDIR
 10
1.0
 20
0.0
 30
0.0
  9
$UCSYDIR
 10
0.0
 20
1.0
 30
0.0
  9
$PUCSNAME
  2

  9
$PUCSORG
 10
0.0
 20
0.0
 30
0.0
  9
$PUCSXDIR
 10
1.0
 20
0.0
 30
0.0
  9
$PUCSYDIR
 10
0.0
 20
1.0
 30
0.0
  9
$USERI1
 70
     0
  9
$USERI2
 70
     0
  9
$USERI3
 70
     0
  9
$USERI4
 70
     0
  9
$USERI5
 70
     0
  9
$USERR1
 40
0.0
  9
$USERR2
 40
0.0
  9
$USERR3
 40
0.0
  9
$USERR4
 40
0.0
  9
$USERR5
 40
0.0
  9
$WORLDVIEW
 70
     1
  9
$SHADEDGE
 70
     3
  9
$SHADEDIF
 70
    70
  9
$TILEMODE
 70
     1
  9
$MAXACTVP
 70
    64
  9
$PLIMCHECK
 70
     0
  9
$PEXTMIN
 10
1.000000000000000E+20
 20
1.000000000000000E+20
 30
1.000000000000000E+20
  9
$PEXTMAX
 10
-1.000000000000000E+20
 20
-1.000000000000000E+20
 30
-1.000000000000000E+20
  9
$PLIMMIN
 10
0.0
 20
0.0
  9
$PLIMMAX
 10
12.0
 20
9.0
  9
$UNITMODE
 70
     0
  9
$VISRETAIN
 70
     1
  9
$PLINEGEN
 70
     0
  9
$PSLTSCALE
 70
     1
  0
ENDSEC
  0
SECTION
  2
TABLES
  0
TABLE
  2
VPORT
 70
     1
  0
VPORT
  2
*ACTIVE
 70
     0
 10
0.0
 20
0.0
 11
1.0
 21
1.0
 12
10.42990654205607
 22
4.5
 13
0.0
 23
0.0
 14
0.5
 24
0.5
 15
0.5
 25
0.5
 16
0.0
 26
0.0
 36
1.0
 17
0.0
 27
0.0
 37
0.0
 40
9.0
 41
1.972972972850329
 42
50.0
 43
0.0
 44
0.0
 50
0.0
 51
0.0
 71
     0
 72
   100
 73
     1
 74
     3
 75
     0
 76
     0
 77
     0
 78
     0
  0
ENDTAB
  0
TABLE
  2
LTYPE
 70
     9
  0
LTYPE
  2
CONTINUOUS
 70
     0
  3
Solid Line
 72
    65
 73
     0
 40
0.0
  0
LTYPE
  2
MCDASH1
 70
     0
  3
MiniCad+ Generated
 72
    65
 73
     6
 40
8.740551
 49
2.497134
 49
-1.248761
 49
2.497134
 49
-1.248761
 49
0.000388
 49
-1.248373
  0
LTYPE
  2
MCDASH2
 70
     0
  3
MiniCad+ Generated
 72
    65
 73
     4
 40
9.989699999999999
 49
6.243417
 49
-1.248761
 49
1.248761
 49
-1.248761
  0
LTYPE
  2
MCDASH3
 70
     0
  3
MiniCad+ Generated
 72
    65
 73
     4
 40
4.994656
 49
2.497134
 49
-1.248761
 49
0.000388
 49
-1.248373
  0
LTYPE
  2
MCDASH4
 70
     0
  3
MiniCad+ Generated
 72
    65
 73
     2
 40
3.745895
 49
2.497134
 49
-1.248761
  0
LTYPE
  2
MCDASH5
 70
     0
  3
MiniCad+ Generated
 72
    65
 73
     6
 40
6.243417
 49
2.497134
 49
-1.248761
 49
0.000388
 49
-1.248373
 49
0.000388
 49
-1.248373
  0
LTYPE
  2
MCDASH6
 70
     0
  3
MiniCad+ Generated
 72
    65
 73
     4
 40
2.497522
 49
0.000388
 49
-1.248373
 49
0.000388
 49
-1.248373
  0
LTYPE
  2
MCDASH7
 70
     0
  3
MiniCad+ Generated
 72
    65
 73
     2
 40
1.873141
 49
1.248761
 49
-0.6243800000000001
  0
LTYPE
  2
MCDASH8
 70
     0
  3
MiniCad+ Generated
 72
    65
 73
     6
 40
12.487222
 49
6.243417
 49
-1.248761
 49
1.248761
 49
-1.248761
 49
1.248761
 49
-1.248761
  0
ENDTAB
  0
TABLE
  2
LAYER
 70
     4
  0
LAYER
  2
0
 70
     0
 62
     7
  6
CONTINUOUS
  0
LAYER
  2
RETINO
 70
     0
 62
     7
  6
CONTINUOUS
  0
LAYER
  2
QUOTE
 70
     0
 62
     7
  6
CONTINUOUS
  0
LAYER
  2
DISEGNO
 70
     0
 62
     7
  6
CONTINUOUS
  0
ENDTAB
  0
TABLE
  2
STYLE
 70
     1
  0
STYLE
  2
STANDARD
 70
     0
 40
0.0
 41
1.0
 50
0.0
 71
     0
 42
0.2
  3
txt
  4

  0
ENDTAB
  0
TABLE
  2
VIEW
 70
     0
  0
ENDTAB
  0
TABLE
  2
UCS
 70
     0
  0
ENDTAB
  0
TABLE
  2
APPID
 70
     1
  0
APPID
  2
ACAD
 70
     0
  0
ENDTAB
  0
TABLE
  2
DIMSTYLE
 70
     1
  0
DIMSTYLE
  2
STANDARD
 70
     0
  3

  4

  5

  6

  7

 40
1.0
 41
0.18
 42
0.0625
 43
0.38
 44
0.18
 45
0.0
 46
0.0
 47
0.0
 48
0.0
140
0.18
141
0.09
142
0.0
143
25.4
144
1.0
145
0.0
146
1.0
147
0.09
 71
     0
 72
     0
 73
     1
 74
     1
 75
     0
 76
     0
 77
     0
 78
     0
170
     0
171
     2
172
     0
173
     0
174
     0
175
     0
176
     0
177
     0
178
     0
  0
ENDTAB
  0
ENDSEC
  0
SECTION
  2
BLOCKS
  0
BLOCK
  8
0
  2
$MODEL_SPACE
 70
     0
 10
0.0
 20
0.0
 30
0.0
  3
$MODEL_SPACE
  1

  0
ENDBLK
  5
1FE
  8
0
  0
BLOCK
 67
     1
  8
0
  2
$PAPER_SPACE
 70
     0
 10
0.0
 20
0.0
 30
0.0
  3
$PAPER_SPACE
  1

  0
ENDBLK
  5
1FC
 67
     1
  8
0
  0
BLOCK
  8
0
  2
$ARROW1$
 70
     0
 10
0.0
 20
0.0
 30
0.0
  3
$ARROW1$
  1

  0
SOLID
  5
2F
  8
0
 62
     0
 10
-25.4
 20
4.318
 30
0.0
 11
-25.4
 21
-4.318
 31
0.0
 12
0.0
 22
0.0
 32
0.0
 13
0.0
 23
0.0
 33
0.0
  0
ENDBLK
  5
1E4
  8
0
  0
BLOCK
  8
0
  2
$ARROW2$
 70
     0
 10
0.0
 20
0.0
 30
0.0
  3
$ARROW2$
  1

  0
SOLID
  5
33
  8
0
 62
     0
 10
-25.4
 20
12.7
 30
0.0
 11
-25.4
 21
-12.7
 31
0.0
 12
0.0
 22
0.0
 32
0.0
 13
0.0
 23
0.0
 33
0.0
  0
ENDBLK
  5
1E6
  8
0
  0
BLOCK
  8
0
  2
$ARROW3$
 70
     0
 10
0.0
 20
0.0
 30
0.0
  3
$ARROW3$
  1

  0
POLYLINE
  5
37
  8
0
  6
BYBLOCK
 62
     0
 66
     1
 10
0.0
 20
0.0
 30
0.0
 70
     1
 40
0.5
 41
0.5
  0
VERTEX
  5
1A6
  8
0
  6
BYBLOCK
 62
     0
 10
-6.35
 20
0.0
 30
0.0
 42
1.0
  0
VERTEX
  5
1A7
  8
0
  6
BYBLOCK
 62
     0
 10
6.35
 20
0.0
 30
0.0
 42
1.0
  0
SEQEND
  5
1E7
  8
0
  6
BYBLOCK
 62
     0
  0
ENDBLK
  5
1E9
  8
0
  0
BLOCK
  8
0
  2
$ARROW4$
 70
     0
 10
0.0
 20
0.0
 30
0.0
  3
$ARROW4$
  1

  0
LINE
  5
3E
  8
0
  6
BYBLOCK
 62
     0
 10
12.7
 20
12.7
 30
0.0
 11
-12.7
 21
-12.7
 31
0.0
  0
ENDBLK
  5
1EB
  8
0
  0
BLOCK
  8
0
  2
$ARROW5$
 70
     0
 10
0.0
 20
0.0
 30
0.0
  3
$ARROW5$
  1

  0
LINE
  5
42
  8
0
  6
BYBLOCK
 62
     0
 10
12.7
 20
12.7
 30
0.0
 11
-12.7
 21
-12.7
 31
0.0
  0
LINE
  5
43
  8
0
  6
BYBLOCK
 62
     0
 10
-12.7
 20
12.7
 30
0.0
 11
12.7
 21
-12.7
 31
0.0
  0
ENDBLK
  5
1ED
  8
0
  0
BLOCK
  8
0
  2
TOP__1
 70
     0
 10
0.0
 20
0.0
 30
0.0
  3
TOP__1
  1

  0
LINE
  5
47
  8
0
 10
-5.0
 20
289.94751
 30
0.0
 11
-5.0
 21
292.0
 31
0.0
  0
LINE
  5
48
  8
0
 10
-415.0
 20
292.0
 30
0.0
 11
-415.0
 21
5.0
 31
0.0
  0
LINE
  5
49
  8
0
 10
-5.0
 20
292.0
 30
0.0
 11
-415.0
 21
292.0
 31
0.0
  0
LINE
  5
4A
  8
0
 10
-5.0
 20
5.0
 30
0.0
 11
-5.0
 21
292.0
 31
0.0
  0
LINE
  5
4B
  8
0
 10
-415.0
 20
5.0
 30
0.0
 11
-5.0
 21
5.0
 31
0.0
  0
LINE
  5
4C
  8
0
 62
     2
 10
-420.0
 20
297.0
 30
0.0
 11
-420.0
 21
0.0
 31
0.0
  0
LINE
  5
4D
  8
0
 62
     2
 10
0.0
 20
297.0
 30
0.0
 11
-420.0
 21
297.0
 31
0.0
  0
LINE
  5
4E
  8
0
 62
     2
 10
0.0
 20
0.0
 30
0.0
 11
0.0
 21
297.0
 31
0.0
  0
LINE
  5
4F
  8
0
 62
     2
 10
-420.0
 20
0.0
 30
0.0
 11
0.0
 21
0.0
 31
0.0
  0
LINE
  5
50
  8
0
 10
-210.0
 20
0.0
 30
0.0
 11
-210.0
 21
5.0
 31
0.0
  0
LINE
  5
51
  8
0
 10
-210.0
 20
292.0
 30
0.0
 11
-210.0
 21
297.0
 31
0.0
  0
LINE
  5
52
  8
0
  6
MCDASH6
 10
-152.701
 20
29.7
 30
0.0
 11
-54.96954
 21
29.7
 31
0.0
  0
LINE
  5
53
  8
0
  6
MCDASH6
 10
-152.701
 20
23.4
 30
0.0
 11
-55.07647
 21
23.4
 31
0.0
  0
LINE
  5
54
  8
0
  6
MCDASH6
 10
-54.86261
 20
17.1
 30
0.0
 11
-152.80793
 21
17.1
 31
0.0
  0
LINE
  5
55
  8
0
 10
-52.66409
 20
15.0
 30
0.0
 11
-155.0
 21
15.0
 31
0.0
  0
LINE
  5
56
  8
0
 10
-75.76345000000001
 20
58.0
 30
0.0
 11
-75.76345000000001
 21
48.0
 31
0.0
  0
LINE
  5
57
  8
0
 10
-205.0
 20
39.62045
 30
0.0
 11
-155.0
 21
39.62045
 31
0.0
  0
LINE
  5
58
  8
0
  6
MCDASH6
 10
-70.88084000000001
 20
66.0
 30
0.0
 11
-29.66409
 21
66.0
 31
0.0
  0
LINE
  5
59
  8
0
  6
MCDASH6
 10
-115.5
 20
62.0
 30
0.0
 11
-29.66409
 21
62.0
 31
0.0
  0
LINE
  5
5A
  8
0
 62
     2
 10
-52.66409
 20
35.0
 30
0.0
 11
-27.66409
 21
35.0
 31
0.0
  0
LINE
  5
5B
  8
0
 62
     2
 10
-52.66409
 20
15.0
 30
0.0
 11
-27.66409
 21
15.0
 31
0.0
  0
LINE
  5
5C
  8
0
 10
-52.66409
 20
25.0
 30
0.0
 11
-27.66409
 21
25.0
 31
0.0
  0
LINE
  5
5D
  8
0
 10
-52.66409
 20
5.0
 30
0.0
 11
-52.66409
 21
58.0
 31
0.0
  0
LINE
  5
5E
  8
0
 10
-117.5
 20
70.0
 30
0.0
 11
-117.5
 21
58.0
 31
0.0
  0
LINE
  5
5F
  8
0
 10
-155.0
 20
36.0
 30
0.0
 11
-52.66409
 21
36.0
 31
0.0
  0
LINE
  5
60
  8
0
 10
-75.76345000000001
 20
48.0
 30
0.0
 11
-75.76345000000001
 21
36.0
 31
0.0
  0
LINE
  5
61
  8
0
 10
-95.96475
 20
58.0
 30
0.0
 11
-95.96475
 21
48.0
 31
0.0
  0
LINE
  5
62
  8
0
 10
-27.66409
 20
58.0
 30
0.0
 11
-205.0
 21
58.0
 31
0.0
  0
LINE
  5
63
  8
0
 10
-155.0
 20
58.0
 30
0.0
 11
-155.0
 21
5.0
 31
0.0
  0
LINE
  5
64
  8
0
 10
-27.66409
 20
70.0
 30
0.0
 11
-27.66409
 21
5.0
 31
0.0
  0
LINE
  5
65
  8
0
 10
-27.66409
 20
70.0
 30
0.0
 11
-29.89802
 21
70.0
 31
0.0
  0
LINE
  5
66
  8
0
  6
MCDASH6
 10
-203.0
 20
62.0
 30
0.0
 11
-119.5
 21
62.0
 31
0.0
  0
LINE
  5
67
  8
0
  6
MCDASH6
 10
-157.46154
 20
66.0
 30
0.0
 11
-119.5
 21
66.0
 31
0.0
  0
LINE
  5
68
  8
0
 10
-205.0
 20
5.0
 30
0.0
 11
-205.0
 21
70.0
 31
0.0
  0
LINE
  5
69
  8
0
 10
-155.0
 20
30.01558
 30
0.0
 11
-205.0
 21
30.01558
 31
0.0
  0
LINE
  5
6A
  8
0
 10
-205.0
 20
20.41071
 30
0.0
 11
-155.0
 21
20.41071
 31
0.0
  0
LINE
  5
6B
  8
0
 62
     2
 10
-13.29934
 20
70.0
 30
0.0
 11
-13.29934
 21
177.58506
 31
0.0
  0
LINE
  5
6C
  8
0
 10
-205.0
 20
70.0
 30
0.0
 11
-5.0
 21
70.0
 31
0.0
  0
LINE
  5
6D
  8
0
 62
     2
 10
-21.59868
 20
70.0
 30
0.0
 11
-21.59868
 21
177.58506
 31
0.0
  0
LINE
  5
6E
  8
0
  6
MCDASH6
 10
-129.85943
 20
44.0
 30
0.0
 11
-97.89082999999999
 21
44.0
 31
0.0
  0
LINE
  5
6F
  8
0
  6
MCDASH6
 10
-97.89082999999999
 20
40.0
 30
0.0
 11
-152.19309
 21
40.0
 31
0.0
  0
LINE
  5
70
  8
0
 10
-167.94653
 20
20.41071
 30
0.0
 11
-167.94653
 21
5.0
 31
0.0
  0
LINE
  5
71
  8
0
 10
-155.0
 20
48.0
 30
0.0
 11
-52.66409
 21
48.0
 31
0.0
  0
LINE
  5
72
  8
0
 10
-121.26117
 20
58.0
 30
0.0
 11
-121.26117
 21
48.0
 31
0.0
  0
LINE
  5
73
  8
0
 62
     2
 10
-29.89802
 20
76.62111
 30
0.0
 11
-5.0
 21
76.62111
 31
0.0
  0
LINE
  5
74
  8
0
 62
     2
 10
-29.89802
 20
92.21789
 30
0.0
 11
-5.0
 21
92.21789
 31
0.0
  0
LINE
  5
75
  8
0
 62
     2
 10
-29.89802
 20
109.54874
 30
0.0
 11
-5.0
 21
109.54874
 31
0.0
  0
LINE
  5
76
  8
0
 62
     2
 10
-29.89802
 20
187.62111
 30
0.0
 11
-5.0
 21
187.62111
 31
0.0
  0
LINE
  5
77
  8
0
 62
     2
 10
-29.89802
 20
203.21789
 30
0.0
 11
-5.0
 21
203.21789
 31
0.0
  0
LINE
  5
78
  8
0
 62
     2
 10
-29.89802
 20
220.54874
 30
0.0
 11
-5.0
 21
220.54874
 31
0.0
  0
LINE
  5
79
  8
0
 62
     2
 10
-32.29977
 20
180.5663
 30
0.0
 11
-5.0
 21
180.5663
 31
0.0
  0
LINE
  5
7A
  8
0
 62
     2
 10
-29.89802
 20
289.94751
 30
0.0
 11
-29.89802
 21
187.62111
 31
0.0
  0
LINE
  5
7B
  8
0
 62
     2
 10
-9.14967
 20
177.58506
 30
0.0
 11
-9.14967
 21
70.0
 31
0.0
  0
LINE
  5
7C
  8
0
 62
     2
 10
-17.44901
 20
177.58506
 30
0.0
 11
-17.44901
 21
70.0
 31
0.0
  0
LINE
  5
7D
  8
0
 62
     2
 10
-25.74835
 20
177.58506
 30
0.0
 11
-25.74835
 21
70.0
 31
0.0
  0
LINE
  5
7E
  8
0
 62
     2
 10
-29.89802
 20
177.58506
 30
0.0
 11
-29.89802
 21
70.0
 31
0.0
  0
LINE
  5
7F
  8
0
 62
     2
 10
-5.0
 20
177.58506
 30
0.0
 11
-32.29977
 21
177.58506
 31
0.0
  0
LINE
  5
80
  8
0
 10
-5.0
 20
177.58506
 30
0.0
 11
-5.0
 21
180.5663
 31
0.0
  0
LINE
  5
81
  8
0
 62
     2
 10
-21.59868
 20
180.5663
 30
0.0
 11
-21.59868
 21
289.94751
 31
0.0
  0
LINE
  5
82
  8
0
 62
     2
 10
-13.29934
 20
180.5663
 30
0.0
 11
-13.29934
 21
289.94751
 31
0.0
  0
LINE
  5
83
  8
0
 10
-95.96475
 20
48.0
 30
0.0
 11
-95.96475
 21
36.0
 31
0.0
  0
LINE
  5
84
  8
0
 62
     2
 10
-9.14967
 20
289.94751
 30
0.0
 11
-9.14967
 21
180.5663
 31
0.0
  0
LINE
  5
85
  8
0
 62
     2
 10
-17.44901
 20
289.94751
 30
0.0
 11
-17.44901
 21
180.5663
 31
0.0
  0
LINE
  5
86
  8
0
 62
     2
 10
-25.74835
 20
289.94751
 30
0.0
 11
-25.74835
 21
180.5663
 31
0.0
  0
LINE
  5
87
  8
0
 62
     2
 10
-29.89802
 20
289.94751
 30
0.0
 11
-29.89802
 21
180.5663
 31
0.0
  0
LINE
  5
88
  8
0
 62
     2
 10
-32.19993
 20
289.94751
 30
0.0
 11
-5.0
 21
289.94751
 31
0.0
  0
LINE
  5
89
  8
0
 10
-27.66409
 20
15.0
 30
0.0
 11
-5.0
 21
15.0
 31
0.0
  0
LINE
  5
8A
  8
0
 10
-52.66409
 20
45.0
 30
0.0
 11
-27.66409
 21
45.0
 31
0.0
  0
TEXT
  5
8B
  8
0
 62
     2
 10
-30.36186
 20
242.22447
 30
0.0
 40
1.386664
  1
Modifiche (Modifications)
 50
90.0
 41
0.488462
  0
TEXT
  5
8C
  8
0
 62
     2
 10
-31.74882
 20
210.52599
 30
0.0
 40
1.28
  1
Dis.
 50
90.0
 41
0.413412
  0
TEXT
  5
8D
  8
0
 62
     2
 10
-30.04407
 20
207.53895
 30
0.0
 40
1.28
  1
(Draftsm.)
 50
90.0
 41
0.551216
  0
TEXT
  5
8E
  8
0
 62
     2
 10
-30.17035
 20
192.52982
 30
0.0
 40
1.28
  1
(Date)
 50
90.0
 41
0.551215
  0
TEXT
  5
8F
  8
0
 62
     2
 10
-31.8751
 20
193.12393
 30
0.0
 40
1.28
  1
Data
 50
90.0
 41
0.551215
  0
TEXT
  5
90
  8
0
 62
     2
 10
-30.04407
 20
182.07127
 30
0.0
 40
1.28
  1
(Ind.)
 50
90.0
 41
0.459346
  0
TEXT
  5
91
  8
0
 62
     2
 10
-31.74882
 20
181.8415
 30
0.0
 40
1.28
  1
Indic.
 50
90.0
 41
0.459346
  0
TEXT
  5
92
  8
0
 62
     2
 10
-30.36186
 20
130.60332
 30
0.0
 40
1.386664
  1
Modifiche (Modifications)
 50
90.0
 41
0.488462
  0
TEXT
  5
93
  8
0
 62
     2
 10
-31.74882
 20
98.77676
 30
0.0
 40
1.28
  1
 Dis.
 50
90.0
 41
0.440972
  0
TEXT
  5
94
  8
0
 62
     2
 10
-30.04407
 20
96.66006
 30
0.0
 40
1.28
  1
(Draftsm.)
 50
90.0
 41
0.551216
  0
TEXT
  5
95
  8
0
 62
     2
 10
-31.8751
 20
81.92968999999999
 30
0.0
 40
1.28
  1
Data
 50
90.0
 41
0.551215
  0
TEXT
  5
96
  8
0
 62
     2
 10
-30.17035
 20
81.56681
 30
0.0
 40
1.28
  1
(Date)
 50
90.0
 41
0.551215
  0
TEXT
  5
97
  8
0
 62
     2
 10
-30.04407
 20
71.33216
 30
0.0
 40
1.28
  1
(Ind.)
 50
90.0
 41
0.459346
  0
TEXT
  5
98
  8
0
 62
     2
 10
-31.74882
 20
71.11808000000001
 30
0.0
 40
1.28
  1
Indic.
 50
90.0
 41
0.459346
  0
TEXT
  5
99
  8
0
 62
     2
 10
-74.46737
 20
45.25898
 30
0.0
 40
1.28
  1
Ritiro %%%
 41
0.53366
  0
TEXT
  5
9A
  8
0
 62
     2
 10
-74.46737
 20
42.61898
 30
0.0
 40
1.28
  1
(Contraction %%%)
 41
0.6098980000000001
  0
TEXT
  5
9B
  8
0
 62
     2
 10
-94.4096
 20
45.40379
 30
0.0
 40
1.28
  1
Colore
 41
0.609897
  0
TEXT
  5
9C
  8
0
 62
     2
 10
-94.4096
 20
42.76379
 30
0.0
 40
1.28
  1
(Colour)
 41
0.53366
  0
TEXT
  5
9D
  8
0
 62
     2
 10
-152.0
 20
44.39403
 30
0.0
 40
1.28
  1
Materiale (Mat.)
 41
0.571779
  0
TEXT
  5
9E
  8
0
 62
     2
 10
-152.00617
 20
30.5
 30
0.0
 40
1.6
  1
Descrizione (Description)
 41
0.702602
  0
TEXT
  5
9F
  8
0
 62
     2
 10
-165.87083
 20
17.14742
 30
0.0
 40
1.386664
  1
Modifica
 41
0.49261
  0
TEXT
  5
A0
  8
0
 62
     2
 10
-166.75003
 20
14.99679
 30
0.0
 40
1.28
  1
(Modific.)
 41
0.548908
  0
TEXT
  5
A1
  8
0
 62
     2
 10
-152.48715
 20
11.34104
 30
0.0
 40
1.6
  1
Progetto (Project)
 41
0.704771
  0
TEXT
  5
A2
  8
0
 62
     2
 10
-26.48325
 20
12.25948
 30
0.0
 40
1.28
  1
Foglio
 41
0.508249
  0
TEXT
  5
A3
  8
0
 62
     2
 10
-26.48325
 20
9.619479999999999
 30
0.0
 40
1.28
  1
(Sheet)
 41
0.609897
  0
TEXT
  5
A4
  8
0
 62
     2
 10
-51.47711
 20
12.01661
 30
0.0
 40
1.28
  1
Data
 41
0.6098980000000001
  0
TEXT
  5
A5
  8
0
 62
     2
 10
-51.47711
 20
9.376609999999999
 30
0.0
 40
1.28
  1
(Date)
 41
0.609897
  0
TEXT
  5
A6
  8
0
 62
     2
 10
-51.36453
 20
22.17863
 30
0.0
 40
1.28
  1
Contr.
 41
0.508249
  0
TEXT
  5
A7
  8
0
 62
     2
 10
-51.36453
 20
19.53863
 30
0.0
 40
1.28
  1
(Check)
 41
0.609897
  0
TEXT
  5
A8
  8
0
 62
     2
 10
-51.36453
 20
42.21268
 30
0.0
 40
1.28
  1
Dis.
 41
0.457424
  0
TEXT
  5
A9
  8
0
 62
     2
 10
-51.36453
 20
39.57268
 30
0.0
 40
1.28
  1
(Draftsm.)
 41
0.6098980000000001
  0
TEXT
  5
AA
  8
0
 62
     2
 10
-51.36453
 20
54.87117
 30
0.0
 40
1.28
  1
Scala
 41
0.487919
  0
TEXT
  5
AB
  8
0
 62
     2
 10
-51.36453
 20
52.23117
 30
0.0
 40
1.28
  1
(Scale)
 41
0.522769
  0
TEXT
  5
AC
  8
0
 62
     2
 10
-74.38867999999999
 20
55.1526
 30
0.0
 40
1.28
  1
Toll. Gen.
 41
0.487918
  0
TEXT
  5
AD
  8
0
 62
     2
 10
-74.33785
 20
52.46079
 30
0.0
 40
1.28
  1
(Gen. Tol.)
 41
0.5544519999999999
  0
TEXT
  5
AE
  8
0
 62
     2
 10
-94.66209000000001
 20
55.01082
 30
0.0
 40
1.386664
  1
Peso
 41
0.562984
  0
TEXT
  5
AF
  8
0
 62
     2
 10
-94.66209000000001
 20
52.41082
 30
0.0
 40
1.386664
  1
(Weight)
 41
0.562983
  0
TEXT
  5
B0
  8
0
 62
     2
 10
-114.5
 20
65.56667
 30
0.0
 40
1.386664
  1
Tratt. superfic. (Surface treatments)
 41
0.532552
  0
TEXT
  5
B1
  8
0
 62
     2
 10
-119.97865
 20
55.34565
 30
0.0
 40
1.386664
  1
Linea
 41
0.562984
  0
TEXT
  5
B2
  8
0
 62
     2
 10
-120.29097
 20
52.61616
 30
0.0
 40
1.28
  1
(Line)
 41
0.508249
  0
TEXT
  5
B3
  8
0
 62
     2
 10
-202.0
 20
65.59999999999999
 30
0.0
 40
1.28
  1
Tratt. termici (Heat treatments)
 41
0.590838
  0
TEXT
  5
B4
  8
0
 62
     2
 10
-203.8
 20
31.77597
 30
0.0
 40
1.28
  1
N%%d
 41
0.6098980000000001
  0
TEXT
  5
B5
  8
0
 62
     2
 10
-203.81978
 20
36.62848
 30
0.0
 40
1.28
  1
Dis. Cliente
 41
0.508248
  0
TEXT
  5
B6
  8
0
 62
     2
 10
-203.81978
 20
33.98848
 30
0.0
 40
1.28
  1
(Customer Drawing)
 41
0.6437810000000001
  0
TEXT
  5
B7
  8
0
 62
     2
 10
-203.8832
 20
27.4449
 30
0.0
 40
1.28
  1
Dis. Complessivo
 41
0.6098980000000001
  0
TEXT
  5
B8
  8
0
 62
     2
 10
-203.8832
 20
24.8049
 30
0.0
 40
1.28
  1
(Assembly drawing)
 41
0.6437810000000001
  0
TEXT
  5
B9
  8
0
 62
     2
 10
-203.8
 20
21.65238
 30
0.0
 40
1.28
  1
N%%d
 41
0.6098980000000001
  0
TEXT
  5
BA
  8
0
 62
     2
 10
-203.8
 20
12.17893
 30
0.0
 40
1.28
  1
N%%d
 41
0.6098980000000001
  0
TEXT
  5
BB
  8
0
 62
     2
 10
-203.8832
 20
17.37399
 30
0.0
 40
1.28
  1
Disegno o stp.
 41
0.566334
  0
TEXT
  5
BC
  8
0
 62
     2
 10
-203.8832
 20
14.73399
 30
0.0
 40
1.28
  1
(Drawing or mould)
 41
0.6098980000000001
  0
TEXT
  5
BD
  8
0
 62
     2
 10
-17.53179
 20
0.95899
 30
0.0
 40
2.133336
  1
 UNI A/3
 41
0.548907
  0
TEXT
  5
BE
  8
0
 62
     2
 10
-151.58279
 20
51.06494
 30
0.0
 40
2.666664
  1
UFFICI TECNICI
 41
0.564592
  0
TEXT
  5
BF
  8
0
 62
     2
 10
-24.49875
 20
17.13479
 30
0.0
 40
1.259208
  1
Proprieta' della Marbett S.p.A..
 50
90.0
 41
0.507787
  0
TEXT
  5
C0
  8
0
 62
     2
 10
-21.90162
 20
17.13479
 30
0.0
 40
1.259208
  1
Senza autorizzazione scritta della
 50
90.0
 41
0.527357
  0
TEXT
  5
C1
  8
0
 62
     2
 10
-19.3045
 20
17.13479
 30
0.0
 40
1.259208
  1
stessa il presente disegno non puo'
 50
90.0
 41
0.544308
  0
TEXT
  5
C2
  8
0
 62
     2
 10
-16.70737
 20
17.13479
 30
0.0
 40
1.259208
  1
essere comunque utilizzato per la
 50
90.0
 41
0.543338
  0
TEXT
  5
C3
  8
0
 62
     2
 10
-14.11025
 20
17.13479
 30
0.0
 40
1.259208
  1
costruzione dell'oggetto rappresentato,
 50
90.0
 41
0.5459500000000001
  0
TEXT
  5
C4
  8
0
 62
     2
 10
-11.51312
 20
17.13479
 30
0.0
 40
1.259208
  1
ne' venire comunicato a terzi o
 50
90.0
 41
0.5241670000000001
  0
TEXT
  5
C5
  8
0
 62
     2
 10
-8.916
 20
17.13479
 30
0.0
 40
1.259208
  1
riprodotto. La Societa' proprietaria
 50
90.0
 41
0.513624
  0
TEXT
  5
C6
  8
0
 62
     2
 10
-6.31887
 20
17.13479
 30
0.0
 40
1.259208
  1
tutela i propri diritti a rigore di legge.
 50
90.0
 41
0.466931
  0
TEXT
  5
C7
  8
0
 62
     2
 10
-51.47711
 20
32.01661
 30
0.0
 40
1.28
  1
Data
 41
0.6098980000000001
  0
TEXT
  5
C8
  8
0
 62
     2
 10
-51.47711
 20
29.37661
 30
0.0
 40
1.28
  1
(Date)
 41
0.609897
  0
TEXT
  5
C9
  8
0
 62
     2
 10
-201.94844
 20
45.9769
 30
0.0
 40
4.266664
  1
Rexnord Marbett
 41
0.683086
  0
ENDBLK
  5
1EF
  8
0
  0
BLOCK
  8
0
  2
_1__S
 70
     0
 10
0.0
 20
0.0
 30
0.0
  3
_1__S
  1

  0
LINE
  5
CD
  8
0
 10
-6.25
 20
-4.86502
 30
0.0
 11
6.5
 21
-4.86502
 31
0.0
  0
LINE
  5
CE
  8
0
 10
-6.0
 20
-4.86502
 30
0.0
 11
-3.25
 21
-4.86502
 31
0.0
  0
LINE
  5
CF
  8
0
  6
MCDASH3
 10
0.0
 20
-3.564
 30
0.0
 11
0.0
 21
-11.54609
 31
0.0
  0
LINE
  5
D0
  8
0
  6
MCDASH3
 10
0.0
 20
3.564
 30
0.0
 11
0.0
 21
8.894119999999999
 31
0.0
  0
LINE
  5
D1
  8
0
  6
MCDASH3
 10
0.0
 20
3.564
 30
0.0
 11
0.0
 21
-3.564
 31
0.0
  0
LINE
  5
D2
  8
0
  6
MCDASH3
 10
3.564
 20
0.0
 30
0.0
 11
-3.564
 21
0.0
 31
0.0
  0
LINE
  5
D3
  8
0
 10
5.0
 20
6.0
 30
0.0
 11
0.2
 21
6.0
 31
0.0
  0
LINE
  5
D4
  8
0
 10
0.2
 20
7.1
 30
0.0
 11
0.2
 21
5.9
 31
0.0
  0
LINE
  5
D5
  8
0
 10
-5.0
 20
5.9
 30
0.0
 11
0.2
 21
5.9
 31
0.0
  0
LINE
  5
D6
  8
0
 10
0.2
 20
7.1
 30
0.0
 11
-5.0
 21
7.1
 31
0.0
  0
LINE
  5
D7
  8
0
 10
0.2
 20
7.0
 30
0.0
 11
5.0
 21
7.0
 31
0.0
  0
LINE
  5
D8
  8
0
 10
8.0
 20
4.0
 30
0.0
 11
8.0
 21
-4.86502
 31
0.0
  0
LINE
  5
D9
  8
0
 10
5.0
 20
8.0
 30
0.0
 11
-5.0
 21
8.0
 31
0.0
  0
LINE
  5
DA
  8
0
 10
7.0
 20
-4.86502
 30
0.0
 11
7.0
 21
4.0
 31
0.0
  0
LINE
  5
DB
  8
0
 10
-8.1
 20
-4.86502
 30
0.0
 11
-8.1
 21
4.0
 31
0.0
  0
LINE
  5
DC
  8
0
 10
-6.9
 20
-4.86502
 30
0.0
 11
-6.9
 21
4.0
 31
0.0
  0
LINE
  5
DD
  8
0
 10
-6.0
 20
-4.86502
 30
0.0
 11
-9.0
 21
-4.86502
 31
0.0
  0
LINE
  5
DE
  8
0
 10
6.0
 20
-4.86502
 30
0.0
 11
6.25
 21
-4.86502
 31
0.0
  0
LINE
  5
DF
  8
0
 10
-9.0
 20
4.0
 30
0.0
 11
-9.0
 21
-10.86736
 31
0.0
  0
LINE
  5
E0
  8
0
 10
9.0
 20
4.0
 30
0.0
 11
9.0
 21
-10.86736
 31
0.0
  0
LINE
  5
E1
  8
0
 10
6.5
 20
-5.11502
 30
0.0
 11
6.5
 21
-9.198090000000001
 31
0.0
  0
LINE
  5
E2
  8
0
 10
3.0
 20
-5.11502
 30
0.0
 11
3.0
 21
-10.36476
 31
0.0
  0
LINE
  5
E3
  8
0
 10
2.0
 20
-5.11502
 30
0.0
 11
2.0
 21
-9.86476
 31
0.0
  0
LINE
  5
E4
  8
0
 10
-2.0
 20
-5.11502
 30
0.0
 11
-2.0
 21
-10.01825
 31
0.0
  0
LINE
  5
E5
  8
0
 10
-3.0
 20
-5.11502
 30
0.0
 11
-3.0
 21
-9.519410000000001
 31
0.0
  0
LINE
  5
E6
  8
0
 10
-6.5
 20
-5.11502
 30
0.0
 11
-6.5
 21
-10.09499
 31
0.0
  0
LINE
  5
E7
  8
0
 10
-9.0
 20
4.0
 30
0.0
 11
-9.0
 21
-10.36359
 31
0.0
  0
LINE
  5
E8
  8
0
 10
9.0
 20
4.0
 30
0.0
 11
9.0
 21
-10.86736
 31
0.0
  0
LINE
  5
E9
  8
0
 10
-9.0
 20
-10.36359
 30
0.0
 11
-8.0
 21
-9.36359
 31
0.0
  0
LINE
  5
EA
  8
0
 10
-8.0
 20
-9.36359
 30
0.0
 11
-6.5
 21
-10.09499
 31
0.0
  0
LINE
  5
EB
  8
0
 10
-6.5
 20
-10.09499
 30
0.0
 11
-4.0
 21
-10.09499
 31
0.0
  0
LINE
  5
EC
  8
0
 10
-4.0
 20
-10.09499
 30
0.0
 11
-3.0
 21
-9.519410000000001
 31
0.0
  0
LINE
  5
ED
  8
0
 10
-3.0
 20
-9.519410000000001
 30
0.0
 11
-2.0
 21
-10.51941
 31
0.0
  0
LINE
  5
EE
  8
0
 10
-2.0
 20
-10.51941
 30
0.0
 11
-2.0
 21
-10.01825
 31
0.0
  0
LINE
  5
EF
  8
0
 10
-2.0
 20
-10.01825
 30
0.0
 11
0.5
 21
-11.01825
 31
0.0
  0
LINE
  5
F0
  8
0
 10
0.5
 20
-11.01825
 30
0.0
 11
2.0
 21
-9.86476
 31
0.0
  0
LINE
  5
F1
  8
0
 10
2.0
 20
-9.86476
 30
0.0
 11
2.5
 21
-9.86476
 31
0.0
  0
LINE
  5
F2
  8
0
 10
2.5
 20
-9.86476
 30
0.0
 11
3.5
 21
-10.86476
 31
0.0
  0
LINE
  5
F3
  8
0
 10
3.5
 20
-10.86476
 30
0.0
 11
7.0
 21
-8.86476
 31
0.0
  0
LINE
  5
F4
  8
0
 10
7.0
 20
-8.86476
 30
0.0
 11
9.0
 21
-10.86736
 31
0.0
  0
LINE
  5
F5
  8
0
 10
-1.75
 20
-4.86502
 30
0.0
 11
1.75
 21
-4.86502
 31
0.0
  0
LINE
  5
F6
  8
0
 10
-3.0
 20
-4.86502
 30
0.0
 11
-2.0
 21
-4.86502
 31
0.0
  0
LINE
  5
F7
  8
0
 10
3.25
 20
-4.86502
 30
0.0
 11
6.0
 21
-4.86502
 31
0.0
  0
LINE
  5
F8
  8
0
 10
2.0
 20
-4.86502
 30
0.0
 11
3.0
 21
-4.86502
 31
0.0
  0
LINE
  5
F9
  8
0
 10
6.5
 20
-4.86502
 30
0.0
 11
9.0
 21
-4.86502
 31
0.0
  0
CIRCLE
  5
FA
  8
0
 10
0.0
 20
0.0
 30
0.0
 40
3.24
  0
ARC
  5
FB
  8
0
 10
-5.0
 20
4.0
 30
0.0
 40
1.9
 50
90.0
 51
180.0
  0
ARC
  5
FC
  8
0
 10
-5.0
 20
4.0
 30
0.0
 40
3.1
 50
90.0
 51
180.0
  0
ARC
  5
FD
  8
0
 10
5.0
 20
4.0
 30
0.0
 40
2.0
 50
0.0
 51
90.0
  0
ARC
  5
FE
  8
0
 10
5.0
 20
4.0
 30
0.0
 40
3.0
 50
0.0
 51
90.0
  0
ARC
  5
FF
  8
0
 10
5.0
 20
4.0
 30
0.0
 40
4.0
 50
0.0
 51
90.0
  0
ARC
  5
100
  8
0
 10
-5.0
 20
4.0
 30
0.0
 40
4.0
 50
90.0
 51
180.0
  0
ARC
  5
101
  8
0
 10
-6.25
 20
-5.11502
 30
0.0
 40
0.25
 50
90.0
 51
180.0
  0
ARC
  5
102
  8
0
 10
-3.25
 20
-5.11502
 30
0.0
 40
0.25
 50
0.0
 51
90.0
  0
ARC
  5
103
  8
0
 10
-1.75
 20
-5.11502
 30
0.0
 40
0.25
 50
90.0
 51
180.0
  0
ARC
  5
104
  8
0
 10
1.75
 20
-5.11502
 30
0.0
 40
0.25
 50
0.0
 51
90.0
  0
ARC
  5
105
  8
0
 10
3.25
 20
-5.11502
 30
0.0
 40
0.25
 50
90.0
 51
180.0
  0
ARC
  5
106
  8
0
 10
6.25
 20
-5.11502
 30
0.0
 40
0.25
 50
0.0
 51
90.0
  0
ENDBLK
  5
1F1
  8
0
  0
BLOCK
  8
0
  2
_2__S
 70
     0
 10
0.0
 20
0.0
 30
0.0
  3
_2__S
  1

  0
LINE
  5
10A
  8
0
 10
-2.75463
 20
-14.58783
 30
0.0
 11
-2.75463
 21
-13.58783
 31
0.0
  0
LINE
  5
10B
  8
0
 10
1.47302
 20
15.48032
 30
0.0
 11
11.01772
 21
15.48032
 31
0.0
  0
LINE
  5
10C
  8
0
 10
15.01757
 20
11.51523
 30
0.0
 11
15.11806
 21
0.0
 31
0.0
  0
LINE
  5
10D
  8
0
 10
15.24537
 20
-14.58783
 30
0.0
 11
-2.75463
 21
-14.58783
 31
0.0
  0
LINE
  5
10E
  8
0
 10
-2.75463
 20
-14.58783
 30
0.0
 11
-2.62732
 21
0.0
 31
0.0
  0
LINE
  5
10F
  8
0
 10
-1.75463
 20
-14.58783
 30
0.0
 11
6.04537
 21
-14.58783
 31
0.0
  0
LINE
  5
110
  8
0
 10
-1.75463
 20
-17.33783
 30
0.0
 11
-1.75463
 21
-14.58783
 31
0.0
  0
LINE
  5
111
  8
0
 10
-1.00463
 20
-17.58783
 30
0.0
 11
-1.50463
 21
-17.58783
 31
0.0
  0
LINE
  5
112
  8
0
 10
6.04537
 20
-14.58783
 30
0.0
 11
6.04537
 21
-17.33783
 31
0.0
  0
LINE
  5
113
  8
0
 10
15.24537
 20
-13.58783
 30
0.0
 11
15.24537
 21
-14.58783
 31
0.0
  0
LINE
  5
114
  8
0
 10
-0.75463
 20
-14.58783
 30
0.0
 11
-0.75463
 21
-17.33783
 31
0.0
  0
LINE
  5
115
  8
0
 10
5.79537
 20
-17.58783
 30
0.0
 11
-1.00463
 21
-17.58783
 31
0.0
  0
LINE
  5
116
  8
0
 10
0.209
 20
11.97355
 30
0.0
 11
0.0
 21
0.0
 31
0.0
  0
LINE
  5
117
  8
0
 10
2.78174
 20
11.97355
 30
0.0
 11
2.99074
 21
0.0
 31
0.0
  0
LINE
  5
118
  8
0
 10
4.709
 20
11.97355
 30
0.0
 11
4.5
 21
0.0
 31
0.0
  0
LINE
  5
119
  8
0
 10
8.245369999999999
 20
-14.58783
 30
0.0
 11
7.99074
 21
0.0
 31
0.0
  0
LINE
  5
11A
  8
0
 10
9.245369999999999
 20
-14.58783
 30
0.0
 11
9.5
 21
0.0
 31
0.0
  0
LINE
  5
11B
  8
0
 10
12.74537
 20
-14.58783
 30
0.0
 11
12.49074
 21
0.0
 31
0.0
  0
LINE
  5
11C
  8
0
 10
0.45896
 20
12.21919
 30
0.0
 11
2.53178
 21
12.21919
 31
0.0
  0
LINE
  5
11D
  8
0
 10
4.95896
 20
12.21919
 30
0.0
 11
7.53178
 21
12.21919
 31
0.0
  0
LINE
  5
11E
  8
0
 10
9.958959999999999
 20
12.21919
 30
0.0
 11
12.03178
 21
12.21919
 31
0.0
  0
LINE
  5
11F
  8
0
 10
0.0
 20
0.0
 30
0.0
 11
-2.62732
 21
0.0
 31
0.0
  0
LINE
  5
120
  8
0
 10
2.99074
 20
0.0
 30
0.0
 11
4.5
 21
0.0
 31
0.0
  0
LINE
  5
121
  8
0
 10
7.99074
 20
0.0
 30
0.0
 11
9.5
 21
0.0
 31
0.0
  0
LINE
  5
122
  8
0
 10
12.49074
 20
0.0
 30
0.0
 11
15.11806
 21
0.0
 31
0.0
  0
LINE
  5
123
  8
0
 10
12.3302
 20
9.19726
 30
0.0
 11
12.3302
 21
9.88505
 31
0.0
  0
LINE
  5
124
  8
0
 10
2.80052
 20
10.89764
 30
0.0
 11
2.80052
 21
11.65215
 31
0.0
  0
LINE
  5
125
  8
0
 10
-2.62732
 20
0.0
 30
0.0
 11
-2.52683
 21
11.51523
 31
0.0
  0
LINE
  5
126
  8
0
 10
0.0
 20
0.0
 30
0.0
 11
-0.25463
 21
-14.58783
 31
0.0
  0
LINE
  5
127
  8
0
 10
2.99074
 20
0.0
 30
0.0
 11
3.24537
 21
-14.58783
 31
0.0
  0
LINE
  5
128
  8
0
 10
4.5
 20
0.0
 30
0.0
 11
4.24537
 21
-14.58783
 31
0.0
  0
LINE
  5
129
  8
0
 10
7.99074
 20
0.0
 30
0.0
 11
7.78174
 21
11.97355
 31
0.0
  0
LINE
  5
12A
  8
0
 10
9.5
 20
0.0
 30
0.0
 11
9.709
 21
11.97355
 31
0.0
  0
LINE
  5
12B
  8
0
 10
12.49074
 20
0.0
 30
0.0
 11
12.28174
 21
11.97355
 31
0.0
  0
LINE
  5
12C
  8
0
 10
15.11806
 20
0.0
 30
0.0
 11
15.24537
 21
-14.58783
 31
0.0
  0
LINE
  5
12D
  8
0
 62
     2
 10
19.90639
 20
-35.23326
 30
0.0
 11
35.51162
 21
-35.23326
 31
0.0
  0
LINE
  5
12E
  8
0
 10
19.90639
 20
-36.32563
 30
0.0
 11
35.61778
 21
-36.32563
 31
0.0
  0
LINE
  5
12F
  8
0
 62
     2
 10
115.90639
 20
-0.23326
 30
0.0
 11
131.51162
 21
-0.23326
 31
0.0
  0
LINE
  5
130
  8
0
 10
115.90639
 20
-1.32563
 30
0.0
 11
131.61778
 21
-1.32563
 31
0.0
  0
LINE
  5
131
  8
0
 62
     2
 10
8.245369999999999
 20
-23.1103
 30
0.0
 11
8.245369999999999
 21
-25.8146
 31
0.0
  0
LINE
  5
132
  8
0
 62
     2
 10
4.24537
 20
-23.63459
 30
0.0
 11
4.24537
 21
-25.84076
 31
0.0
  0
ARC
  5
133
  8
0
 10
-1.50463
 20
-17.33783
 30
0.0
 40
0.25
 50
180.0
 51
270.0
  0
ARC
  5
134
  8
0
 10
-1.00463
 20
-17.33783
 30
0.0
 40
0.25
 50
270.0
 51
0.0
  0
ARC
  5
135
  8
0
 10
5.79537
 20
-17.33783
 30
0.0
 40
0.25
 50
270.0
 51
0.0
  0
ARC
  5
136
  8
0
 10
0.45896
 20
11.96919
 30
0.0
 40
0.25
 50
90.0
 51
179.0
  0
ARC
  5
137
  8
0
 10
2.53178
 20
11.96919
 30
0.0
 40
0.25
 50
1.0
 51
90.0
  0
ARC
  5
138
  8
0
 10
4.95896
 20
11.96919
 30
0.0
 40
0.25
 50
90.0
 51
179.0
  0
ARC
  5
139
  8
0
 10
7.53178
 20
11.96919
 30
0.0
 40
0.25
 50
1.0
 51
90.0
  0
ARC
  5
13A
  8
0
 10
9.958959999999999
 20
11.96919
 30
0.0
 40
0.25
 50
90.0
 51
179.0
  0
ARC
  5
13B
  8
0
 10
12.03178
 20
11.96919
 30
0.0
 40
0.25
 50
1.0
 51
90.0
  0
ARC
  5
13C
  8
0
 10
1.47302
 20
11.48032
 30
0.0
 40
4.0
 50
90.0
 51
179.5
  0
ARC
  5
13D
  8
0
 10
11.01772
 20
11.48032
 30
0.0
 40
4.0
 50
0.5
 51
90.0
  0
TEXT
  5
13E
  8
0
 62
     2
 10
20.54334
 20
-31.71733
 30
0.0
 40
1.706664
  1
Sezione B-B
 41
0.706928
  0
TEXT
  5
13F
  8
0
 62
     2
 10
20.54334
 20
-34.91733
 30
0.0
 40
1.706664
  1
 scala 2:1.
 41
0.62376
  0
TEXT
  5
140
  8
0
 62
     2
 10
116.52592
 20
3.43341
 30
0.0
 40
1.706664
  1
Dettaglio "X"
 41
0.668543
  0
TEXT
  5
141
  8
0
 62
     2
 10
116.52592
 20
0.23341
 30
0.0
 40
1.706664
  1
 scala 2:1.
 41
0.62376
  0
ENDBLK
  5
1F3
  8
0
  0
BLOCK
  8
0
  2
_FRECCIA__2
 70
     0
 10
0.0
 20
0.0
 30
0.0
  3
_FRECCIA__2
  1

  0
LINE
  5
145
  8
0
 10
0.0
 20
0.0
 30
0.0
 11
3.75277
 21
-6.5
 31
0.0
  0
LINE
  5
146
  8
0
 10
3.75277
 20
-6.5
 30
0.0
 11
0.0
 21
-6.5
 31
0.0
  0
LINE
  5
147
  8
0
 10
0.0
 20
0.0
 30
0.0
 11
0.0
 21
-15.0
 31
0.0
  0
LINE
  5
148
  8
0
 10
0.0
 20
-6.5
 30
0.0
 11
-3.75278
 21
-6.5
 31
0.0
  0
LINE
  5
149
  8
0
 10
-3.75278
 20
-6.5
 30
0.0
 11
0.0
 21
0.0
 31
0.0
  0
LINE
  5
14A
  8
0
 10
44.41456
 20
0.0
 30
0.0
 11
48.16733
 21
-6.5
 31
0.0
  0
LINE
  5
14B
  8
0
 10
48.16733
 20
-6.5
 30
0.0
 11
44.41456
 21
-6.5
 31
0.0
  0
LINE
  5
14C
  8
0
 10
40.66178
 20
-6.5
 30
0.0
 11
44.41456
 21
0.0
 31
0.0
  0
LINE
  5
14D
  8
0
 10
44.41456
 20
-6.5
 30
0.0
 11
40.66178
 21
-6.5
 31
0.0
  0
LINE
  5
14E
  8
0
 10
44.41456
 20
0.0
 30
0.0
 11
44.41456
 21
-15.0
 31
0.0
  0
TEXT
  5
14F
  8
0
 10
-0.7459400000000001
 20
-12.32797
 30
0.0
 40
3.733336
  1
B
 50
90.0
 41
0.755951
  0
TEXT
  5
150
  8
0
 10
43.66862
 20
-12.32797
 30
0.0
 40
3.733336
  1
B
 50
90.0
 41
0.755951
  0
ENDBLK
  5
1F5
  8
0
  0
BLOCK
  8
0
  2
_FRECCIA__3
 70
     0
 10
0.0
 20
0.0
 30
0.0
  3
_FRECCIA__3
  1

  0
LINE
  5
154
  8
0
 10
0.0
 20
0.0
 30
0.0
 11
-6.5
 21
-3.75277
 31
0.0
  0
LINE
  5
155
  8
0
 10
-6.5
 20
-3.75277
 30
0.0
 11
-6.5
 21
0.0
 31
0.0
  0
LINE
  5
156
  8
0
 10
0.0
 20
0.0
 30
0.0
 11
-15.0
 21
0.0
 31
0.0
  0
LINE
  5
157
  8
0
 10
-6.5
 20
0.0
 30
0.0
 11
-6.5
 21
3.75278
 31
0.0
  0
LINE
  5
158
  8
0
 10
-6.5
 20
3.75278
 30
0.0
 11
0.0
 21
0.0
 31
0.0
  0
LINE
  5
159
  8
0
 10
-6.5
 20
-95.54792000000001
 30
0.0
 11
-6.5
 21
-91.79514
 31
0.0
  0
LINE
  5
15A
  8
0
 10
-6.5
 20
-91.79514
 30
0.0
 11
-6.5
 21
-88.04237000000001
 31
0.0
  0
LINE
  5
15B
  8
0
 10
-6.5
 20
-88.04237000000001
 30
0.0
 11
0.0
 21
-91.79514
 31
0.0
  0
LINE
  5
15C
  8
0
 10
0.0
 20
-91.79514
 30
0.0
 11
-15.0
 21
-91.79514
 31
0.0
  0
LINE
  5
15D
  8
0
 10
0.0
 20
-91.79514
 30
0.0
 11
-6.5
 21
-95.54792000000001
 31
0.0
  0
TEXT
  5
15E
  8
0
 10
-12.32797
 20
0.74595
 30
0.0
 40
3.733336
  1
A
 41
0.836432
  0
TEXT
  5
15F
  8
0
 10
-12.32797
 20
-91.0492
 30
0.0
 40
3.733336
  1
A
 41
0.836432
  0
ENDBLK
  5
1F7
  8
0
  0
BLOCK
  8
0
  2
_LABEL
 70
     0
 10
0.0
 20
0.0
 30
0.0
  3
_LABEL
  1

  0
LINE
  5
163
  8
0
 62
     2
 10
43.64157
 20
10.2582
 30
0.0
 11
5.40157
 21
10.2582
 31
0.0
  0
LINE
  5
164
  8
0
 62
     2
 10
5.40157
 20
10.2582
 30
0.0
 11
0.0
 21
0.0
 31
0.0
  0
POLYLINE
  5
165
  8
0
 62
     2
 66
     1
 10
0.0
 20
0.0
 30
0.0
 70
     1
  0
VERTEX
  5
1A9
  8
0
 62
     2
 10
1.04828
 20
2.8385
 30
0.0
  0
VERTEX
  5
1AA
  8
0
 62
     2
 10
1.74722
 20
2.47047
 30
0.0
  0
VERTEX
  5
1AB
  8
0
 62
     2
 10
0.0
 20
0.0
 30
0.0
  0
SEQEND
  5
1F8
  8
0
 62
     2
  0
TEXT
  5
16A
  8
0
 62
     2
 10
10.20157
 20
11.32273
 30
0.0
 40
3.413336
  1
Dettaglio "X"
 41
0.545389
  0
ENDBLK
  5
1FA
  8
0
  0
ENDSEC
  0
SECTION
  2
ENTITIES
  0
LINE
  5
16C
  8
DISEGNO
 10
-19.67828
 20
43.71175
 30
0.0
 11
-9.678280000000001
 21
43.71175
 31
0.0
  0
LINE
  5
16D
  8
DISEGNO
 10
-9.678280000000001
 20
43.71175
 30
0.0
 11
-9.678280000000001
 21
48.78367
 31
0.0
  0
LINE
  5
16E
  8
DISEGNO
 10
-19.67828
 20
48.78367
 30
0.0
 11
-19.67828
 21
43.71175
 31
0.0
  0
LINE
  5
16F
  8
DISEGNO
 10
-12.22454
 20
44.53367
 30
0.0
 11
-9.7708
 21
48.78367
 31
0.0
  0
LINE
  5
170
  8
DISEGNO
 10
-9.7708
 20
48.78367
 30
0.0
 11
-12.22454
 21
53.03367
 31
0.0
  0
LINE
  5
171
  8
DISEGNO
 10
-12.22454
 20
53.03367
 30
0.0
 11
-17.13202
 21
53.03367
 31
0.0
  0
LINE
  5
172
  8
DISEGNO
 10
-17.13202
 20
53.03367
 30
0.0
 11
-19.58576
 21
48.78367
 31
0.0
  0
LINE
  5
173
  8
DISEGNO
 10
-19.58576
 20
48.78367
 30
0.0
 11
-17.13202
 21
44.53367
 31
0.0
  0
LINE
  5
174
  8
DISEGNO
 10
-17.13202
 20
44.53367
 30
0.0
 11
-12.22454
 21
44.53367
 31
0.0
  0
LINE
  5
175
  8
DISEGNO
 10
-21.67828
 20
41.53367
 30
0.0
 11
-7.67828
 21
41.53367
 31
0.0
  0
LINE
  5
176
  8
DISEGNO
 10
-9.678280000000001
 20
102.35559
 30
0.0
 11
-19.67828
 21
102.35559
 31
0.0
  0
LINE
  5
177
  8
DISEGNO
 10
-9.678280000000001
 20
97.28367
 30
0.0
 11
-9.678280000000001
 21
102.35559
 31
0.0
  0
LINE
  5
178
  8
DISEGNO
 10
-19.67828
 20
102.35559
 30
0.0
 11
-19.67828
 21
97.28367
 31
0.0
  0
LINE
  5
179
  8
DISEGNO
 10
-9.7708
 20
97.28367
 30
0.0
 11
-12.22454
 21
101.53367
 31
0.0
  0
LINE
  5
17A
  8
DISEGNO
 10
-12.22454
 20
93.03367
 30
0.0
 11
-9.7708
 21
97.28367
 31
0.0
  0
LINE
  5
17B
  8
DISEGNO
 10
-17.13202
 20
93.03367
 30
0.0
 11
-12.22454
 21
93.03367
 31
0.0
  0
LINE
  5
17C
  8
DISEGNO
 10
-19.58576
 20
97.28367
 30
0.0
 11
-17.13202
 21
93.03367
 31
0.0
  0
LINE
  5
17D
  8
DISEGNO
 10
-17.13202
 20
101.53367
 30
0.0
 11
-19.58576
 21
97.28367
 31
0.0
  0
LINE
  5
17E
  8
DISEGNO
 10
-12.22454
 20
101.53367
 30
0.0
 11
-17.13202
 21
101.53367
 31
0.0
  0
LINE
  5
17F
  8
DISEGNO
 10
-5.67828
 20
73.03367
 30
0.0
 11
-5.67828
 21
102.53367
 31
0.0
  0
LINE
  5
180
  8
DISEGNO
 10
-23.67828
 20
102.53367
 30
0.0
 11
-23.67828
 21
73.03367
 31
0.0
  0
LINE
  5
181
  8
DISEGNO
 10
-7.67828
 20
104.53367
 30
0.0
 11
-21.67828
 21
104.53367
 31
0.0
  0
LINE
  5
182
  8
DISEGNO
 10
-2.26501
 20
73.03367
 30
0.0
 11
-28.06501
 21
73.03367
 31
0.0
  0
LINE
  5
183
  8
DISEGNO
 10
-23.67828
 20
73.03367
 30
0.0
 11
-23.67828
 21
43.53367
 31
0.0
  0
LINE
  5
184
  8
DISEGNO
 10
-5.67828
 20
43.53367
 30
0.0
 11
-5.67828
 21
73.03367
 31
0.0
  0
ARC
  5
185
  8
DISEGNO
 10
-14.67828
 20
48.78367
 30
0.0
 40
5.0
 50
0.0
 51
180.0
  0
ARC
  5
186
  8
DISEGNO
 10
-14.67828
 20
97.28367
 30
0.0
 40
5.0
 50
180.0
 51
0.0
  0
CIRCLE
  5
187
  8
DISEGNO
 10
-14.67828
 20
48.78367
 30
0.0
 40
2.75
  0
CIRCLE
  5
188
  8
DISEGNO
 10
-14.67828
 20
97.28367
 30
0.0
 40
2.75
  0
LINE
  5
189
  8
DISEGNO
 10
61.32172
 20
73.03371
 30
0.0
 11
48.12719
 21
73.03371
 31
0.0
  0
LINE
  5
18A
  8
DISEGNO
 10
55.12719
 20
73.03367
 30
0.0
 11
55.12715
 21
66.03367
 31
0.0
  0
LINE
  5
18B
  8
DISEGNO
 10
55.12719
 20
73.03367
 30
0.0
 11
55.12723
 21
80.03367
 31
0.0
  0
CIRCLE
  5
18C
  8
DISEGNO
 10
54.72445
 20
73.03371
 30
0.0
 40
31.5
  0
ARC
  5
18D
  8
DISEGNO
 10
-21.67828
 20
102.53367
 30
0.0
 40
2.0
 50
90.0
 51
180.0
  0
ARC
  5
18E
  8
DISEGNO
 10
-7.67828
 20
102.53367
 30
0.0
 40
2.0
 50
0.0
 51
90.0
  0
ARC
  5
18F
  8
DISEGNO
 10
-21.67828
 20
43.53367
 30
0.0
 40
2.0
 50
180.0
 51
270.0
  0
ARC
  5
190
  8
DISEGNO
 10
-7.67828
 20
43.53367
 30
0.0
 40
2.0
 50
270.0
 51
0.0
  0
LINE
  5
191
  8
DISEGNO
 10
31.82723
 20
67.03371
 30
0.0
 11
31.82723
 21
79.03371
 31
0.0
  0
LINE
  5
192
  8
DISEGNO
 10
36.04842
 20
79.03371
 30
0.0
 11
31.82723
 21
79.03371
 31
0.0
  0
LINE
  5
193
  8
DISEGNO
 10
36.04842
 20
67.03371
 30
0.0
 11
31.82723
 21
67.03371
 31
0.0
  0
ARC
  5
194
  8
DISEGNO
 10
55.12719
 20
73.03367
 30
0.0
 40
20.0
 50
197.457489
 51
162.542282
  0
ENDSEC
  0
EOF
