  0
SECTION
  2
HEADER
  9
$ACADVER
  1
AC1009
  9
$DWGCODEPAGE
  3
ansi_1252
  9
$INSBASE
 10
0.0
 20
0.0
 30
0.0
  9
$EXTMIN
 10
-450.342
 20
-646.3665
 30
0.0
  9
$EXTMAX
 10
450.342
 20
646.3665
 30
0.0
  9
$LIMMIN
 10
0.0
 20
0.0
  9
$LIMMAX
 10
12.0
 20
9.0
  9
$ORTHOMODE
 70
     0
  9
$REGENMODE
 70
     1
  9
$FILLMODE
 70
     1
  9
$QTEXTMODE
 70
     0
  9
$MIRRTEXT
 70
     1
  9
$DRAGMODE
 70
     2
  9
$LTSCALE
 40
4.5
  9
$OSMODE
 70
    37
  9
$ATTMODE
 70
     1
  9
$TEXTSIZE
 40
0.2
  9
$TRACEWID
 40
0.05
  9
$TEXTSTYLE
  7
STANDARD
  9
$CLAYER
  8
0
  9
$CELTYPE
  6
BYBLOCK
  9
$CECOLOR
 62
   256
  9
$DIMSCALE
 40
1.0
  9
$DIMASZ
 40
0.18
  9
$DIMEXO
 40
0.0625
  9
$DIMDLI
 40
0.38
  9
$DIMRND
 40
0.0
  9
$DIMDLE
 40
0.0
  9
$DIMEXE
 40
0.18
  9
$DIMTP
 40
0.0
  9
$DIMTM
 40
0.0
  9
$DIMTXT
 40
0.18
  9
$DIMCEN
 40
0.09
  9
$DIMTSZ
 40
0.0
  9
$DIMTOL
 70
     0
  9
$DIMLIM
 70
     0
  9
$DIMTIH
 70
     1
  9
$DIMTOH
 70
     1
  9
$DIMSE1
 70
     0
  9
$DIMSE2
 70
     0
  9
$DIMTAD
 70
     0
  9
$DIMZIN
 70
     0
  9
$DIMBLK
  1

  9
$DIMASO
 70
     1
  9
$DIMSHO
 70
     1
  9
$DIMPOST
  1

  9
$DIMAPOST
  1

  9
$DIMALT
 70
     0
  9
$DIMALTD
 70
     2
  9
$DIMALTF
 40
25.4
  9
$DIMLFAC
 40
1.0
  9
$DIMTOFL
 70
     0
  9
$DIMTVP
 40
0.0
  9
$DIMTIX
 70
     0
  9
$DIMSOXD
 70
     0
  9
$DIMSAH
 70
     0
  9
$DIMBLK1
  1

  9
$DIMBLK2
  1

  9
$DIMSTYLE
  2
STANDARD
  9
$DIMCLRD
 70
     0
  9
$DIMCLRE
 70
     0
  9
$DIMCLRT
 70
     0
  9
$DIMTFAC
 40
1.0
  9
$DIMGAP
 40
0.09
  9
$LUNITS
 70
     2
  9
$LUPREC
 70
     4
  9
$SKETCHINC
 40
0.1
  9
$FILLETRAD
 40
0.5
  9
$AUNITS
 70
     0
  9
$AUPREC
 70
     0
  9
$MENU
  1
.
  9
$ELEVATION
 40
0.0
  9
$PELEVATION
 40
0.0
  9
$THICKNESS
 40
0.0
  9
$LIMCHECK
 70
     0
  9
$CHAMFERA
 40
0.5
  9
$CHAMFERB
 40
0.5
  9
$SKPOLY
 70
     0
  9
$TDCREATE
 40
2453619.496148125
  9
$TDUPDATE
 40
2453619.496148136
  9
$TDINDWG
 40
0.0000000116
  9
$TDUSRTIMER
 40
0.0000000116
  9
$USRTIMER
 70
     1
  9
$ANGBASE
 50
0.0
  9
$ANGDIR
 70
     0
  9
$PDMODE
 70
     0
  9
$PDSIZE
 40
0.0
  9
$PLINEWID
 40
0.0
  9
$COORDS
 70
     1
  9
$SPLFRAME
 70
     0
  9
$SPLINETYPE
 70
     6
  9
$SPLINESEGS
 70
     8
  9
$ATTDIA
 70
     0
  9
$ATTREQ
 70
     1
  9
$HANDLING
 70
     1
  9
$HANDSEED
  5
7AE
  9
$SURFTAB1
 70
     6
  9
$SURFTAB2
 70
     6
  9
$SURFTYPE
 70
     6
  9
$SURFU
 70
     6
  9
$SURFV
 70
     6
  9
$UCSNAME
  2

  9
$UCSORG
 10
0.0
 20
0.0
 30
0.0
  9
$UCSXDIR
 10
1.0
 20
0.0
 30
0.0
  9
$UCSYDIR
 10
0.0
 20
1.0
 30
0.0
  9
$PUCSNAME
  2

  9
$PUCSORG
 10
0.0
 20
0.0
 30
0.0
  9
$PUCSXDIR
 10
1.0
 20
0.0
 30
0.0
  9
$PUCSYDIR
 10
0.0
 20
1.0
 30
0.0
  9
$USERI1
 70
     0
  9
$USERI2
 70
     0
  9
$USERI3
 70
     0
  9
$USERI4
 70
     0
  9
$USERI5
 70
     0
  9
$USERR1
 40
0.0
  9
$USERR2
 40
0.0
  9
$USERR3
 40
0.0
  9
$USERR4
 40
0.0
  9
$USERR5
 40
0.0
  9
$WORLDVIEW
 70
     1
  9
$SHADEDGE
 70
     3
  9
$SHADEDIF
 70
    70
  9
$TILEMODE
 70
     1
  9
$MAXACTVP
 70
    64
  9
$PLIMCHECK
 70
     0
  9
$PEXTMIN
 10
1.000000000000000E+20
 20
1.000000000000000E+20
 30
1.000000000000000E+20
  9
$PEXTMAX
 10
-1.000000000000000E+20
 20
-1.000000000000000E+20
 30
-1.000000000000000E+20
  9
$PLIMMIN
 10
0.0
 20
0.0
  9
$PLIMMAX
 10
12.0
 20
9.0
  9
$UNITMODE
 70
     0
  9
$VISRETAIN
 70
     1
  9
$PLINEGEN
 70
     0
  9
$PSLTSCALE
 70
     1
  0
ENDSEC
  0
SECTION
  2
TABLES
  0
TABLE
  2
VPORT
 70
     1
  0
VPORT
  2
*ACTIVE
 70
     0
 10
0.0
 20
0.0
 11
1.0
 21
1.0
 12
10.42990654205607
 22
4.5
 13
0.0
 23
0.0
 14
0.5
 24
0.5
 15
0.5
 25
0.5
 16
0.0
 26
0.0
 36
1.0
 17
0.0
 27
0.0
 37
0.0
 40
9.0
 41
1.972972972850329
 42
50.0
 43
0.0
 44
0.0
 50
0.0
 51
0.0
 71
     0
 72
   100
 73
     1
 74
     3
 75
     0
 76
     0
 77
     0
 78
     0
  0
ENDTAB
  0
TABLE
  2
LTYPE
 70
     9
  0
LTYPE
  2
CONTINUOUS
 70
     0
  3
Solid Line
 72
    65
 73
     0
 40
0.0
  0
LTYPE
  2
MCDASH1
 70
     0
  3
MiniCad+ Generated
 72
    65
 73
     6
 40
8.740551
 49
2.497134
 49
-1.248761
 49
2.497134
 49
-1.248761
 49
0.000388
 49
-1.248373
  0
LTYPE
  2
MCDASH2
 70
     0
  3
MiniCad+ Generated
 72
    65
 73
     4
 40
9.989699999999999
 49
6.243417
 49
-1.248761
 49
1.248761
 49
-1.248761
  0
LTYPE
  2
MCDASH3
 70
     0
  3
MiniCad+ Generated
 72
    65
 73
     4
 40
4.994656
 49
2.497134
 49
-1.248761
 49
0.000388
 49
-1.248373
  0
LTYPE
  2
MCDASH4
 70
     0
  3
MiniCad+ Generated
 72
    65
 73
     2
 40
3.745895
 49
2.497134
 49
-1.248761
  0
LTYPE
  2
MCDASH5
 70
     0
  3
MiniCad+ Generated
 72
    65
 73
     6
 40
6.243417
 49
2.497134
 49
-1.248761
 49
0.000388
 49
-1.248373
 49
0.000388
 49
-1.248373
  0
LTYPE
  2
MCDASH6
 70
     0
  3
MiniCad+ Generated
 72
    65
 73
     4
 40
2.497522
 49
0.000388
 49
-1.248373
 49
0.000388
 49
-1.248373
  0
LTYPE
  2
MCDASH7
 70
     0
  3
MiniCad+ Generated
 72
    65
 73
     2
 40
1.873141
 49
1.248761
 49
-0.6243800000000001
  0
LTYPE
  2
MCDASH8
 70
     0
  3
MiniCad+ Generated
 72
    65
 73
     6
 40
12.487222
 49
6.243417
 49
-1.248761
 49
1.248761
 49
-1.248761
 49
1.248761
 49
-1.248761
  0
ENDTAB
  0
TABLE
  2
LAYER
 70
     2
  0
LAYER
  2
0
 70
     0
 62
     7
  6
CONTINUOUS
  0
LAYER
  2
1
 70
     0
 62
     7
  6
CONTINUOUS
  0
ENDTAB
  0
TABLE
  2
STYLE
 70
     1
  0
STYLE
  2
STANDARD
 70
     0
 40
0.0
 41
1.0
 50
0.0
 71
     0
 42
0.2
  3
txt
  4

  0
ENDTAB
  0
TABLE
  2
VIEW
 70
     0
  0
ENDTAB
  0
TABLE
  2
UCS
 70
     0
  0
ENDTAB
  0
TABLE
  2
APPID
 70
     1
  0
APPID
  2
ACAD
 70
     0
  0
ENDTAB
  0
TABLE
  2
DIMSTYLE
 70
     1
  0
DIMSTYLE
  2
STANDARD
 70
     0
  3

  4

  5

  6

  7

 40
1.0
 41
0.18
 42
0.0625
 43
0.38
 44
0.18
 45
0.0
 46
0.0
 47
0.0
 48
0.0
140
0.18
141
0.09
142
0.0
143
25.4
144
1.0
145
0.0
146
1.0
147
0.09
 71
     0
 72
     0
 73
     1
 74
     1
 75
     0
 76
     0
 77
     0
 78
     0
170
     0
171
     2
172
     0
173
     0
174
     0
175
     0
176
     0
177
     0
178
     0
  0
ENDTAB
  0
ENDSEC
  0
SECTION
  2
BLOCKS
  0
BLOCK
  8
0
  2
$MODEL_SPACE
 70
     0
 10
0.0
 20
0.0
 30
0.0
  3
$MODEL_SPACE
  1

  0
ENDBLK
  5
7A9
  8
0
  0
BLOCK
 67
     1
  8
0
  2
$PAPER_SPACE
 70
     0
 10
0.0
 20
0.0
 30
0.0
  3
$PAPER_SPACE
  1

  0
ENDBLK
  5
7A7
 67
     1
  8
0
  0
BLOCK
  8
0
  2
$ARROW1$
 70
     0
 10
0.0
 20
0.0
 30
0.0
  3
$ARROW1$
  1

  0
SOLID
  5
2D
  8
0
 62
     0
 10
-25.4
 20
4.318
 30
0.0
 11
-25.4
 21
-4.318
 31
0.0
 12
0.0
 22
0.0
 32
0.0
 13
0.0
 23
0.0
 33
0.0
  0
ENDBLK
  5
742
  8
0
  0
BLOCK
  8
0
  2
$ARROW2$
 70
     0
 10
0.0
 20
0.0
 30
0.0
  3
$ARROW2$
  1

  0
SOLID
  5
31
  8
0
 62
     0
 10
-25.4
 20
12.7
 30
0.0
 11
-25.4
 21
-12.7
 31
0.0
 12
0.0
 22
0.0
 32
0.0
 13
0.0
 23
0.0
 33
0.0
  0
ENDBLK
  5
744
  8
0
  0
BLOCK
  8
0
  2
$ARROW3$
 70
     0
 10
0.0
 20
0.0
 30
0.0
  3
$ARROW3$
  1

  0
POLYLINE
  5
35
  8
0
  6
BYBLOCK
 62
     0
 66
     1
 10
0.0
 20
0.0
 30
0.0
 70
     1
 40
0.5
 41
0.5
  0
VERTEX
  5
3E0
  8
0
  6
BYBLOCK
 62
     0
 10
-6.35
 20
0.0
 30
0.0
 42
1.0
  0
VERTEX
  5
3E1
  8
0
  6
BYBLOCK
 62
     0
 10
6.35
 20
0.0
 30
0.0
 42
1.0
  0
SEQEND
  5
745
  8
0
  6
BYBLOCK
 62
     0
  0
ENDBLK
  5
747
  8
0
  0
BLOCK
  8
0
  2
$ARROW4$
 70
     0
 10
0.0
 20
0.0
 30
0.0
  3
$ARROW4$
  1

  0
LINE
  5
3C
  8
0
  6
BYBLOCK
 62
     0
 10
12.7
 20
12.7
 30
0.0
 11
-12.7
 21
-12.7
 31
0.0
  0
ENDBLK
  5
749
  8
0
  0
BLOCK
  8
0
  2
$ARROW5$
 70
     0
 10
0.0
 20
0.0
 30
0.0
  3
$ARROW5$
  1

  0
LINE
  5
40
  8
0
  6
BYBLOCK
 62
     0
 10
12.7
 20
12.7
 30
0.0
 11
-12.7
 21
-12.7
 31
0.0
  0
LINE
  5
41
  8
0
  6
BYBLOCK
 62
     0
 10
-12.7
 20
12.7
 30
0.0
 11
12.7
 21
-12.7
 31
0.0
  0
ENDBLK
  5
74B
  8
0
  0
BLOCK
  8
0
  2
SIMBOLO_N__1
 70
     0
 10
0.0
 20
0.0
 30
0.0
  3
SIMBOLO_N__1
  1

  0
POLYLINE
  5
45
  8
0
 62
     3
 66
     1
 10
0.0
 20
0.0
 30
0.0
 40
1.0287
 41
1.0287
  0
VERTEX
  5
3E3
  8
0
 62
     3
 10
-193.99695
 20
-119.17
 30
0.0
  0
VERTEX
  5
3E4
  8
0
 62
     3
 10
-193.99695
 20
-135.0
 30
0.0
  0
SEQEND
  5
74C
  8
0
 62
     3
  0
POLYLINE
  5
49
  8
0
 62
     3
 66
     1
 10
0.0
 20
0.0
 30
0.0
 40
1.0287
 41
1.0287
  0
VERTEX
  5
3E6
  8
0
 62
     3
 10
0.00305
 20
-85.0
 30
0.0
  0
VERTEX
  5
3E7
  8
0
 62
     3
 10
70.53704999999999
 20
-85.0
 30
0.0
  0
SEQEND
  5
74D
  8
0
 62
     3
  0
POLYLINE
  5
4D
  8
0
 62
     3
 66
     1
 10
0.0
 20
0.0
 30
0.0
 40
1.0287
 41
1.0287
  0
VERTEX
  5
3E9
  8
0
 62
     3
 10
-41.99695
 20
-85.0
 30
0.0
  0
VERTEX
  5
3EA
  8
0
 62
     3
 10
-70.53095
 20
-85.0
 30
0.0
  0
SEQEND
  5
74E
  8
0
 62
     3
  0
POLYLINE
  5
51
  8
0
 62
     3
 66
     1
 10
0.0
 20
0.0
 30
0.0
 40
1.0287
 41
1.0287
  0
VERTEX
  5
3EC
  8
0
 62
     3
 10
-172.99695
 20
-135.0
 30
0.0
  0
VERTEX
  5
3ED
  8
0
 62
     3
 10
-172.99695
 20
-110.883
 30
0.0
  0
SEQEND
  5
74F
  8
0
 62
     3
  0
POLYLINE
  5
55
  8
0
 62
     3
 66
     1
 10
0.0
 20
0.0
 30
0.0
 40
1.0287
 41
1.0287
  0
VERTEX
  5
3EF
  8
0
 62
     3
 10
0.00305
 20
-85.0
 30
0.0
  0
VERTEX
  5
3F0
  8
0
 62
     3
 10
-41.99695
 20
-85.0
 30
0.0
  0
SEQEND
  5
750
  8
0
 62
     3
  0
POLYLINE
  5
59
  8
0
 62
     3
 66
     1
 10
0.0
 20
0.0
 30
0.0
 40
1.0287
 41
1.0287
  0
VERTEX
  5
3F2
  8
0
 62
     3
 10
-214.99695
 20
-135.0
 30
0.0
  0
VERTEX
  5
3F3
  8
0
 62
     3
 10
-172.99695
 20
-135.0
 30
0.0
  0
SEQEND
  5
751
  8
0
 62
     3
  0
POLYLINE
  5
5D
  8
0
 62
     3
 66
     1
 10
0.0
 20
0.0
 30
0.0
 40
0.5715
 41
0.5715
  0
VERTEX
  5
3F5
  8
0
 62
     3
 10
-193.99695
 20
-54.057
 30
0.0
  0
VERTEX
  5
3F6
  8
0
 62
     3
 10
-193.99695
 20
-139.057
 30
0.0
  0
SEQEND
  5
752
  8
0
 62
     3
  0
POLYLINE
  5
61
  8
0
 62
     3
 66
     1
 10
0.0
 20
0.0
 30
0.0
 40
0.5715
 41
0.5715
  0
VERTEX
  5
3F8
  8
0
 62
     3
 10
0.00305
 20
8.055999999999999
 30
0.0
  0
VERTEX
  5
3F9
  8
0
 62
     3
 10
0.00305
 20
-98.297
 30
0.0
  0
SEQEND
  5
753
  8
0
 62
     3
  0
POLYLINE
  5
65
  8
0
 62
     3
 66
     1
 10
0.0
 20
0.0
 30
0.0
 40
1.0287
 41
1.0287
  0
VERTEX
  5
3FB
  8
0
 62
     3
 10
-214.99695
 20
-135.0
 30
0.0
  0
VERTEX
  5
3FC
  8
0
 62
     3
 10
-213.79895
 20
-100.701
 30
0.0
  0
SEQEND
  5
754
  8
0
 62
     3
  0
POLYLINE
  5
69
  8
0
 62
     3
 66
     1
 10
0.0
 20
0.0
 30
0.0
 40
1.0287
 41
1.0287
  0
VERTEX
  5
3FE
  8
0
 62
     3
 10
-44.25195
 20
-85.0
 30
0.0
  0
VERTEX
  5
3FF
  8
0
 62
     3
 10
-42.25195
 20
-9.209
 30
0.0
  0
SEQEND
  5
755
  8
0
 62
     3
  0
POLYLINE
  5
6D
  8
0
 62
     3
 66
     1
 10
0.0
 20
0.0
 30
0.0
 40
1.0287
 41
1.0287
  0
VERTEX
  5
401
  8
0
 62
     3
 10
42.25805
 20
-9.209
 30
0.0
  0
VERTEX
  5
402
  8
0
 62
     3
 10
44.25805
 20
-84.99997000000001
 30
0.0
  0
SEQEND
  5
756
  8
0
 62
     3
  0
POLYLINE
  5
71
  8
0
 62
     3
 66
     1
 10
0.0
 20
0.0
 30
0.0
 40
1.0287
 41
1.0287
  0
VERTEX
  5
404
  8
0
 62
     3
 10
194.00305
 20
-135.0
 30
0.0
  0
VERTEX
  5
405
  8
0
 62
     3
 10
194.00305
 20
-119.17
 30
0.0
  0
SEQEND
  5
757
  8
0
 62
     3
  0
POLYLINE
  5
75
  8
0
 62
     3
 66
     1
 10
0.0
 20
0.0
 30
0.0
 40
1.0287
 41
1.0287
  0
VERTEX
  5
407
  8
0
 62
     3
 10
173.00305
 20
-110.883
 30
0.0
  0
VERTEX
  5
408
  8
0
 62
     3
 10
173.00305
 20
-135.0
 30
0.0
  0
SEQEND
  5
758
  8
0
 62
     3
  0
POLYLINE
  5
79
  8
0
 62
     3
 66
     1
 10
0.0
 20
0.0
 30
0.0
 40
1.0287
 41
1.0287
  0
VERTEX
  5
40A
  8
0
 62
     3
 10
173.00305
 20
-135.0
 30
0.0
  0
VERTEX
  5
40B
  8
0
 62
     3
 10
215.00305
 20
-135.0
 30
0.0
  0
SEQEND
  5
759
  8
0
 62
     3
  0
POLYLINE
  5
7D
  8
0
 62
     3
 66
     1
 10
0.0
 20
0.0
 30
0.0
 40
0.5715
 41
0.5715
  0
VERTEX
  5
40D
  8
0
 62
     3
 10
194.00305
 20
-139.057
 30
0.0
  0
VERTEX
  5
40E
  8
0
 62
     3
 10
194.00305
 20
-54.057
 30
0.0
  0
SEQEND
  5
75A
  8
0
 62
     3
  0
POLYLINE
  5
81
  8
0
 62
     3
 66
     1
 10
0.0
 20
0.0
 30
0.0
 40
1.0287
 41
1.0287
  0
VERTEX
  5
410
  8
0
 62
     3
 10
213.80505
 20
-100.701
 30
0.0
  0
VERTEX
  5
411
  8
0
 62
     3
 10
215.00305
 20
-135.0
 30
0.0
  0
SEQEND
  5
75B
  8
0
 62
     3
  0
POLYLINE
  5
85
  8
0
 62
     3
 66
     1
 10
0.0
 20
0.0
 30
0.0
 40
1.0287
 41
1.0287
  0
VERTEX
  5
413
  8
0
 62
     3
 10
0.00305
 20
0.0
 30
0.0
  0
VERTEX
  5
414
  8
0
 62
     3
 10
26.23331
 20
-1.72754
 30
0.0
  0
VERTEX
  5
415
  8
0
 62
     3
 10
52.00769
 20
-6.87953
 30
0.0
  0
SEQEND
  5
75C
  8
0
 62
     3
  0
POLYLINE
  5
8A
  8
0
 62
     3
 66
     1
 10
0.0
 20
0.0
 30
0.0
 40
1.0287
 41
1.0287
  0
VERTEX
  5
417
  8
0
 62
     3
 10
-193.99693
 20
-119.17031
 30
0.0
  0
VERTEX
  5
418
  8
0
 62
     3
 10
-133.3719
 20
-98.11714000000001
 30
0.0
  0
VERTEX
  5
419
  8
0
 62
     3
 10
-70.53067
 20
-85.00001
 30
0.0
  0
SEQEND
  5
75D
  8
0
 62
     3
  0
POLYLINE
  5
8F
  8
0
 62
     3
 66
     1
 10
0.0
 20
0.0
 30
0.0
 40
1.0287
 41
1.0287
  0
VERTEX
  5
41B
  8
0
 62
     3
 10
-180.98371
 20
-49.28753
 30
0.0
  0
VERTEX
  5
41C
  8
0
 62
     3
 10
-136.53325
 20
-30.02414
 30
0.0
  0
VERTEX
  5
41D
  8
0
 62
     3
 10
-90.07442
 20
-16.27443
 30
0.0
  0
VERTEX
  5
41E
  8
0
 62
     3
 10
-42.29425
 20
-8.24263
 30
0.0
  0
VERTEX
  5
41F
  8
0
 62
     3
 10
-42.28833
 20
-8.24199
 30
0.0
  0
SEQEND
  5
75E
  8
0
 62
     3
  0
POLYLINE
  5
96
  8
0
 62
     3
 66
     1
 10
0.0
 20
0.0
 30
0.0
 40
1.0287
 41
1.0287
  0
VERTEX
  5
421
  8
0
 62
     3
 10
42.19125
 20
-8.231030000000001
 30
0.0
  0
VERTEX
  5
422
  8
0
 62
     3
 10
90.00915999999999
 20
-16.25794
 30
0.0
  0
VERTEX
  5
423
  8
0
 62
     3
 10
136.49919
 20
-30.00955
 30
0.0
  0
VERTEX
  5
424
  8
0
 62
     3
 10
180.98981
 20
-49.28753
 30
0.0
  0
SEQEND
  5
75F
  8
0
 62
     3
  0
POLYLINE
  5
9C
  8
0
 62
     3
 66
     1
 10
0.0
 20
0.0
 30
0.0
 40
1.0287
 41
1.0287
  0
VERTEX
  5
426
  8
0
 62
     3
 10
70.53677
 20
-85.00001
 30
0.0
  0
VERTEX
  5
427
  8
0
 62
     3
 10
133.37065
 20
-98.11511
 30
0.0
  0
VERTEX
  5
428
  8
0
 62
     3
 10
194.00303
 20
-119.17031
 30
0.0
  0
SEQEND
  5
760
  8
0
 62
     3
  0
POLYLINE
  5
A1
  8
0
 62
     3
 66
     1
 10
0.0
 20
0.0
 30
0.0
 40
1.0287
 41
1.0287
  0
VERTEX
  5
42A
  8
0
 62
     3
 10
24.87012
 20
-27.14305
 30
0.0
  0
VERTEX
  5
42B
  8
0
 62
     3
 10
24.30028
 20
-26.03585
 30
0.0
  0
VERTEX
  5
42C
  8
0
 62
     3
 10
23.91224
 20
-24.85255
 30
0.0
  0
VERTEX
  5
42D
  8
0
 62
     3
 10
23.71573
 20
-23.62276
 30
0.0
  0
VERTEX
  5
42E
  8
0
 62
     3
 10
23.71571
 20
-22.37748
 30
0.0
  0
VERTEX
  5
42F
  8
0
 62
     3
 10
23.91218
 20
-21.14768
 30
0.0
  0
VERTEX
  5
430
  8
0
 62
     3
 10
24.30019
 20
-19.96438
 30
0.0
  0
VERTEX
  5
431
  8
0
 62
     3
 10
24.87012
 20
-18.85695
 30
0.0
  0
SEQEND
  5
761
  8
0
 62
     3
  0
POLYLINE
  5
AB
  8
0
 62
     3
 66
     1
 10
0.0
 20
0.0
 30
0.0
 40
1.0287
 41
1.0287
  0
VERTEX
  5
433
  8
0
 62
     3
 10
24.87012
 20
-77.14305
 30
0.0
  0
VERTEX
  5
434
  8
0
 62
     3
 10
24.30028
 20
-76.03585
 30
0.0
  0
VERTEX
  5
435
  8
0
 62
     3
 10
23.91224
 20
-74.85254999999999
 30
0.0
  0
VERTEX
  5
436
  8
0
 62
     3
 10
23.71573
 20
-73.62276
 30
0.0
  0
VERTEX
  5
437
  8
0
 62
     3
 10
23.71571
 20
-72.37748000000001
 30
0.0
  0
VERTEX
  5
438
  8
0
 62
     3
 10
23.91218
 20
-71.14767999999999
 30
0.0
  0
VERTEX
  5
439
  8
0
 62
     3
 10
24.30019
 20
-69.96438000000001
 30
0.0
  0
VERTEX
  5
43A
  8
0
 62
     3
 10
24.87012
 20
-68.85695
 30
0.0
  0
SEQEND
  5
762
  8
0
 62
     3
  0
POLYLINE
  5
B5
  8
0
 62
     3
 66
     1
 10
0.0
 20
0.0
 30
0.0
 70
     1
 40
1.0287
 41
1.0287
  0
VERTEX
  5
43C
  8
0
 62
     3
 10
20.49605
 20
-16.024
 30
0.0
  0
VERTEX
  5
43D
  8
0
 62
     3
 10
20.75952
 20
-16.05992
 30
0.0
  0
VERTEX
  5
43E
  8
0
 62
     3
 10
20.76005
 20
-16.06
 30
0.0
  0
VERTEX
  5
43F
  8
0
 62
     3
 10
21.0214
 20
-16.10388
 30
0.0
  0
VERTEX
  5
440
  8
0
 62
     3
 10
21.02205
 20
-16.104
 30
0.0
  0
VERTEX
  5
441
  8
0
 62
     3
 10
21.28385
 20
-16.16195
 30
0.0
  0
VERTEX
  5
442
  8
0
 62
     3
 10
21.28405
 20
-16.162
 30
0.0
  0
VERTEX
  5
443
  8
0
 62
     3
 10
21.54149
 20
-16.23682
 30
0.0
  0
VERTEX
  5
444
  8
0
 62
     3
 10
21.54205
 20
-16.237
 30
0.0
  0
VERTEX
  5
445
  8
0
 62
     3
 10
21.79605
 20
-16.329
 30
0.0
  0
VERTEX
  5
446
  8
0
 62
     3
 10
22.04985
 20
-16.42156
 30
0.0
  0
VERTEX
  5
447
  8
0
 62
     3
 10
22.05105
 20
-16.422
 30
0.0
  0
VERTEX
  5
448
  8
0
 62
     3
 10
22.53989
 20
-16.65538
 30
0.0
  0
VERTEX
  5
449
  8
0
 62
     3
 10
22.54105
 20
-16.656
 30
0.0
  0
VERTEX
  5
44A
  8
0
 62
     3
 10
22.54164
 20
-16.65632
 30
0.0
  0
VERTEX
  5
44B
  8
0
 62
     3
 10
23.00705
 20
-16.936
 30
0.0
  0
VERTEX
  5
44C
  8
0
 62
     3
 10
23.00733
 20
-16.93617
 30
0.0
  0
VERTEX
  5
44D
  8
0
 62
     3
 10
23.24005
 20
-17.09
 30
0.0
  0
VERTEX
  5
44E
  8
0
 62
     3
 10
23.45801
 20
-17.26596
 30
0.0
  0
VERTEX
  5
44F
  8
0
 62
     3
 10
23.45805
 20
-17.266
 30
0.0
  0
VERTEX
  5
450
  8
0
 62
     3
 10
23.45911
 20
-17.26694
 30
0.0
  0
VERTEX
  5
451
  8
0
 62
     3
 10
23.66905
 20
-17.453
 30
0.0
  0
VERTEX
  5
452
  8
0
 62
     3
 10
23.88105
 20
-17.641
 30
0.0
  0
VERTEX
  5
453
  8
0
 62
     3
 10
24.27162
 20
-18.0535
 30
0.0
  0
VERTEX
  5
454
  8
0
 62
     3
 10
24.27205
 20
-18.054
 30
0.0
  0
VERTEX
  5
455
  8
0
 62
     3
 10
24.27252
 20
-18.05454
 30
0.0
  0
VERTEX
  5
456
  8
0
 62
     3
 10
24.62605
 20
-18.499
 30
0.0
  0
VERTEX
  5
457
  8
0
 62
     3
 10
24.79886
 20
-18.73571
 30
0.0
  0
VERTEX
  5
458
  8
0
 62
     3
 10
24.79905
 20
-18.736
 30
0.0
  0
VERTEX
  5
459
  8
0
 62
     3
 10
24.79909
 20
-18.73606
 30
0.0
  0
VERTEX
  5
45A
  8
0
 62
     3
 10
24.95105
 20
-18.986
 30
0.0
  0
VERTEX
  5
45B
  8
0
 62
     3
 10
24.95124
 20
-18.98634
 30
0.0
  0
VERTEX
  5
45C
  8
0
 62
     3
 10
25.09405
 20
-19.245
 30
0.0
  0
VERTEX
  5
45D
  8
0
 62
     3
 10
25.23639
 20
-19.50281
 30
0.0
  0
VERTEX
  5
45E
  8
0
 62
     3
 10
25.23705
 20
-19.504
 30
0.0
  0
VERTEX
  5
45F
  8
0
 62
     3
 10
25.48102
 20
-20.04592
 30
0.0
  0
VERTEX
  5
460
  8
0
 62
     3
 10
25.48105
 20
-20.046
 30
0.0
  0
VERTEX
  5
461
  8
0
 62
     3
 10
25.68184
 20
-20.60435
 30
0.0
  0
VERTEX
  5
462
  8
0
 62
     3
 10
25.68205
 20
-20.605
 30
0.0
  0
VERTEX
  5
463
  8
0
 62
     3
 10
25.68232
 20
-20.60573
 30
0.0
  0
VERTEX
  5
464
  8
0
 62
     3
 10
25.77405
 20
-20.894
 30
0.0
  0
VERTEX
  5
465
  8
0
 62
     3
 10
25.84201
 20
-21.18878
 30
0.0
  0
VERTEX
  5
466
  8
0
 62
     3
 10
25.84205
 20
-21.189
 30
0.0
  0
VERTEX
  5
467
  8
0
 62
     3
 10
25.89986
 20
-21.48704
 30
0.0
  0
VERTEX
  5
468
  8
0
 62
     3
 10
25.90005
 20
-21.488
 30
0.0
  0
VERTEX
  5
469
  8
0
 62
     3
 10
25.95701
 20
-21.78582
 30
0.0
  0
VERTEX
  5
46A
  8
0
 62
     3
 10
25.95705
 20
-21.786
 30
0.0
  0
VERTEX
  5
46B
  8
0
 62
     3
 10
25.95729
 20
-21.78759
 30
0.0
  0
VERTEX
  5
46C
  8
0
 62
     3
 10
26.02605
 20
-22.391
 30
0.0
  0
VERTEX
  5
46D
  8
0
 62
     3
 10
26.04905
 20
-22.99987
 30
0.0
  0
VERTEX
  5
46E
  8
0
 62
     3
 10
26.04905
 20
-23.0
 30
0.0
  0
VERTEX
  5
46F
  8
0
 62
     3
 10
26.04905
 20
-23.00013
 30
0.0
  0
VERTEX
  5
470
  8
0
 62
     3
 10
26.02605
 20
-23.609
 30
0.0
  0
VERTEX
  5
471
  8
0
 62
     3
 10
26.02602
 20
-23.60937
 30
0.0
  0
VERTEX
  5
472
  8
0
 62
     3
 10
25.95705
 20
-24.214
 30
0.0
  0
VERTEX
  5
473
  8
0
 62
     3
 10
25.91121
 20
-24.51419
 30
0.0
  0
VERTEX
  5
474
  8
0
 62
     3
 10
25.91105
 20
-24.515
 30
0.0
  0
VERTEX
  5
475
  8
0
 62
     3
 10
25.84219
 20
-24.81047
 30
0.0
  0
VERTEX
  5
476
  8
0
 62
     3
 10
25.84205
 20
-24.811
 30
0.0
  0
VERTEX
  5
477
  8
0
 62
     3
 10
25.76205
 20
-25.103
 30
0.0
  0
VERTEX
  5
478
  8
0
 62
     3
 10
25.68205
 20
-25.395
 30
0.0
  0
VERTEX
  5
479
  8
0
 62
     3
 10
25.68184
 20
-25.39565
 30
0.0
  0
VERTEX
  5
47A
  8
0
 62
     3
 10
25.48105
 20
-25.954
 30
0.0
  0
VERTEX
  5
47B
  8
0
 62
     3
 10
25.48102
 20
-25.95408
 30
0.0
  0
VERTEX
  5
47C
  8
0
 62
     3
 10
25.23705
 20
-26.496
 30
0.0
  0
VERTEX
  5
47D
  8
0
 62
     3
 10
25.10428
 20
-26.76059
 30
0.0
  0
VERTEX
  5
47E
  8
0
 62
     3
 10
25.10405
 20
-26.761
 30
0.0
  0
VERTEX
  5
47F
  8
0
 62
     3
 10
24.95126
 20
-27.01368
 30
0.0
  0
VERTEX
  5
480
  8
0
 62
     3
 10
24.95105
 20
-27.014
 30
0.0
  0
VERTEX
  5
481
  8
0
 62
     3
 10
24.78836
 20
-27.25754
 30
0.0
  0
VERTEX
  5
482
  8
0
 62
     3
 10
24.78805
 20
-27.258
 30
0.0
  0
VERTEX
  5
483
  8
0
 62
     3
 10
24.62651
 20
-27.50031
 30
0.0
  0
VERTEX
  5
484
  8
0
 62
     3
 10
24.62605
 20
-27.501
 30
0.0
  0
VERTEX
  5
485
  8
0
 62
     3
 10
24.62574
 20
-27.50143
 30
0.0
  0
VERTEX
  5
486
  8
0
 62
     3
 10
24.27205
 20
-27.946
 30
0.0
  0
VERTEX
  5
487
  8
0
 62
     3
 10
23.88108
 20
-28.35997
 30
0.0
  0
VERTEX
  5
488
  8
0
 62
     3
 10
23.88105
 20
-28.36
 30
0.0
  0
VERTEX
  5
489
  8
0
 62
     3
 10
23.6783
 20
-28.5549
 30
0.0
  0
VERTEX
  5
48A
  8
0
 62
     3
 10
23.67705
 20
-28.556
 30
0.0
  0
VERTEX
  5
48B
  8
0
 62
     3
 10
23.6764
 20
-28.55658
 30
0.0
  0
VERTEX
  5
48C
  8
0
 62
     3
 10
23.45805
 20
-28.734
 30
0.0
  0
VERTEX
  5
48D
  8
0
 62
     3
 10
23.45692
 20
-28.73483
 30
0.0
  0
VERTEX
  5
48E
  8
0
 62
     3
 10
23.23305
 20
-28.899
 30
0.0
  0
VERTEX
  5
48F
  8
0
 62
     3
 10
23.00705
 20
-29.065
 30
0.0
  0
VERTEX
  5
490
  8
0
 62
     3
 10
22.54213
 20
-29.34342
 30
0.0
  0
VERTEX
  5
491
  8
0
 62
     3
 10
22.54105
 20
-29.344
 30
0.0
  0
VERTEX
  5
492
  8
0
 62
     3
 10
22.54023
 20
-29.34444
 30
0.0
  0
VERTEX
  5
493
  8
0
 62
     3
 10
22.05105
 20
-29.579
 30
0.0
  0
VERTEX
  5
494
  8
0
 62
     3
 10
22.05022
 20
-29.57939
 30
0.0
  0
VERTEX
  5
495
  8
0
 62
     3
 10
21.80105
 20
-29.683
 30
0.0
  0
VERTEX
  5
496
  8
0
 62
     3
 10
21.79986
 20
-29.68344
 30
0.0
  0
VERTEX
  5
497
  8
0
 62
     3
 10
21.54205
 20
-29.763
 30
0.0
  0
VERTEX
  5
498
  8
0
 62
     3
 10
21.54181
 20
-29.76306
 30
0.0
  0
VERTEX
  5
499
  8
0
 62
     3
 10
21.28205
 20
-29.83
 30
0.0
  0
VERTEX
  5
49A
  8
0
 62
     3
 10
21.02205
 20
-29.896
 30
0.0
  0
VERTEX
  5
49B
  8
0
 62
     3
 10
20.49609
 20
-29.976
 30
0.0
  0
VERTEX
  5
49C
  8
0
 62
     3
 10
20.49605
 20
-29.976
 30
0.0
  0
VERTEX
  5
49D
  8
0
 62
     3
 10
19.96677
 20
-30.003
 30
0.0
  0
VERTEX
  5
49E
  8
0
 62
     3
 10
19.96605
 20
-30.003
 30
0.0
  0
VERTEX
  5
49F
  8
0
 62
     3
 10
19.43532
 20
-29.97603
 30
0.0
  0
VERTEX
  5
4A0
  8
0
 62
     3
 10
19.43505
 20
-29.976
 30
0.0
  0
VERTEX
  5
4A1
  8
0
 62
     3
 10
19.43501
 20
-29.976
 30
0.0
  0
VERTEX
  5
4A2
  8
0
 62
     3
 10
18.90905
 20
-29.896
 30
0.0
  0
VERTEX
  5
4A3
  8
0
 62
     3
 10
18.90868
 20
-29.89594
 30
0.0
  0
VERTEX
  5
4A4
  8
0
 62
     3
 10
18.64605
 20
-29.843
 30
0.0
  0
VERTEX
  5
4A5
  8
0
 62
     3
 10
18.39026
 20
-29.76345
 30
0.0
  0
VERTEX
  5
4A6
  8
0
 62
     3
 10
18.38905
 20
-29.763
 30
0.0
  0
VERTEX
  5
4A7
  8
0
 62
     3
 10
18.13505
 20
-29.671
 30
0.0
  0
VERTEX
  5
4A8
  8
0
 62
     3
 10
17.88105
 20
-29.579
 30
0.0
  0
VERTEX
  5
4A9
  8
0
 62
     3
 10
17.39006
 20
-29.344
 30
0.0
  0
VERTEX
  5
4AA
  8
0
 62
     3
 10
17.39005
 20
-29.344
 30
0.0
  0
VERTEX
  5
4AB
  8
0
 62
     3
 10
17.38897
 20
-29.34342
 30
0.0
  0
VERTEX
  5
4AC
  8
0
 62
     3
 10
16.92405
 20
-29.065
 30
0.0
  0
VERTEX
  5
4AD
  8
0
 62
     3
 10
16.69126
 20
-28.91016
 30
0.0
  0
VERTEX
  5
4AE
  8
0
 62
     3
 10
16.69105
 20
-28.91
 30
0.0
  0
VERTEX
  5
4AF
  8
0
 62
     3
 10
16.69049
 20
-28.90959
 30
0.0
  0
VERTEX
  5
4B0
  8
0
 62
     3
 10
16.47405
 20
-28.734
 30
0.0
  0
VERTEX
  5
4B1
  8
0
 62
     3
 10
16.26254
 20
-28.54744
 30
0.0
  0
VERTEX
  5
4B2
  8
0
 62
     3
 10
16.26205
 20
-28.547
 30
0.0
  0
VERTEX
  5
4B3
  8
0
 62
     3
 10
16.26156
 20
-28.54656
 30
0.0
  0
VERTEX
  5
4B4
  8
0
 62
     3
 10
16.05005
 20
-28.36
 30
0.0
  0
VERTEX
  5
4B5
  8
0
 62
     3
 10
16.05002
 20
-28.35997
 30
0.0
  0
VERTEX
  5
4B6
  8
0
 62
     3
 10
15.65905
 20
-27.946
 30
0.0
  0
VERTEX
  5
4B7
  8
0
 62
     3
 10
15.30536
 20
-27.50143
 30
0.0
  0
VERTEX
  5
4B8
  8
0
 62
     3
 10
15.30505
 20
-27.501
 30
0.0
  0
VERTEX
  5
4B9
  8
0
 62
     3
 10
15.30492
 20
-27.50084
 30
0.0
  0
VERTEX
  5
4BA
  8
0
 62
     3
 10
15.13305
 20
-27.264
 30
0.0
  0
VERTEX
  5
4BB
  8
0
 62
     3
 10
15.13243
 20
-27.26308
 30
0.0
  0
VERTEX
  5
4BC
  8
0
 62
     3
 10
14.98105
 20
-27.014
 30
0.0
  0
VERTEX
  5
4BD
  8
0
 62
     3
 10
14.98063
 20
-27.01324
 30
0.0
  0
VERTEX
  5
4BE
  8
0
 62
     3
 10
14.83705
 20
-26.755
 30
0.0
  0
VERTEX
  5
4BF
  8
0
 62
     3
 10
14.69471
 20
-26.49719
 30
0.0
  0
VERTEX
  5
4C0
  8
0
 62
     3
 10
14.69405
 20
-26.496
 30
0.0
  0
VERTEX
  5
4C1
  8
0
 62
     3
 10
14.45008
 20
-25.95408
 30
0.0
  0
VERTEX
  5
4C2
  8
0
 62
     3
 10
14.45005
 20
-25.954
 30
0.0
  0
VERTEX
  5
4C3
  8
0
 62
     3
 10
14.24926
 20
-25.39565
 30
0.0
  0
VERTEX
  5
4C4
  8
0
 62
     3
 10
14.24905
 20
-25.395
 30
0.0
  0
VERTEX
  5
4C5
  8
0
 62
     3
 10
14.2489
 20
-25.39458
 30
0.0
  0
VERTEX
  5
4C6
  8
0
 62
     3
 10
14.15805
 20
-25.106
 30
0.0
  0
VERTEX
  5
4C7
  8
0
 62
     3
 10
14.08913
 20
-24.81141
 30
0.0
  0
VERTEX
  5
4C8
  8
0
 62
     3
 10
14.08905
 20
-24.811
 30
0.0
  0
VERTEX
  5
4C9
  8
0
 62
     3
 10
14.0322
 20
-24.51278
 30
0.0
  0
VERTEX
  5
4CA
  8
0
 62
     3
 10
14.03205
 20
-24.512
 30
0.0
  0
VERTEX
  5
4CB
  8
0
 62
     3
 10
13.97405
 20
-24.214
 30
0.0
  0
VERTEX
  5
4CC
  8
0
 62
     3
 10
13.90508
 20
-23.60937
 30
0.0
  0
VERTEX
  5
4CD
  8
0
 62
     3
 10
13.90505
 20
-23.609
 30
0.0
  0
VERTEX
  5
4CE
  8
0
 62
     3
 10
13.88205
 20
-23.00013
 30
0.0
  0
VERTEX
  5
4CF
  8
0
 62
     3
 10
13.88205
 20
-23.0
 30
0.0
  0
VERTEX
  5
4D0
  8
0
 62
     3
 10
13.88205
 20
-22.99987
 30
0.0
  0
VERTEX
  5
4D1
  8
0
 62
     3
 10
13.90505
 20
-22.391
 30
0.0
  0
VERTEX
  5
4D2
  8
0
 62
     3
 10
13.97381
 20
-21.78759
 30
0.0
  0
VERTEX
  5
4D3
  8
0
 62
     3
 10
13.97405
 20
-21.786
 30
0.0
  0
VERTEX
  5
4D4
  8
0
 62
     3
 10
13.97407
 20
-21.78584
 30
0.0
  0
VERTEX
  5
4D5
  8
0
 62
     3
 10
14.02005
 20
-21.486
 30
0.0
  0
VERTEX
  5
4D6
  8
0
 62
     3
 10
14.02013
 20
-21.48558
 30
0.0
  0
VERTEX
  5
4D7
  8
0
 62
     3
 10
14.08905
 20
-21.189
 30
0.0
  0
VERTEX
  5
4D8
  8
0
 62
     3
 10
14.16905
 20
-20.897
 30
0.0
  0
VERTEX
  5
4D9
  8
0
 62
     3
 10
14.24905
 20
-20.605
 30
0.0
  0
VERTEX
  5
4DA
  8
0
 62
     3
 10
14.24946
 20
-20.6037
 30
0.0
  0
VERTEX
  5
4DB
  8
0
 62
     3
 10
14.45005
 20
-20.046
 30
0.0
  0
VERTEX
  5
4DC
  8
0
 62
     3
 10
14.45039
 20
-20.04516
 30
0.0
  0
VERTEX
  5
4DD
  8
0
 62
     3
 10
14.69405
 20
-19.504
 30
0.0
  0
VERTEX
  5
4DE
  8
0
 62
     3
 10
14.69423
 20
-19.50361
 30
0.0
  0
VERTEX
  5
4DF
  8
0
 62
     3
 10
14.82705
 20
-19.239
 30
0.0
  0
VERTEX
  5
4E0
  8
0
 62
     3
 10
14.98054
 20
-18.98677
 30
0.0
  0
VERTEX
  5
4E1
  8
0
 62
     3
 10
14.98105
 20
-18.986
 30
0.0
  0
VERTEX
  5
4E2
  8
0
 62
     3
 10
15.14305
 20
-18.742
 30
0.0
  0
VERTEX
  5
4E3
  8
0
 62
     3
 10
15.30459
 20
-18.49969
 30
0.0
  0
VERTEX
  5
4E4
  8
0
 62
     3
 10
15.30505
 20
-18.499
 30
0.0
  0
VERTEX
  5
4E5
  8
0
 62
     3
 10
15.30536
 20
-18.49857
 30
0.0
  0
VERTEX
  5
4E6
  8
0
 62
     3
 10
15.65905
 20
-18.054
 30
0.0
  0
VERTEX
  5
4E7
  8
0
 62
     3
 10
15.65948
 20
-18.0535
 30
0.0
  0
VERTEX
  5
4E8
  8
0
 62
     3
 10
16.05005
 20
-17.641
 30
0.0
  0
VERTEX
  5
4E9
  8
0
 62
     3
 10
16.05039
 20
-17.64064
 30
0.0
  0
VERTEX
  5
4EA
  8
0
 62
     3
 10
16.25405
 20
-17.444
 30
0.0
  0
VERTEX
  5
4EB
  8
0
 62
     3
 10
16.2541
 20
-17.44395
 30
0.0
  0
VERTEX
  5
4EC
  8
0
 62
     3
 10
16.47405
 20
-17.266
 30
0.0
  0
VERTEX
  5
4ED
  8
0
 62
     3
 10
16.69888
 20
-17.10113
 30
0.0
  0
VERTEX
  5
4EE
  8
0
 62
     3
 10
16.69905
 20
-17.101
 30
0.0
  0
VERTEX
  5
4EF
  8
0
 62
     3
 10
16.92388
 20
-16.93613
 30
0.0
  0
VERTEX
  5
4F0
  8
0
 62
     3
 10
16.92405
 20
-16.936
 30
0.0
  0
VERTEX
  5
4F1
  8
0
 62
     3
 10
17.38946
 20
-16.65632
 30
0.0
  0
VERTEX
  5
4F2
  8
0
 62
     3
 10
17.39005
 20
-16.656
 30
0.0
  0
VERTEX
  5
4F3
  8
0
 62
     3
 10
17.3904
 20
-16.65581
 30
0.0
  0
VERTEX
  5
4F4
  8
0
 62
     3
 10
17.88105
 20
-16.422
 30
0.0
  0
VERTEX
  5
4F5
  8
0
 62
     3
 10
18.13058
 20
-16.31717
 30
0.0
  0
VERTEX
  5
4F6
  8
0
 62
     3
 10
18.13105
 20
-16.317
 30
0.0
  0
VERTEX
  5
4F7
  8
0
 62
     3
 10
18.38879
 20
-16.23707
 30
0.0
  0
VERTEX
  5
4F8
  8
0
 62
     3
 10
18.38905
 20
-16.237
 30
0.0
  0
VERTEX
  5
4F9
  8
0
 62
     3
 10
18.38929
 20
-16.23694
 30
0.0
  0
VERTEX
  5
4FA
  8
0
 62
     3
 10
18.64905
 20
-16.17
 30
0.0
  0
VERTEX
  5
4FB
  8
0
 62
     3
 10
18.90905
 20
-16.104
 30
0.0
  0
VERTEX
  5
4FC
  8
0
 62
     3
 10
19.43501
 20
-16.024
 30
0.0
  0
VERTEX
  5
4FD
  8
0
 62
     3
 10
19.43505
 20
-16.024
 30
0.0
  0
VERTEX
  5
4FE
  8
0
 62
     3
 10
19.43532
 20
-16.02397
 30
0.0
  0
VERTEX
  5
4FF
  8
0
 62
     3
 10
19.96605
 20
-15.997
 30
0.0
  0
VERTEX
  5
500
  8
0
 62
     3
 10
20.49605
 20
-16.024
 30
0.0
  0
SEQEND
  5
763
  8
0
 62
     3
  0
POLYLINE
  5
17C
  8
0
 62
     3
 66
     1
 10
0.0
 20
0.0
 30
0.0
 70
     1
 40
1.0287
 41
1.0287
  0
VERTEX
  5
502
  8
0
 62
     3
 10
20.49605
 20
-66.024
 30
0.0
  0
VERTEX
  5
503
  8
0
 62
     3
 10
20.75952
 20
-66.05992000000001
 30
0.0
  0
VERTEX
  5
504
  8
0
 62
     3
 10
20.76005
 20
-66.06
 30
0.0
  0
VERTEX
  5
505
  8
0
 62
     3
 10
21.0214
 20
-66.10388
 30
0.0
  0
VERTEX
  5
506
  8
0
 62
     3
 10
21.02205
 20
-66.104
 30
0.0
  0
VERTEX
  5
507
  8
0
 62
     3
 10
21.28385
 20
-66.16195
 30
0.0
  0
VERTEX
  5
508
  8
0
 62
     3
 10
21.28405
 20
-66.16200000000001
 30
0.0
  0
VERTEX
  5
509
  8
0
 62
     3
 10
21.54149
 20
-66.23681999999999
 30
0.0
  0
VERTEX
  5
50A
  8
0
 62
     3
 10
21.54205
 20
-66.237
 30
0.0
  0
VERTEX
  5
50B
  8
0
 62
     3
 10
21.79605
 20
-66.32899999999999
 30
0.0
  0
VERTEX
  5
50C
  8
0
 62
     3
 10
22.04985
 20
-66.42156
 30
0.0
  0
VERTEX
  5
50D
  8
0
 62
     3
 10
22.05105
 20
-66.422
 30
0.0
  0
VERTEX
  5
50E
  8
0
 62
     3
 10
22.53989
 20
-66.65537999999999
 30
0.0
  0
VERTEX
  5
50F
  8
0
 62
     3
 10
22.54105
 20
-66.65600000000001
 30
0.0
  0
VERTEX
  5
510
  8
0
 62
     3
 10
22.54164
 20
-66.65631999999999
 30
0.0
  0
VERTEX
  5
511
  8
0
 62
     3
 10
23.00705
 20
-66.93600000000001
 30
0.0
  0
VERTEX
  5
512
  8
0
 62
     3
 10
23.00733
 20
-66.93617
 30
0.0
  0
VERTEX
  5
513
  8
0
 62
     3
 10
23.24005
 20
-67.09
 30
0.0
  0
VERTEX
  5
514
  8
0
 62
     3
 10
23.45801
 20
-67.26596000000001
 30
0.0
  0
VERTEX
  5
515
  8
0
 62
     3
 10
23.45805
 20
-67.26600000000001
 30
0.0
  0
VERTEX
  5
516
  8
0
 62
     3
 10
23.45911
 20
-67.26694000000001
 30
0.0
  0
VERTEX
  5
517
  8
0
 62
     3
 10
23.66905
 20
-67.453
 30
0.0
  0
VERTEX
  5
518
  8
0
 62
     3
 10
23.88105
 20
-67.64100000000001
 30
0.0
  0
VERTEX
  5
519
  8
0
 62
     3
 10
24.27162
 20
-68.0535
 30
0.0
  0
VERTEX
  5
51A
  8
0
 62
     3
 10
24.27205
 20
-68.054
 30
0.0
  0
VERTEX
  5
51B
  8
0
 62
     3
 10
24.27252
 20
-68.05454
 30
0.0
  0
VERTEX
  5
51C
  8
0
 62
     3
 10
24.62605
 20
-68.499
 30
0.0
  0
VERTEX
  5
51D
  8
0
 62
     3
 10
24.79886
 20
-68.73571
 30
0.0
  0
VERTEX
  5
51E
  8
0
 62
     3
 10
24.79905
 20
-68.736
 30
0.0
  0
VERTEX
  5
51F
  8
0
 62
     3
 10
24.79909
 20
-68.73606
 30
0.0
  0
VERTEX
  5
520
  8
0
 62
     3
 10
24.95105
 20
-68.986
 30
0.0
  0
VERTEX
  5
521
  8
0
 62
     3
 10
24.95124
 20
-68.98634
 30
0.0
  0
VERTEX
  5
522
  8
0
 62
     3
 10
25.09405
 20
-69.24500000000001
 30
0.0
  0
VERTEX
  5
523
  8
0
 62
     3
 10
25.23639
 20
-69.50281
 30
0.0
  0
VERTEX
  5
524
  8
0
 62
     3
 10
25.23705
 20
-69.50400000000001
 30
0.0
  0
VERTEX
  5
525
  8
0
 62
     3
 10
25.48102
 20
-70.04592
 30
0.0
  0
VERTEX
  5
526
  8
0
 62
     3
 10
25.48105
 20
-70.04600000000001
 30
0.0
  0
VERTEX
  5
527
  8
0
 62
     3
 10
25.68184
 20
-70.60435
 30
0.0
  0
VERTEX
  5
528
  8
0
 62
     3
 10
25.68205
 20
-70.605
 30
0.0
  0
VERTEX
  5
529
  8
0
 62
     3
 10
25.68232
 20
-70.60572999999999
 30
0.0
  0
VERTEX
  5
52A
  8
0
 62
     3
 10
25.77405
 20
-70.89400000000001
 30
0.0
  0
VERTEX
  5
52B
  8
0
 62
     3
 10
25.84201
 20
-71.18877999999999
 30
0.0
  0
VERTEX
  5
52C
  8
0
 62
     3
 10
25.84205
 20
-71.18899999999999
 30
0.0
  0
VERTEX
  5
52D
  8
0
 62
     3
 10
25.89986
 20
-71.48703999999999
 30
0.0
  0
VERTEX
  5
52E
  8
0
 62
     3
 10
25.90005
 20
-71.488
 30
0.0
  0
VERTEX
  5
52F
  8
0
 62
     3
 10
25.95701
 20
-71.78582
 30
0.0
  0
VERTEX
  5
530
  8
0
 62
     3
 10
25.95705
 20
-71.786
 30
0.0
  0
VERTEX
  5
531
  8
0
 62
     3
 10
25.95729
 20
-71.78758999999999
 30
0.0
  0
VERTEX
  5
532
  8
0
 62
     3
 10
26.02605
 20
-72.39100000000001
 30
0.0
  0
VERTEX
  5
533
  8
0
 62
     3
 10
26.04905
 20
-72.99987
 30
0.0
  0
VERTEX
  5
534
  8
0
 62
     3
 10
26.04905
 20
-73.0
 30
0.0
  0
VERTEX
  5
535
  8
0
 62
     3
 10
26.04905
 20
-73.00013
 30
0.0
  0
VERTEX
  5
536
  8
0
 62
     3
 10
26.02605
 20
-73.609
 30
0.0
  0
VERTEX
  5
537
  8
0
 62
     3
 10
26.02602
 20
-73.60937
 30
0.0
  0
VERTEX
  5
538
  8
0
 62
     3
 10
25.95705
 20
-74.214
 30
0.0
  0
VERTEX
  5
539
  8
0
 62
     3
 10
25.91121
 20
-74.51419
 30
0.0
  0
VERTEX
  5
53A
  8
0
 62
     3
 10
25.91105
 20
-74.515
 30
0.0
  0
VERTEX
  5
53B
  8
0
 62
     3
 10
25.84219
 20
-74.81047
 30
0.0
  0
VERTEX
  5
53C
  8
0
 62
     3
 10
25.84205
 20
-74.81100000000001
 30
0.0
  0
VERTEX
  5
53D
  8
0
 62
     3
 10
25.76205
 20
-75.10299999999999
 30
0.0
  0
VERTEX
  5
53E
  8
0
 62
     3
 10
25.68205
 20
-75.395
 30
0.0
  0
VERTEX
  5
53F
  8
0
 62
     3
 10
25.68184
 20
-75.39565
 30
0.0
  0
VERTEX
  5
540
  8
0
 62
     3
 10
25.48105
 20
-75.95399999999999
 30
0.0
  0
VERTEX
  5
541
  8
0
 62
     3
 10
25.48102
 20
-75.95408000000001
 30
0.0
  0
VERTEX
  5
542
  8
0
 62
     3
 10
25.23705
 20
-76.496
 30
0.0
  0
VERTEX
  5
543
  8
0
 62
     3
 10
25.10428
 20
-76.76058999999999
 30
0.0
  0
VERTEX
  5
544
  8
0
 62
     3
 10
25.10405
 20
-76.761
 30
0.0
  0
VERTEX
  5
545
  8
0
 62
     3
 10
24.95126
 20
-77.01367999999999
 30
0.0
  0
VERTEX
  5
546
  8
0
 62
     3
 10
24.95105
 20
-77.014
 30
0.0
  0
VERTEX
  5
547
  8
0
 62
     3
 10
24.78836
 20
-77.25754000000001
 30
0.0
  0
VERTEX
  5
548
  8
0
 62
     3
 10
24.78805
 20
-77.258
 30
0.0
  0
VERTEX
  5
549
  8
0
 62
     3
 10
24.62651
 20
-77.50031
 30
0.0
  0
VERTEX
  5
54A
  8
0
 62
     3
 10
24.62605
 20
-77.50100000000001
 30
0.0
  0
VERTEX
  5
54B
  8
0
 62
     3
 10
24.62574
 20
-77.50143
 30
0.0
  0
VERTEX
  5
54C
  8
0
 62
     3
 10
24.27205
 20
-77.946
 30
0.0
  0
VERTEX
  5
54D
  8
0
 62
     3
 10
23.88108
 20
-78.35997
 30
0.0
  0
VERTEX
  5
54E
  8
0
 62
     3
 10
23.88105
 20
-78.36
 30
0.0
  0
VERTEX
  5
54F
  8
0
 62
     3
 10
23.6783
 20
-78.5549
 30
0.0
  0
VERTEX
  5
550
  8
0
 62
     3
 10
23.67705
 20
-78.556
 30
0.0
  0
VERTEX
  5
551
  8
0
 62
     3
 10
23.6764
 20
-78.55658
 30
0.0
  0
VERTEX
  5
552
  8
0
 62
     3
 10
23.45805
 20
-78.734
 30
0.0
  0
VERTEX
  5
553
  8
0
 62
     3
 10
23.45692
 20
-78.73483
 30
0.0
  0
VERTEX
  5
554
  8
0
 62
     3
 10
23.23305
 20
-78.899
 30
0.0
  0
VERTEX
  5
555
  8
0
 62
     3
 10
23.00705
 20
-79.065
 30
0.0
  0
VERTEX
  5
556
  8
0
 62
     3
 10
22.54213
 20
-79.34342
 30
0.0
  0
VERTEX
  5
557
  8
0
 62
     3
 10
22.54105
 20
-79.34399999999999
 30
0.0
  0
VERTEX
  5
558
  8
0
 62
     3
 10
22.54023
 20
-79.34444000000001
 30
0.0
  0
VERTEX
  5
559
  8
0
 62
     3
 10
22.05105
 20
-79.57899999999999
 30
0.0
  0
VERTEX
  5
55A
  8
0
 62
     3
 10
22.05022
 20
-79.57939
 30
0.0
  0
VERTEX
  5
55B
  8
0
 62
     3
 10
21.80105
 20
-79.68300000000001
 30
0.0
  0
VERTEX
  5
55C
  8
0
 62
     3
 10
21.79986
 20
-79.68344
 30
0.0
  0
VERTEX
  5
55D
  8
0
 62
     3
 10
21.54205
 20
-79.76300000000001
 30
0.0
  0
VERTEX
  5
55E
  8
0
 62
     3
 10
21.54181
 20
-79.76306
 30
0.0
  0
VERTEX
  5
55F
  8
0
 62
     3
 10
21.28205
 20
-79.83
 30
0.0
  0
VERTEX
  5
560
  8
0
 62
     3
 10
21.02205
 20
-79.896
 30
0.0
  0
VERTEX
  5
561
  8
0
 62
     3
 10
20.49609
 20
-79.976
 30
0.0
  0
VERTEX
  5
562
  8
0
 62
     3
 10
20.49605
 20
-79.976
 30
0.0
  0
VERTEX
  5
563
  8
0
 62
     3
 10
19.96677
 20
-80.003
 30
0.0
  0
VERTEX
  5
564
  8
0
 62
     3
 10
19.96605
 20
-80.003
 30
0.0
  0
VERTEX
  5
565
  8
0
 62
     3
 10
19.43532
 20
-79.97602999999999
 30
0.0
  0
VERTEX
  5
566
  8
0
 62
     3
 10
19.43505
 20
-79.976
 30
0.0
  0
VERTEX
  5
567
  8
0
 62
     3
 10
19.43501
 20
-79.976
 30
0.0
  0
VERTEX
  5
568
  8
0
 62
     3
 10
18.90905
 20
-79.896
 30
0.0
  0
VERTEX
  5
569
  8
0
 62
     3
 10
18.90868
 20
-79.89594
 30
0.0
  0
VERTEX
  5
56A
  8
0
 62
     3
 10
18.64605
 20
-79.843
 30
0.0
  0
VERTEX
  5
56B
  8
0
 62
     3
 10
18.39026
 20
-79.76345000000001
 30
0.0
  0
VERTEX
  5
56C
  8
0
 62
     3
 10
18.38905
 20
-79.76300000000001
 30
0.0
  0
VERTEX
  5
56D
  8
0
 62
     3
 10
18.13505
 20
-79.67100000000001
 30
0.0
  0
VERTEX
  5
56E
  8
0
 62
     3
 10
17.88105
 20
-79.57899999999999
 30
0.0
  0
VERTEX
  5
56F
  8
0
 62
     3
 10
17.39006
 20
-79.34399999999999
 30
0.0
  0
VERTEX
  5
570
  8
0
 62
     3
 10
17.39005
 20
-79.34399999999999
 30
0.0
  0
VERTEX
  5
571
  8
0
 62
     3
 10
17.38897
 20
-79.34342
 30
0.0
  0
VERTEX
  5
572
  8
0
 62
     3
 10
16.92405
 20
-79.065
 30
0.0
  0
VERTEX
  5
573
  8
0
 62
     3
 10
16.69126
 20
-78.91016000000001
 30
0.0
  0
VERTEX
  5
574
  8
0
 62
     3
 10
16.69105
 20
-78.91
 30
0.0
  0
VERTEX
  5
575
  8
0
 62
     3
 10
16.69049
 20
-78.90958999999999
 30
0.0
  0
VERTEX
  5
576
  8
0
 62
     3
 10
16.47405
 20
-78.734
 30
0.0
  0
VERTEX
  5
577
  8
0
 62
     3
 10
16.26254
 20
-78.54744
 30
0.0
  0
VERTEX
  5
578
  8
0
 62
     3
 10
16.26205
 20
-78.547
 30
0.0
  0
VERTEX
  5
579
  8
0
 62
     3
 10
16.26156
 20
-78.54656
 30
0.0
  0
VERTEX
  5
57A
  8
0
 62
     3
 10
16.05005
 20
-78.36
 30
0.0
  0
VERTEX
  5
57B
  8
0
 62
     3
 10
16.05002
 20
-78.35997
 30
0.0
  0
VERTEX
  5
57C
  8
0
 62
     3
 10
15.65905
 20
-77.946
 30
0.0
  0
VERTEX
  5
57D
  8
0
 62
     3
 10
15.30536
 20
-77.50143
 30
0.0
  0
VERTEX
  5
57E
  8
0
 62
     3
 10
15.30505
 20
-77.50100000000001
 30
0.0
  0
VERTEX
  5
57F
  8
0
 62
     3
 10
15.30492
 20
-77.50084
 30
0.0
  0
VERTEX
  5
580
  8
0
 62
     3
 10
15.13305
 20
-77.264
 30
0.0
  0
VERTEX
  5
581
  8
0
 62
     3
 10
15.13243
 20
-77.26308
 30
0.0
  0
VERTEX
  5
582
  8
0
 62
     3
 10
14.98105
 20
-77.014
 30
0.0
  0
VERTEX
  5
583
  8
0
 62
     3
 10
14.98063
 20
-77.01324
 30
0.0
  0
VERTEX
  5
584
  8
0
 62
     3
 10
14.83705
 20
-76.755
 30
0.0
  0
VERTEX
  5
585
  8
0
 62
     3
 10
14.69471
 20
-76.49719
 30
0.0
  0
VERTEX
  5
586
  8
0
 62
     3
 10
14.69405
 20
-76.496
 30
0.0
  0
VERTEX
  5
587
  8
0
 62
     3
 10
14.45008
 20
-75.95408000000001
 30
0.0
  0
VERTEX
  5
588
  8
0
 62
     3
 10
14.45005
 20
-75.95399999999999
 30
0.0
  0
VERTEX
  5
589
  8
0
 62
     3
 10
14.24926
 20
-75.39565
 30
0.0
  0
VERTEX
  5
58A
  8
0
 62
     3
 10
14.24905
 20
-75.395
 30
0.0
  0
VERTEX
  5
58B
  8
0
 62
     3
 10
14.2489
 20
-75.39458000000001
 30
0.0
  0
VERTEX
  5
58C
  8
0
 62
     3
 10
14.15805
 20
-75.106
 30
0.0
  0
VERTEX
  5
58D
  8
0
 62
     3
 10
14.08913
 20
-74.81141
 30
0.0
  0
VERTEX
  5
58E
  8
0
 62
     3
 10
14.08905
 20
-74.81100000000001
 30
0.0
  0
VERTEX
  5
58F
  8
0
 62
     3
 10
14.0322
 20
-74.51278000000001
 30
0.0
  0
VERTEX
  5
590
  8
0
 62
     3
 10
14.03205
 20
-74.512
 30
0.0
  0
VERTEX
  5
591
  8
0
 62
     3
 10
13.97405
 20
-74.214
 30
0.0
  0
VERTEX
  5
592
  8
0
 62
     3
 10
13.90508
 20
-73.60937
 30
0.0
  0
VERTEX
  5
593
  8
0
 62
     3
 10
13.90505
 20
-73.609
 30
0.0
  0
VERTEX
  5
594
  8
0
 62
     3
 10
13.88205
 20
-73.00013
 30
0.0
  0
VERTEX
  5
595
  8
0
 62
     3
 10
13.88205
 20
-73.0
 30
0.0
  0
VERTEX
  5
596
  8
0
 62
     3
 10
13.88205
 20
-72.99987
 30
0.0
  0
VERTEX
  5
597
  8
0
 62
     3
 10
13.90505
 20
-72.39100000000001
 30
0.0
  0
VERTEX
  5
598
  8
0
 62
     3
 10
13.97381
 20
-71.78758999999999
 30
0.0
  0
VERTEX
  5
599
  8
0
 62
     3
 10
13.97405
 20
-71.786
 30
0.0
  0
VERTEX
  5
59A
  8
0
 62
     3
 10
13.97407
 20
-71.78583999999999
 30
0.0
  0
VERTEX
  5
59B
  8
0
 62
     3
 10
14.02005
 20
-71.486
 30
0.0
  0
VERTEX
  5
59C
  8
0
 62
     3
 10
14.02013
 20
-71.48558
 30
0.0
  0
VERTEX
  5
59D
  8
0
 62
     3
 10
14.08905
 20
-71.18899999999999
 30
0.0
  0
VERTEX
  5
59E
  8
0
 62
     3
 10
14.16905
 20
-70.89700000000001
 30
0.0
  0
VERTEX
  5
59F
  8
0
 62
     3
 10
14.24905
 20
-70.605
 30
0.0
  0
VERTEX
  5
5A0
  8
0
 62
     3
 10
14.24946
 20
-70.6037
 30
0.0
  0
VERTEX
  5
5A1
  8
0
 62
     3
 10
14.45005
 20
-70.04600000000001
 30
0.0
  0
VERTEX
  5
5A2
  8
0
 62
     3
 10
14.45039
 20
-70.04516
 30
0.0
  0
VERTEX
  5
5A3
  8
0
 62
     3
 10
14.69405
 20
-69.50400000000001
 30
0.0
  0
VERTEX
  5
5A4
  8
0
 62
     3
 10
14.69423
 20
-69.50361
 30
0.0
  0
VERTEX
  5
5A5
  8
0
 62
     3
 10
14.82705
 20
-69.239
 30
0.0
  0
VERTEX
  5
5A6
  8
0
 62
     3
 10
14.98054
 20
-68.98677000000001
 30
0.0
  0
VERTEX
  5
5A7
  8
0
 62
     3
 10
14.98105
 20
-68.986
 30
0.0
  0
VERTEX
  5
5A8
  8
0
 62
     3
 10
15.14305
 20
-68.742
 30
0.0
  0
VERTEX
  5
5A9
  8
0
 62
     3
 10
15.30459
 20
-68.49969
 30
0.0
  0
VERTEX
  5
5AA
  8
0
 62
     3
 10
15.30505
 20
-68.499
 30
0.0
  0
VERTEX
  5
5AB
  8
0
 62
     3
 10
15.30536
 20
-68.49857
 30
0.0
  0
VERTEX
  5
5AC
  8
0
 62
     3
 10
15.65905
 20
-68.054
 30
0.0
  0
VERTEX
  5
5AD
  8
0
 62
     3
 10
15.65948
 20
-68.0535
 30
0.0
  0
VERTEX
  5
5AE
  8
0
 62
     3
 10
16.05005
 20
-67.64100000000001
 30
0.0
  0
VERTEX
  5
5AF
  8
0
 62
     3
 10
16.05039
 20
-67.64064000000001
 30
0.0
  0
VERTEX
  5
5B0
  8
0
 62
     3
 10
16.25405
 20
-67.444
 30
0.0
  0
VERTEX
  5
5B1
  8
0
 62
     3
 10
16.2541
 20
-67.44395
 30
0.0
  0
VERTEX
  5
5B2
  8
0
 62
     3
 10
16.47405
 20
-67.26600000000001
 30
0.0
  0
VERTEX
  5
5B3
  8
0
 62
     3
 10
16.69888
 20
-67.10113
 30
0.0
  0
VERTEX
  5
5B4
  8
0
 62
     3
 10
16.69905
 20
-67.101
 30
0.0
  0
VERTEX
  5
5B5
  8
0
 62
     3
 10
16.92388
 20
-66.93613000000001
 30
0.0
  0
VERTEX
  5
5B6
  8
0
 62
     3
 10
16.92405
 20
-66.93600000000001
 30
0.0
  0
VERTEX
  5
5B7
  8
0
 62
     3
 10
17.38946
 20
-66.65631999999999
 30
0.0
  0
VERTEX
  5
5B8
  8
0
 62
     3
 10
17.39005
 20
-66.65600000000001
 30
0.0
  0
VERTEX
  5
5B9
  8
0
 62
     3
 10
17.3904
 20
-66.65581
 30
0.0
  0
VERTEX
  5
5BA
  8
0
 62
     3
 10
17.88105
 20
-66.422
 30
0.0
  0
VERTEX
  5
5BB
  8
0
 62
     3
 10
18.13058
 20
-66.31717
 30
0.0
  0
VERTEX
  5
5BC
  8
0
 62
     3
 10
18.13105
 20
-66.31699999999999
 30
0.0
  0
VERTEX
  5
5BD
  8
0
 62
     3
 10
18.38879
 20
-66.23707
 30
0.0
  0
VERTEX
  5
5BE
  8
0
 62
     3
 10
18.38905
 20
-66.237
 30
0.0
  0
VERTEX
  5
5BF
  8
0
 62
     3
 10
18.38929
 20
-66.23694
 30
0.0
  0
VERTEX
  5
5C0
  8
0
 62
     3
 10
18.64905
 20
-66.17
 30
0.0
  0
VERTEX
  5
5C1
  8
0
 62
     3
 10
18.90905
 20
-66.104
 30
0.0
  0
VERTEX
  5
5C2
  8
0
 62
     3
 10
19.43501
 20
-66.024
 30
0.0
  0
VERTEX
  5
5C3
  8
0
 62
     3
 10
19.43505
 20
-66.024
 30
0.0
  0
VERTEX
  5
5C4
  8
0
 62
     3
 10
19.43532
 20
-66.02397000000001
 30
0.0
  0
VERTEX
  5
5C5
  8
0
 62
     3
 10
19.96605
 20
-65.997
 30
0.0
  0
VERTEX
  5
5C6
  8
0
 62
     3
 10
20.49605
 20
-66.024
 30
0.0
  0
SEQEND
  5
764
  8
0
 62
     3
  0
POLYLINE
  5
243
  8
0
 62
     3
 66
     1
 10
0.0
 20
0.0
 30
0.0
 40
1.0287
 41
1.0287
  0
VERTEX
  5
5C8
  8
0
 62
     3
 10
-55.81398
 20
-10.00471
 30
0.0
  0
VERTEX
  5
5C9
  8
0
 62
     3
 10
-55.28734
 20
-9.13707
 30
0.0
  0
VERTEX
  5
5CA
  8
0
 62
     3
 10
-54.6219
 20
-8.370530000000001
 30
0.0
  0
VERTEX
  5
5CB
  8
0
 62
     3
 10
-53.83682
 20
-7.72717
 30
0.0
  0
VERTEX
  5
5CC
  8
0
 62
     3
 10
-52.95445
 20
-7.22531
 30
0.0
  0
VERTEX
  5
5CD
  8
0
 62
     3
 10
-52.00003
 20
-6.87938
 30
0.0
  0
SEQEND
  5
765
  8
0
 62
     3
  0
POLYLINE
  5
24B
  8
0
 62
     3
 66
     1
 10
0.0
 20
0.0
 30
0.0
 40
1.0287
 41
1.0287
  0
VERTEX
  5
5CF
  8
0
 62
     3
 10
52.00613
 20
-6.87938
 30
0.0
  0
VERTEX
  5
5D0
  8
0
 62
     3
 10
52.97392
 20
-7.2315
 30
0.0
  0
VERTEX
  5
5D1
  8
0
 62
     3
 10
53.86718
 20
-7.74392
 30
0.0
  0
VERTEX
  5
5D2
  8
0
 62
     3
 10
54.65973
 20
-8.401590000000001
 30
0.0
  0
VERTEX
  5
5D3
  8
0
 62
     3
 10
55.32806
 20
-9.185029999999999
 30
0.0
  0
VERTEX
  5
5D4
  8
0
 62
     3
 10
55.85264
 20
-10.07133
 30
0.0
  0
SEQEND
  5
766
  8
0
 62
     3
  0
POLYLINE
  5
253
  8
0
 62
     3
 66
     1
 10
0.0
 20
0.0
 30
0.0
 40
1.0287
 41
1.0287
  0
VERTEX
  5
5D6
  8
0
 62
     3
 10
180.99006
 20
-49.28713
 30
0.0
  0
VERTEX
  5
5D7
  8
0
 62
     3
 10
188.79551
 20
-54.02664
 30
0.0
  0
VERTEX
  5
5D8
  8
0
 62
     3
 10
195.79074
 20
-59.89518
 30
0.0
  0
VERTEX
  5
5D9
  8
0
 62
     3
 10
201.81484
 20
-66.75776000000001
 30
0.0
  0
VERTEX
  5
5DA
  8
0
 62
     3
 10
206.72748
 20
-74.45439
 30
0.0
  0
VERTEX
  5
5DB
  8
0
 62
     3
 10
210.41564
 20
-82.80829
 30
0.0
  0
VERTEX
  5
5DC
  8
0
 62
     3
 10
212.79318
 20
-91.62423
 30
0.0
  0
VERTEX
  5
5DD
  8
0
 62
     3
 10
213.80549
 20
-100.69971
 30
0.0
  0
VERTEX
  5
5DE
  8
0
 62
     3
 10
213.80549
 20
-100.70004
 30
0.0
  0
SEQEND
  5
767
  8
0
 62
     3
  0
POLYLINE
  5
25E
  8
0
 62
     3
 66
     1
 10
0.0
 20
0.0
 30
0.0
 40
1.0287
 41
1.0287
  0
VERTEX
  5
5E0
  8
0
 62
     3
 10
-213.79939
 20
-100.70004
 30
0.0
  0
VERTEX
  5
5E1
  8
0
 62
     3
 10
-212.78742
 20
-91.62603
 30
0.0
  0
VERTEX
  5
5E2
  8
0
 62
     3
 10
-210.40985
 20
-82.80915
 30
0.0
  0
VERTEX
  5
5E3
  8
0
 62
     3
 10
-206.72224
 20
-74.45601000000001
 30
0.0
  0
VERTEX
  5
5E4
  8
0
 62
     3
 10
-201.80929
 20
-66.75849
 30
0.0
  0
VERTEX
  5
5E5
  8
0
 62
     3
 10
-195.7853
 20
-59.89582
 30
0.0
  0
VERTEX
  5
5E6
  8
0
 62
     3
 10
-188.79015
 20
-54.02717
 30
0.0
  0
VERTEX
  5
5E7
  8
0
 62
     3
 10
-180.98473
 20
-49.2875
 30
0.0
  0
VERTEX
  5
5E8
  8
0
 62
     3
 10
-180.98396
 20
-49.28713
 30
0.0
  0
SEQEND
  5
768
  8
0
 62
     3
  0
POLYLINE
  5
269
  8
0
 62
     3
 66
     1
 10
0.0
 20
0.0
 30
0.0
 40
0.5715
 41
0.5715
  0
VERTEX
  5
5EA
  8
0
 62
     3
 10
43.0235
 20
-31.21093
 30
0.0
  0
VERTEX
  5
5EB
  8
0
 62
     3
 10
88.5857
 20
-37.77338
 30
0.0
  0
VERTEX
  5
5EC
  8
0
 62
     3
 10
132.75071
 20
-50.76511
 30
0.0
  0
VERTEX
  5
5ED
  8
0
 62
     3
 10
174.60809
 20
-69.91809000000001
 30
0.0
  0
VERTEX
  5
5EE
  8
0
 62
     3
 10
213.31131
 20
-94.84509
 30
0.0
  0
VERTEX
  5
5EF
  8
0
 62
     3
 10
213.31024
 20
-94.84423
 30
0.0
  0
SEQEND
  5
769
  8
0
 62
     3
  0
POLYLINE
  5
271
  8
0
 62
     3
 66
     1
 10
0.0
 20
0.0
 30
0.0
 40
0.5715
 41
0.5715
  0
VERTEX
  5
5F1
  8
0
 62
     3
 10
-213.30414
 20
-94.84423
 30
0.0
  0
VERTEX
  5
5F2
  8
0
 62
     3
 10
-174.6063
 20
-69.92045
 30
0.0
  0
VERTEX
  5
5F3
  8
0
 62
     3
 10
-132.74921
 20
-50.76683
 30
0.0
  0
VERTEX
  5
5F4
  8
0
 62
     3
 10
-88.5844
 20
-37.77443
 30
0.0
  0
VERTEX
  5
5F5
  8
0
 62
     3
 10
-43.02363
 20
-31.21137
 30
0.0
  0
VERTEX
  5
5F6
  8
0
 62
     3
 10
-43.0174
 20
-31.21093
 30
0.0
  0
SEQEND
  5
76A
  8
0
 62
     3
  0
POLYLINE
  5
279
  8
0
 62
     3
 66
     1
 10
0.0
 20
0.0
 30
0.0
 40
0.5715
 41
0.5715
  0
VERTEX
  5
5F8
  8
0
 62
     3
 10
-42.25195
 20
-9.20909
 30
0.0
  0
VERTEX
  5
5F9
  8
0
 62
     3
 10
-42.08564
 20
-8.225849999999999
 30
0.0
  0
VERTEX
  5
5FA
  8
0
 62
     3
 10
-41.7699
 20
-7.2799
 30
0.0
  0
VERTEX
  5
5FB
  8
0
 62
     3
 10
-41.31223
 20
-6.39377
 30
0.0
  0
VERTEX
  5
5FC
  8
0
 62
     3
 10
-40.72362
 20
-5.58876
 30
0.0
  0
VERTEX
  5
5FD
  8
0
 62
     3
 10
-40.01811
 20
-4.88398
 30
0.0
  0
VERTEX
  5
5FE
  8
0
 62
     3
 10
-39.2124
 20
-4.29618
 30
0.0
  0
VERTEX
  5
5FF
  8
0
 62
     3
 10
-38.32586
 20
-3.83949
 30
0.0
  0
VERTEX
  5
600
  8
0
 62
     3
 10
-37.37942
 20
-3.52471
 30
0.0
  0
SEQEND
  5
76B
  8
0
 62
     3
  0
POLYLINE
  5
284
  8
0
 62
     3
 66
     1
 10
0.0
 20
0.0
 30
0.0
 40
0.5715
 41
0.5715
  0
VERTEX
  5
602
  8
0
 62
     3
 10
37.37674
 20
-3.55302
 30
0.0
  0
VERTEX
  5
603
  8
0
 62
     3
 10
38.3228
 20
-3.86845
 30
0.0
  0
VERTEX
  5
604
  8
0
 62
     3
 10
39.20908
 20
-4.32584
 30
0.0
  0
VERTEX
  5
605
  8
0
 62
     3
 10
40.01428
 20
-4.91418
 30
0.0
  0
VERTEX
  5
606
  8
0
 62
     3
 10
40.71928
 20
-5.61947
 30
0.0
  0
VERTEX
  5
607
  8
0
 62
     3
 10
41.30735
 20
-6.42499
 30
0.0
  0
VERTEX
  5
608
  8
0
 62
     3
 10
41.76432
 20
-7.31138
 30
0.0
  0
VERTEX
  5
609
  8
0
 62
     3
 10
42.07938
 20
-8.25766
 30
0.0
  0
VERTEX
  5
60A
  8
0
 62
     3
 10
42.24497
 20
-9.24108
 30
0.0
  0
SEQEND
  5
76C
  8
0
 62
     3
  0
POLYLINE
  5
28F
  8
0
 62
     3
 66
     1
 10
0.0
 20
0.0
 30
0.0
 40
1.0287
 41
1.0287
  0
VERTEX
  5
60C
  8
0
 62
     3
 10
-51.99979
 20
-6.87905
 30
0.0
  0
VERTEX
  5
60D
  8
0
 62
     3
 10
-26.22721
 20
-1.72754
 30
0.0
  0
VERTEX
  5
60E
  8
0
 62
     3
 10
0.00305
 20
0.0
 30
0.0
  0
SEQEND
  5
76D
  8
0
 62
     3
  0
POLYLINE
  5
294
  8
0
  6
MCDASH7
 66
     1
 10
0.0
 20
0.0
 30
0.0
 40
1.0287
 41
1.0287
  0
VERTEX
  5
610
  8
0
  6
MCDASH7
 10
-201.99695
 20
-81.0
 30
0.0
  0
VERTEX
  5
611
  8
0
  6
MCDASH7
 10
-185.99695
 20
-81.0
 30
0.0
  0
SEQEND
  5
76E
  8
0
  6
MCDASH7
  0
POLYLINE
  5
298
  8
0
  6
MCDASH7
 66
     1
 10
0.0
 20
0.0
 30
0.0
 40
0.5715
 41
0.5715
  0
VERTEX
  5
613
  8
0
  6
MCDASH7
 10
-201.99695
 20
-81.0
 30
0.0
  0
VERTEX
  5
614
  8
0
  6
MCDASH7
 10
-201.99695
 20
-135.0
 30
0.0
  0
SEQEND
  5
76F
  8
0
  6
MCDASH7
  0
POLYLINE
  5
29C
  8
0
  6
MCDASH7
 66
     1
 10
0.0
 20
0.0
 30
0.0
 40
0.5715
 41
0.5715
  0
VERTEX
  5
616
  8
0
  6
MCDASH7
 10
-185.99695
 20
-81.0
 30
0.0
  0
VERTEX
  5
617
  8
0
  6
MCDASH7
 10
-185.99695
 20
-135.0
 30
0.0
  0
SEQEND
  5
770
  8
0
  6
MCDASH7
  0
POLYLINE
  5
2A0
  8
0
  6
MCDASH7
 66
     1
 10
0.0
 20
0.0
 30
0.0
 40
1.0287
 41
1.0287
  0
VERTEX
  5
619
  8
0
  6
MCDASH7
 10
202.00305
 20
-81.0
 30
0.0
  0
VERTEX
  5
61A
  8
0
  6
MCDASH7
 10
186.00305
 20
-81.0
 30
0.0
  0
SEQEND
  5
771
  8
0
  6
MCDASH7
  0
POLYLINE
  5
2A4
  8
0
  6
MCDASH7
 66
     1
 10
0.0
 20
0.0
 30
0.0
 40
0.5715
 41
0.5715
  0
VERTEX
  5
61C
  8
0
  6
MCDASH7
 10
202.00305
 20
-81.0
 30
0.0
  0
VERTEX
  5
61D
  8
0
  6
MCDASH7
 10
202.00305
 20
-135.0
 30
0.0
  0
SEQEND
  5
772
  8
0
  6
MCDASH7
  0
POLYLINE
  5
2A8
  8
0
  6
MCDASH7
 66
     1
 10
0.0
 20
0.0
 30
0.0
 40
0.5715
 41
0.5715
  0
VERTEX
  5
61F
  8
0
  6
MCDASH7
 10
186.00305
 20
-81.0
 30
0.0
  0
VERTEX
  5
620
  8
0
  6
MCDASH7
 10
186.00305
 20
-135.0
 30
0.0
  0
SEQEND
  5
773
  8
0
  6
MCDASH7
  0
POLYLINE
  5
2AC
  8
0
  6
MCDASH7
 66
     1
 10
0.0
 20
0.0
 30
0.0
 40
0.5715
 41
0.5715
  0
VERTEX
  5
622
  8
0
  6
MCDASH7
 10
20.00305
 20
-85.0
 30
0.0
  0
VERTEX
  5
623
  8
0
  6
MCDASH7
 10
20.00305
 20
-2.2628
 30
0.0
  0
SEQEND
  5
774
  8
0
  6
MCDASH7
  0
POLYLINE
  5
2B0
  8
0
  6
MCDASH7
 66
     1
 10
0.0
 20
0.0
 30
0.0
 40
0.5715
 41
0.5715
  0
VERTEX
  5
625
  8
0
  6
MCDASH7
 10
-19.99695
 20
-85.0
 30
0.0
  0
VERTEX
  5
626
  8
0
  6
MCDASH7
 10
-19.99695
 20
-2.2628
 30
0.0
  0
SEQEND
  5
775
  8
0
  6
MCDASH7
  0
ENDBLK
  5
777
  8
0
  0
BLOCK
  8
0
  2
SIMBOLO_N__2
 70
     0
 10
0.0
 20
0.0
 30
0.0
  3
SIMBOLO_N__2
  1

  0
POLYLINE
  5
2B7
  8
0
 62
     3
 66
     1
 10
0.0
 20
0.0
 30
0.0
 40
0.5715
 41
0.5715
  0
VERTEX
  5
628
  8
0
 62
     3
 10
221.0
 20
0.7345
 30
0.0
  0
VERTEX
  5
629
  8
0
 62
     3
 10
-224.424
 20
0.7345
 30
0.0
  0
SEQEND
  5
778
  8
0
 62
     3
  0
POLYLINE
  5
2BB
  8
0
 62
     3
 66
     1
 10
0.0
 20
0.0
 30
0.0
 40
1.0287
 41
1.0287
  0
VERTEX
  5
62B
  8
0
 62
     3
 10
-195.099
 20
-20.2365
 30
0.0
  0
VERTEX
  5
62C
  8
0
 62
     3
 10
-43.90167
 20
-28.16067
 30
0.0
  0
SEQEND
  5
779
  8
0
 62
     3
  0
POLYLINE
  5
2BF
  8
0
 62
     3
 66
     1
 10
0.0
 20
0.0
 30
0.0
 40
1.0287
 41
1.0287
  0
VERTEX
  5
62E
  8
0
 62
     3
 10
0.0
 20
51.7695
 30
0.0
  0
VERTEX
  5
62F
  8
0
 62
     3
 10
0.0
 20
-51.7695
 30
0.0
  0
SEQEND
  5
77A
  8
0
 62
     3
  0
POLYLINE
  5
2C3
  8
0
 62
     3
 66
     1
 10
0.0
 20
0.0
 30
0.0
 40
0.5715
 41
0.5715
  0
VERTEX
  5
631
  8
0
 62
     3
 10
-194.0
 20
28.3525
 30
0.0
  0
VERTEX
  5
632
  8
0
 62
     3
 10
-194.0
 20
-27.1815
 30
0.0
  0
SEQEND
  5
77B
  8
0
 62
     3
  0
POLYLINE
  5
2C7
  8
0
 62
     3
 66
     1
 10
0.0
 20
0.0
 30
0.0
 40
1.0287
 41
1.0287
  0
VERTEX
  5
634
  8
0
 62
     3
 10
-47.554
 20
20.0045
 30
0.0
  0
VERTEX
  5
635
  8
0
 62
     3
 10
-49.49663
 20
21.94655
 30
0.0
  0
SEQEND
  5
77C
  8
0
 62
     3
  0
POLYLINE
  5
2CB
  8
0
 62
     3
 66
     1
 10
0.0
 20
0.0
 30
0.0
 40
1.0287
 41
1.0287
  0
VERTEX
  5
637
  8
0
 62
     3
 10
43.84041
 20
-43.10591
 30
0.0
  0
VERTEX
  5
638
  8
0
 62
     3
 10
38.18458
 20
-48.76268
 30
0.0
  0
SEQEND
  5
77D
  8
0
 62
     3
  0
POLYLINE
  5
2CF
  8
0
 62
     3
 66
     1
 10
0.0
 20
0.0
 30
0.0
 40
1.0287
 41
1.0287
  0
VERTEX
  5
63A
  8
0
 62
     3
 10
21.21205
 20
-48.76213
 30
0.0
  0
VERTEX
  5
63B
  8
0
 62
     3
 10
19.27
 20
-46.8195
 30
0.0
  0
SEQEND
  5
77E
  8
0
 62
     3
  0
POLYLINE
  5
2D3
  8
0
 62
     3
 66
     1
 10
0.0
 20
0.0
 30
0.0
 40
1.0287
 41
1.0287
  0
VERTEX
  5
63D
  8
0
 62
     3
 10
-49.49718
 20
38.91908
 30
0.0
  0
VERTEX
  5
63E
  8
0
 62
     3
 10
-43.84041
 20
44.57491
 30
0.0
  0
SEQEND
  5
77F
  8
0
 62
     3
  0
POLYLINE
  5
2D7
  8
0
 62
     3
 66
     1
 10
0.0
 20
0.0
 30
0.0
 40
1.0287
 41
1.0287
  0
VERTEX
  5
640
  8
0
 62
     3
 10
-20.0
 20
-19.2655
 30
0.0
  0
VERTEX
  5
641
  8
0
 62
     3
 10
20.0
 20
-19.2655
 30
0.0
  0
SEQEND
  5
780
  8
0
 62
     3
  0
POLYLINE
  5
2DB
  8
0
 62
     3
 66
     1
 10
0.0
 20
0.0
 30
0.0
 40
1.0287
 41
1.0287
  0
VERTEX
  5
643
  8
0
 62
     3
 10
-20.0
 20
-19.2655
 30
0.0
  0
VERTEX
  5
644
  8
0
 62
     3
 10
-20.0
 20
20.7345
 30
0.0
  0
SEQEND
  5
781
  8
0
 62
     3
  0
POLYLINE
  5
2DF
  8
0
 62
     3
 66
     1
 10
0.0
 20
0.0
 30
0.0
 40
1.0287
 41
1.0287
  0
VERTEX
  5
646
  8
0
 62
     3
 10
195.099
 20
21.7055
 30
0.0
  0
VERTEX
  5
647
  8
0
 62
     3
 10
43.90167
 20
29.62967
 30
0.0
  0
SEQEND
  5
782
  8
0
 62
     3
  0
POLYLINE
  5
2E3
  8
0
 62
     3
 66
     1
 10
0.0
 20
0.0
 30
0.0
 40
0.5715
 41
0.5715
  0
VERTEX
  5
649
  8
0
 62
     3
 10
194.0
 20
-26.8835
 30
0.0
  0
VERTEX
  5
64A
  8
0
 62
     3
 10
194.0
 20
28.6505
 30
0.0
  0
SEQEND
  5
783
  8
0
 62
     3
  0
POLYLINE
  5
2E7
  8
0
 62
     3
 66
     1
 10
0.0
 20
0.0
 30
0.0
 40
1.0287
 41
1.0287
  0
VERTEX
  5
64C
  8
0
 62
     3
 10
47.554
 20
-18.5355
 30
0.0
  0
VERTEX
  5
64D
  8
0
 62
     3
 10
49.49663
 20
-20.47755
 30
0.0
  0
SEQEND
  5
784
  8
0
 62
     3
  0
POLYLINE
  5
2EB
  8
0
 62
     3
 66
     1
 10
0.0
 20
0.0
 30
0.0
 40
1.0287
 41
1.0287
  0
VERTEX
  5
64F
  8
0
 62
     3
 10
-43.84041
 20
44.57491
 30
0.0
  0
VERTEX
  5
650
  8
0
 62
     3
 10
-38.18447
 20
50.23179
 30
0.0
  0
SEQEND
  5
785
  8
0
 62
     3
  0
POLYLINE
  5
2EF
  8
0
 62
     3
 66
     1
 10
0.0
 20
0.0
 30
0.0
 40
1.0287
 41
1.0287
  0
VERTEX
  5
652
  8
0
 62
     3
 10
49.49718
 20
-37.45008
 30
0.0
  0
VERTEX
  5
653
  8
0
 62
     3
 10
43.84041
 20
-43.10591
 30
0.0
  0
SEQEND
  5
786
  8
0
 62
     3
  0
POLYLINE
  5
2F3
  8
0
 62
     3
 66
     1
 10
0.0
 20
0.0
 30
0.0
 40
1.0287
 41
1.0287
  0
VERTEX
  5
655
  8
0
 62
     3
 10
-20.0
 20
20.7345
 30
0.0
  0
VERTEX
  5
656
  8
0
 62
     3
 10
-43.84041
 20
44.57491
 30
0.0
  0
SEQEND
  5
787
  8
0
 62
     3
  0
POLYLINE
  5
2F7
  8
0
 62
     3
 66
     1
 10
0.0
 20
0.0
 30
0.0
 40
1.0287
 41
1.0287
  0
VERTEX
  5
658
  8
0
 62
     3
 10
43.84041
 20
-43.10591
 30
0.0
  0
VERTEX
  5
659
  8
0
 62
     3
 10
20.0
 20
-19.2655
 30
0.0
  0
SEQEND
  5
788
  8
0
 62
     3
  0
POLYLINE
  5
2FB
  8
0
 62
     3
 66
     1
 10
0.0
 20
0.0
 30
0.0
 40
1.0287
 41
1.0287
  0
VERTEX
  5
65B
  8
0
 62
     3
 10
20.0
 20
20.7345
 30
0.0
  0
VERTEX
  5
65C
  8
0
 62
     3
 10
-20.0
 20
20.7345
 30
0.0
  0
SEQEND
  5
789
  8
0
 62
     3
  0
POLYLINE
  5
2FF
  8
0
 62
     3
 66
     1
 10
0.0
 20
0.0
 30
0.0
 40
1.0287
 41
1.0287
  0
VERTEX
  5
65E
  8
0
 62
     3
 10
20.0
 20
20.7345
 30
0.0
  0
VERTEX
  5
65F
  8
0
 62
     3
 10
20.0
 20
-19.2655
 30
0.0
  0
SEQEND
  5
78A
  8
0
 62
     3
  0
POLYLINE
  5
303
  8
0
 62
     3
 66
     1
 10
0.0
 20
0.0
 30
0.0
 40
1.0287
 41
1.0287
  0
VERTEX
  5
661
  8
0
 62
     3
 10
-215.0
 20
0.7345
 30
0.0
  0
VERTEX
  5
662
  8
0
 62
     3
 10
-214.70188
 20
4.26043
 30
0.0
  0
VERTEX
  5
663
  8
0
 62
     3
 10
-213.81587
 20
7.68658
 30
0.0
  0
VERTEX
  5
664
  8
0
 62
     3
 10
-212.36713
 20
10.9153
 30
0.0
  0
VERTEX
  5
665
  8
0
 62
     3
 10
-210.39681
 20
13.85488
 30
0.0
  0
VERTEX
  5
666
  8
0
 62
     3
 10
-207.96091
 20
16.42184
 30
0.0
  0
VERTEX
  5
667
  8
0
 62
     3
 10
-205.12853
 20
18.54337
 30
0.0
  0
VERTEX
  5
668
  8
0
 62
     3
 10
-201.9801
 20
20.15918
 30
0.0
  0
VERTEX
  5
669
  8
0
 62
     3
 10
-198.60504
 20
21.22336
 30
0.0
  0
VERTEX
  5
66A
  8
0
 62
     3
 10
-195.09905
 20
21.70572
 30
0.0
  0
SEQEND
  5
78B
  8
0
 62
     3
  0
POLYLINE
  5
30F
  8
0
 62
     3
 66
     1
 10
0.0
 20
0.0
 30
0.0
 40
1.0287
 41
1.0287
  0
VERTEX
  5
66C
  8
0
 62
     3
 10
-195.09905
 20
-20.23672
 30
0.0
  0
VERTEX
  5
66D
  8
0
 62
     3
 10
-198.60472
 20
-19.75443
 30
0.0
  0
VERTEX
  5
66E
  8
0
 62
     3
 10
-201.9798
 20
-18.6903
 30
0.0
  0
VERTEX
  5
66F
  8
0
 62
     3
 10
-205.12826
 20
-17.07454
 30
0.0
  0
VERTEX
  5
670
  8
0
 62
     3
 10
-207.96067
 20
-14.95305
 30
0.0
  0
VERTEX
  5
671
  8
0
 62
     3
 10
-210.39641
 20
-12.38638
 30
0.0
  0
VERTEX
  5
672
  8
0
 62
     3
 10
-212.36682
 20
-9.446859999999999
 30
0.0
  0
VERTEX
  5
673
  8
0
 62
     3
 10
-213.81566
 20
-6.21818
 30
0.0
  0
VERTEX
  5
674
  8
0
 62
     3
 10
-214.70177
 20
-2.79206
 30
0.0
  0
VERTEX
  5
675
  8
0
 62
     3
 10
-215.0
 20
0.7345
 30
0.0
  0
SEQEND
  5
78C
  8
0
 62
     3
  0
POLYLINE
  5
31B
  8
0
 62
     3
 66
     1
 10
0.0
 20
0.0
 30
0.0
 40
1.0287
 41
1.0287
  0
VERTEX
  5
677
  8
0
 62
     3
 10
13.83604
 20
-44.78633
 30
0.0
  0
VERTEX
  5
678
  8
0
 62
     3
 10
0.0
 20
-45.2655
 30
0.0
  0
SEQEND
  5
78D
  8
0
 62
     3
  0
POLYLINE
  5
31F
  8
0
 62
     3
 66
     1
 10
0.0
 20
0.0
 30
0.0
 40
1.0287
 41
1.0287
  0
VERTEX
  5
67A
  8
0
 62
     3
 10
0.0
 20
-45.2655
 30
0.0
  0
VERTEX
  5
67B
  8
0
 62
     3
 10
-33.36716
 20
-42.46243
 30
0.0
  0
SEQEND
  5
78E
  8
0
 62
     3
  0
POLYLINE
  5
323
  8
0
 62
     3
 66
     1
 10
0.0
 20
0.0
 30
0.0
 40
1.0287
 41
1.0287
  0
VERTEX
  5
67D
  8
0
 62
     3
 10
-46.0
 20
0.7345
 30
0.0
  0
VERTEX
  5
67E
  8
0
 62
     3
 10
-45.52083
 20
14.57054
 30
0.0
  0
SEQEND
  5
78F
  8
0
 62
     3
  0
POLYLINE
  5
327
  8
0
 62
     3
 66
     1
 10
0.0
 20
0.0
 30
0.0
 40
1.0287
 41
1.0287
  0
VERTEX
  5
680
  8
0
 62
     3
 10
-43.19684
 20
-32.63318
 30
0.0
  0
VERTEX
  5
681
  8
0
 62
     3
 10
-46.0
 20
0.7345
 30
0.0
  0
SEQEND
  5
790
  8
0
 62
     3
  0
POLYLINE
  5
32B
  8
0
 62
     3
 66
     1
 10
0.0
 20
0.0
 30
0.0
 40
1.0287
 41
1.0287
  0
VERTEX
  5
683
  8
0
 62
     3
 10
215.0
 20
0.7345
 30
0.0
  0
VERTEX
  5
684
  8
0
 62
     3
 10
214.70182
 20
-2.79175
 30
0.0
  0
VERTEX
  5
685
  8
0
 62
     3
 10
213.81576
 20
-6.21788
 30
0.0
  0
VERTEX
  5
686
  8
0
 62
     3
 10
212.36713
 20
-9.446300000000001
 30
0.0
  0
VERTEX
  5
687
  8
0
 62
     3
 10
210.39681
 20
-12.38588
 30
0.0
  0
VERTEX
  5
688
  8
0
 62
     3
 10
207.96091
 20
-14.95284
 30
0.0
  0
VERTEX
  5
689
  8
0
 62
     3
 10
205.12853
 20
-17.07437
 30
0.0
  0
VERTEX
  5
68A
  8
0
 62
     3
 10
201.9801
 20
-18.69018
 30
0.0
  0
VERTEX
  5
68B
  8
0
 62
     3
 10
198.60504
 20
-19.75436
 30
0.0
  0
VERTEX
  5
68C
  8
0
 62
     3
 10
195.09905
 20
-20.23672
 30
0.0
  0
SEQEND
  5
791
  8
0
 62
     3
  0
POLYLINE
  5
337
  8
0
 62
     3
 66
     1
 10
0.0
 20
0.0
 30
0.0
 40
1.0287
 41
1.0287
  0
VERTEX
  5
68E
  8
0
 62
     3
 10
195.09905
 20
21.70572
 30
0.0
  0
VERTEX
  5
68F
  8
0
 62
     3
 10
198.60472
 20
21.22343
 30
0.0
  0
VERTEX
  5
690
  8
0
 62
     3
 10
201.9798
 20
20.1593
 30
0.0
  0
VERTEX
  5
691
  8
0
 62
     3
 10
205.12826
 20
18.54354
 30
0.0
  0
VERTEX
  5
692
  8
0
 62
     3
 10
207.96067
 20
16.42205
 30
0.0
  0
VERTEX
  5
693
  8
0
 62
     3
 10
210.39661
 20
13.85513
 30
0.0
  0
VERTEX
  5
694
  8
0
 62
     3
 10
212.36697
 20
10.91558
 30
0.0
  0
VERTEX
  5
695
  8
0
 62
     3
 10
213.81576
 20
7.68688
 30
0.0
  0
VERTEX
  5
696
  8
0
 62
     3
 10
214.70182
 20
4.26075
 30
0.0
  0
VERTEX
  5
697
  8
0
 62
     3
 10
215.0
 20
0.7345
 30
0.0
  0
SEQEND
  5
792
  8
0
 62
     3
  0
POLYLINE
  5
343
  8
0
 62
     3
 66
     1
 10
0.0
 20
0.0
 30
0.0
 40
1.0287
 41
1.0287
  0
VERTEX
  5
699
  8
0
 62
     3
 10
-13.83604
 20
46.25533
 30
0.0
  0
VERTEX
  5
69A
  8
0
 62
     3
 10
0.0
 20
46.7345
 30
0.0
  0
SEQEND
  5
793
  8
0
 62
     3
  0
POLYLINE
  5
347
  8
0
 62
     3
 66
     1
 10
0.0
 20
0.0
 30
0.0
 40
1.0287
 41
1.0287
  0
VERTEX
  5
69C
  8
0
 62
     3
 10
0.0
 20
46.7345
 30
0.0
  0
VERTEX
  5
69D
  8
0
 62
     3
 10
33.36716
 20
43.93143
 30
0.0
  0
SEQEND
  5
794
  8
0
 62
     3
  0
POLYLINE
  5
34B
  8
0
 62
     3
 66
     1
 10
0.0
 20
0.0
 30
0.0
 40
1.0287
 41
1.0287
  0
VERTEX
  5
69F
  8
0
 62
     3
 10
46.0
 20
0.7345
 30
0.0
  0
VERTEX
  5
6A0
  8
0
 62
     3
 10
45.52083
 20
-13.10154
 30
0.0
  0
SEQEND
  5
795
  8
0
 62
     3
  0
POLYLINE
  5
34F
  8
0
 62
     3
 66
     1
 10
0.0
 20
0.0
 30
0.0
 40
1.0287
 41
1.0287
  0
VERTEX
  5
6A2
  8
0
 62
     3
 10
43.19693
 20
34.10166
 30
0.0
  0
VERTEX
  5
6A3
  8
0
 62
     3
 10
46.0
 20
0.7345
 30
0.0
  0
SEQEND
  5
796
  8
0
 62
     3
  0
POLYLINE
  5
353
  8
0
 62
     3
 66
     1
 10
0.0
 20
0.0
 30
0.0
 40
1.0287
 41
1.0287
  0
VERTEX
  5
6A5
  8
0
 62
     3
 10
13.83574
 20
-44.78628
 30
0.0
  0
VERTEX
  5
6A6
  8
0
 62
     3
 10
15.03046
 20
-44.80565
 30
0.0
  0
VERTEX
  5
6A7
  8
0
 62
     3
 10
16.20464
 20
-45.02798
 30
0.0
  0
VERTEX
  5
6A8
  8
0
 62
     3
 10
17.3239
 20
-45.44679
 30
0.0
  0
VERTEX
  5
6A9
  8
0
 62
     3
 10
18.3556
 20
-46.04989
 30
0.0
  0
VERTEX
  5
6AA
  8
0
 62
     3
 10
19.26974
 20
-46.81976
 30
0.0
  0
SEQEND
  5
797
  8
0
 62
     3
  0
POLYLINE
  5
35B
  8
0
 62
     3
 66
     1
 10
0.0
 20
0.0
 30
0.0
 40
1.0287
 41
1.0287
  0
VERTEX
  5
6AC
  8
0
 62
     3
 10
-47.55426
 20
20.00424
 30
0.0
  0
VERTEX
  5
6AD
  8
0
 62
     3
 10
-46.78445
 20
19.09019
 30
0.0
  0
VERTEX
  5
6AE
  8
0
 62
     3
 10
-46.18134
 20
18.0585
 30
0.0
  0
VERTEX
  5
6AF
  8
0
 62
     3
 10
-45.76254
 20
16.93935
 30
0.0
  0
VERTEX
  5
6B0
  8
0
 62
     3
 10
-45.54017
 20
15.76517
 30
0.0
  0
VERTEX
  5
6B1
  8
0
 62
     3
 10
-45.52078
 20
14.57024
 30
0.0
  0
SEQEND
  5
798
  8
0
 62
     3
  0
POLYLINE
  5
363
  8
0
 62
     3
 66
     1
 10
0.0
 20
0.0
 30
0.0
 40
1.0287
 41
1.0287
  0
VERTEX
  5
6B3
  8
0
 62
     3
 10
-13.83574
 20
46.25528
 30
0.0
  0
VERTEX
  5
6B4
  8
0
 62
     3
 10
-15.03056
 20
46.27466
 30
0.0
  0
VERTEX
  5
6B5
  8
0
 62
     3
 10
-16.20474
 20
46.49701
 30
0.0
  0
VERTEX
  5
6B6
  8
0
 62
     3
 10
-17.324
 20
46.91584
 30
0.0
  0
VERTEX
  5
6B7
  8
0
 62
     3
 10
-18.3556
 20
47.51889
 30
0.0
  0
VERTEX
  5
6B8
  8
0
 62
     3
 10
-19.26974
 20
48.28876
 30
0.0
  0
SEQEND
  5
799
  8
0
 62
     3
  0
POLYLINE
  5
36B
  8
0
 62
     3
 66
     1
 10
0.0
 20
0.0
 30
0.0
 40
1.0287
 41
1.0287
  0
VERTEX
  5
6BA
  8
0
 62
     3
 10
47.55426
 20
-18.53524
 30
0.0
  0
VERTEX
  5
6BB
  8
0
 62
     3
 10
46.78451
 20
-17.62127
 30
0.0
  0
VERTEX
  5
6BC
  8
0
 62
     3
 10
46.18139
 20
-16.58959
 30
0.0
  0
VERTEX
  5
6BD
  8
0
 62
     3
 10
45.76254
 20
-15.47035
 30
0.0
  0
VERTEX
  5
6BE
  8
0
 62
     3
 10
45.54017
 20
-14.29617
 30
0.0
  0
VERTEX
  5
6BF
  8
0
 62
     3
 10
45.52078
 20
-13.10124
 30
0.0
  0
SEQEND
  5
79A
  8
0
 62
     3
  0
POLYLINE
  5
373
  8
0
 62
     3
 66
     1
 10
0.0
 20
0.0
 30
0.0
 40
1.0287
 41
1.0287
  0
VERTEX
  5
6C1
  8
0
 62
     3
 10
-21.21258
 20
50.23187
 30
0.0
  0
VERTEX
  5
6C2
  8
0
 62
     3
 10
-19.26969
 20
48.28869
 30
0.0
  0
SEQEND
  5
79B
  8
0
 62
     3
  0
POLYLINE
  5
377
  8
0
 62
     3
 66
     1
 10
0.0
 20
0.0
 30
0.0
 40
0.5715
 41
0.5715
  0
VERTEX
  5
6C4
  8
0
 62
     3
 10
-38.18447
 20
50.23178
 30
0.0
  0
VERTEX
  5
6C5
  8
0
 62
     3
 10
-36.75273
 20
51.45482
 30
0.0
  0
VERTEX
  5
6C6
  8
0
 62
     3
 10
-35.14718
 20
52.43888
 30
0.0
  0
VERTEX
  5
6C7
  8
0
 62
     3
 10
-33.40726
 20
53.1597
 30
0.0
  0
VERTEX
  5
6C8
  8
0
 62
     3
 10
-31.57617
 20
53.5994
 30
0.0
  0
VERTEX
  5
6C9
  8
0
 62
     3
 10
-29.69867
 20
53.74721
 30
0.0
  0
VERTEX
  5
6CA
  8
0
 62
     3
 10
-27.82135
 20
53.59948
 30
0.0
  0
VERTEX
  5
6CB
  8
0
 62
     3
 10
-25.99024
 20
53.15987
 30
0.0
  0
VERTEX
  5
6CC
  8
0
 62
     3
 10
-24.25029
 20
52.43913
 30
0.0
  0
VERTEX
  5
6CD
  8
0
 62
     3
 10
-22.6447
 20
51.45514
 30
0.0
  0
VERTEX
  5
6CE
  8
0
 62
     3
 10
-21.21258
 20
50.23186
 30
0.0
  0
SEQEND
  5
79C
  8
0
 62
     3
  0
POLYLINE
  5
384
  8
0
 62
     3
 66
     1
 10
0.0
 20
0.0
 30
0.0
 40
0.5715
 41
0.5715
  0
VERTEX
  5
6D0
  8
0
 62
     3
 10
-49.49663
 20
21.94655
 30
0.0
  0
VERTEX
  5
6D1
  8
0
 62
     3
 10
-50.71979
 20
23.37826
 30
0.0
  0
VERTEX
  5
6D2
  8
0
 62
     3
 10
-51.70403
 20
24.98391
 30
0.0
  0
VERTEX
  5
6D3
  8
0
 62
     3
 10
-52.42493
 20
26.7238
 30
0.0
  0
VERTEX
  5
6D4
  8
0
 62
     3
 10
-52.86474
 20
28.55505
 30
0.0
  0
VERTEX
  5
6D5
  8
0
 62
     3
 10
-53.01261
 20
30.43254
 30
0.0
  0
VERTEX
  5
6D6
  8
0
 62
     3
 10
-52.86491
 20
32.31005
 30
0.0
  0
VERTEX
  5
6D7
  8
0
 62
     3
 10
-52.42527
 20
34.14134
 30
0.0
  0
VERTEX
  5
6D8
  8
0
 62
     3
 10
-51.70453
 20
35.88129
 30
0.0
  0
VERTEX
  5
6D9
  8
0
 62
     3
 10
-50.72044
 20
37.48703
 30
0.0
  0
VERTEX
  5
6DA
  8
0
 62
     3
 10
-49.4974
 20
38.91887
 30
0.0
  0
VERTEX
  5
6DB
  8
0
 62
     3
 10
-49.49718
 20
38.91907
 30
0.0
  0
SEQEND
  5
79D
  8
0
 62
     3
  0
POLYLINE
  5
392
  8
0
 62
     3
 66
     1
 10
0.0
 20
0.0
 30
0.0
 40
0.5715
 41
0.5715
  0
VERTEX
  5
6DD
  8
0
 62
     3
 10
38.18457
 20
-48.76268
 30
0.0
  0
VERTEX
  5
6DE
  8
0
 62
     3
 10
36.75268
 20
-49.98583
 30
0.0
  0
VERTEX
  5
6DF
  8
0
 62
     3
 10
35.14695
 20
-50.96995
 30
0.0
  0
VERTEX
  5
6E0
  8
0
 62
     3
 10
33.40701
 20
-51.69072
 30
0.0
  0
VERTEX
  5
6E1
  8
0
 62
     3
 10
31.57573
 20
-52.13038
 30
0.0
  0
VERTEX
  5
6E2
  8
0
 62
     3
 10
29.69822
 20
-52.27811
 30
0.0
  0
VERTEX
  5
6E3
  8
0
 62
     3
 10
27.82091
 20
-52.1303
 30
0.0
  0
VERTEX
  5
6E4
  8
0
 62
     3
 10
25.98965
 20
-51.69055
 30
0.0
  0
VERTEX
  5
6E5
  8
0
 62
     3
 10
24.24974
 20
-50.9697
 30
0.0
  0
VERTEX
  5
6E6
  8
0
 62
     3
 10
22.64405
 20
-49.9855
 30
0.0
  0
VERTEX
  5
6E7
  8
0
 62
     3
 10
21.21216
 20
-48.76225
 30
0.0
  0
VERTEX
  5
6E8
  8
0
 62
     3
 10
21.21205
 20
-48.76213
 30
0.0
  0
SEQEND
  5
79E
  8
0
 62
     3
  0
POLYLINE
  5
3A0
  8
0
 62
     3
 66
     1
 10
0.0
 20
0.0
 30
0.0
 40
0.5715
 41
0.5715
  0
VERTEX
  5
6EA
  8
0
 62
     3
 10
49.49663
 20
-20.47755
 30
0.0
  0
VERTEX
  5
6EB
  8
0
 62
     3
 10
50.7199
 20
-21.90941
 30
0.0
  0
VERTEX
  5
6EC
  8
0
 62
     3
 10
51.70412
 20
-23.51507
 30
0.0
  0
VERTEX
  5
6ED
  8
0
 62
     3
 10
52.42499
 20
-25.25497
 30
0.0
  0
VERTEX
  5
6EE
  8
0
 62
     3
 10
52.86477
 20
-27.08623
 30
0.0
  0
VERTEX
  5
6EF
  8
0
 62
     3
 10
53.01261
 20
-28.96372
 30
0.0
  0
VERTEX
  5
6F0
  8
0
 62
     3
 10
52.86491
 20
-30.84105
 30
0.0
  0
VERTEX
  5
6F1
  8
0
 62
     3
 10
52.42527
 20
-32.67234
 30
0.0
  0
VERTEX
  5
6F2
  8
0
 62
     3
 10
51.70453
 20
-34.41229
 30
0.0
  0
VERTEX
  5
6F3
  8
0
 62
     3
 10
50.72044
 20
-36.01803
 30
0.0
  0
VERTEX
  5
6F4
  8
0
 62
     3
 10
49.49727
 20
-37.45
 30
0.0
  0
VERTEX
  5
6F5
  8
0
 62
     3
 10
49.49718
 20
-37.45007
 30
0.0
  0
SEQEND
  5
79F
  8
0
 62
     3
  0
POLYLINE
  5
3AE
  8
0
 62
     3
 66
     1
 10
0.0
 20
0.0
 30
0.0
 40
1.0287
 41
1.0287
  0
VERTEX
  5
6F7
  8
0
 62
     3
 10
-52.94443
 20
29.15574
 30
0.0
  0
VERTEX
  5
6F8
  8
0
 62
     3
 10
-195.099
 20
21.7055
 30
0.0
  0
SEQEND
  5
7A0
  8
0
 62
     3
  0
POLYLINE
  5
3B2
  8
0
 62
     3
 66
     1
 10
0.0
 20
0.0
 30
0.0
 40
1.0287
 41
1.0287
  0
VERTEX
  5
6FA
  8
0
 62
     3
 10
52.94443
 20
-27.68674
 30
0.0
  0
VERTEX
  5
6FB
  8
0
 62
     3
 10
195.099
 20
-20.2365
 30
0.0
  0
SEQEND
  5
7A1
  8
0
 62
     3
  0
POLYLINE
  5
3B6
  8
0
 62
     3
 66
     1
 10
0.0
 20
0.0
 30
0.0
 40
0.5715
 41
0.5715
  0
VERTEX
  5
6FD
  8
0
 62
     3
 10
33.36714
 20
43.93143
 30
0.0
  0
VERTEX
  5
6FE
  8
0
 62
     3
 10
35.16346
 20
43.48262
 30
0.0
  0
VERTEX
  5
6FF
  8
0
 62
     3
 10
36.8692
 20
42.76288
 30
0.0
  0
VERTEX
  5
700
  8
0
 62
     3
 10
38.44407
 20
41.78922
 30
0.0
  0
VERTEX
  5
701
  8
0
 62
     3
 10
39.85038
 20
40.58493
 30
0.0
  0
VERTEX
  5
702
  8
0
 62
     3
 10
41.05472
 20
39.17857
 30
0.0
  0
VERTEX
  5
703
  8
0
 62
     3
 10
42.0283
 20
37.60387
 30
0.0
  0
VERTEX
  5
704
  8
0
 62
     3
 10
42.74812
 20
35.89796
 30
0.0
  0
VERTEX
  5
705
  8
0
 62
     3
 10
43.19693
 20
34.10164
 30
0.0
  0
SEQEND
  5
7A2
  8
0
 62
     3
  0
POLYLINE
  5
3C1
  8
0
 62
     3
 66
     1
 10
0.0
 20
0.0
 30
0.0
 40
0.5715
 41
0.5715
  0
VERTEX
  5
707
  8
0
 62
     3
 10
-33.36714
 20
-42.46243
 30
0.0
  0
VERTEX
  5
708
  8
0
 62
     3
 10
-35.16328
 20
-42.01368
 30
0.0
  0
VERTEX
  5
709
  8
0
 62
     3
 10
-36.8692
 20
-41.29388
 30
0.0
  0
VERTEX
  5
70A
  8
0
 62
     3
 10
-38.44407
 20
-40.32022
 30
0.0
  0
VERTEX
  5
70B
  8
0
 62
     3
 10
-39.8503
 20
-39.11601
 30
0.0
  0
VERTEX
  5
70C
  8
0
 62
     3
 10
-41.05461
 20
-37.70972
 30
0.0
  0
VERTEX
  5
70D
  8
0
 62
     3
 10
-42.0283
 20
-36.13487
 30
0.0
  0
VERTEX
  5
70E
  8
0
 62
     3
 10
-42.74806
 20
-34.42913
 30
0.0
  0
VERTEX
  5
70F
  8
0
 62
     3
 10
-43.19693
 20
-32.63264
 30
0.0
  0
SEQEND
  5
7A3
  8
0
 62
     3
  0
ENDBLK
  5
7A5
  8
0
  0
ENDSEC
  0
SECTION
  2
ENTITIES
  0
INSERT
  5
3CD
  8
1
  2
SIMBOLO_N__1
 10
21.0
 20
205.0
 30
0.0
  0
INSERT
  5
3CE
  8
1
  2
SIMBOLO_N__2
 10
21.00305
 20
-53.2655
 30
0.0
 50
180.0
  0
ENDSEC
  0
EOF
