  0
SECTION
  2
HEADER
  9
$ACADVER
  1
AC1009
  9
$DWGCODEPAGE
  3
ansi_1252
  9
$INSBASE
 10
0.0
 20
0.0
 30
0.0
  9
$EXTMIN
 10
-80.24572000000001
 20
-116.490534
 30
0.0
  9
$EXTMAX
 10
80.24572000000001
 20
116.490534
 30
0.0
  9
$LIMMIN
 10
0.0
 20
0.0
  9
$LIMMAX
 10
12.0
 20
9.0
  9
$ORTHOMODE
 70
     0
  9
$REGENMODE
 70
     1
  9
$FILLMODE
 70
     1
  9
$QTEXTMODE
 70
     0
  9
$MIRRTEXT
 70
     1
  9
$DRAGMODE
 70
     2
  9
$LTSCALE
 40
0.845607
  9
$OSMODE
 70
    37
  9
$ATTMODE
 70
     1
  9
$TEXTSIZE
 40
0.2
  9
$TRACEWID
 40
0.05
  9
$TEXTSTYLE
  7
STANDARD
  9
$CLAYER
  8
0
  9
$CELTYPE
  6
BYBLOCK
  9
$CECOLOR
 62
   256
  9
$DIMSCALE
 40
1.0
  9
$DIMASZ
 40
0.18
  9
$DIMEXO
 40
0.0625
  9
$DIMDLI
 40
0.38
  9
$DIMRND
 40
0.0
  9
$DIMDLE
 40
0.0
  9
$DIMEXE
 40
0.18
  9
$DIMTP
 40
0.0
  9
$DIMTM
 40
0.0
  9
$DIMTXT
 40
0.18
  9
$DIMCEN
 40
0.09
  9
$DIMTSZ
 40
0.0
  9
$DIMTOL
 70
     0
  9
$DIMLIM
 70
     0
  9
$DIMTIH
 70
     1
  9
$DIMTOH
 70
     1
  9
$DIMSE1
 70
     0
  9
$DIMSE2
 70
     0
  9
$DIMTAD
 70
     0
  9
$DIMZIN
 70
     0
  9
$DIMBLK
  1

  9
$DIMASO
 70
     1
  9
$DIMSHO
 70
     1
  9
$DIMPOST
  1

  9
$DIMAPOST
  1

  9
$DIMALT
 70
     0
  9
$DIMALTD
 70
     2
  9
$DIMALTF
 40
25.4
  9
$DIMLFAC
 40
1.0
  9
$DIMTOFL
 70
     0
  9
$DIMTVP
 40
0.0
  9
$DIMTIX
 70
     0
  9
$DIMSOXD
 70
     0
  9
$DIMSAH
 70
     0
  9
$DIMBLK1
  1

  9
$DIMBLK2
  1

  9
$DIMSTYLE
  2
STANDARD
  9
$DIMCLRD
 70
     0
  9
$DIMCLRE
 70
     0
  9
$DIMCLRT
 70
     0
  9
$DIMTFAC
 40
1.0
  9
$DIMGAP
 40
0.09
  9
$LUNITS
 70
     2
  9
$LUPREC
 70
     4
  9
$SKETCHINC
 40
0.1
  9
$FILLETRAD
 40
0.5
  9
$AUNITS
 70
     0
  9
$AUPREC
 70
     0
  9
$MENU
  1
.
  9
$ELEVATION
 40
0.0
  9
$PELEVATION
 40
0.0
  9
$THICKNESS
 40
0.0
  9
$LIMCHECK
 70
     0
  9
$CHAMFERA
 40
0.5
  9
$CHAMFERB
 40
0.5
  9
$SKPOLY
 70
     0
  9
$TDCREATE
 40
2453619.496145451
  9
$TDUPDATE
 40
2453619.496145463
  9
$TDINDWG
 40
0.0000000116
  9
$TDUSRTIMER
 40
0.0000000116
  9
$USRTIMER
 70
     1
  9
$ANGBASE
 50
0.0
  9
$ANGDIR
 70
     0
  9
$PDMODE
 70
     0
  9
$PDSIZE
 40
0.0
  9
$PLINEWID
 40
0.0
  9
$COORDS
 70
     1
  9
$SPLFRAME
 70
     0
  9
$SPLINETYPE
 70
     6
  9
$SPLINESEGS
 70
     8
  9
$ATTDIA
 70
     0
  9
$ATTREQ
 70
     1
  9
$HANDLING
 70
     1
  9
$HANDSEED
  5
258
  9
$SURFTAB1
 70
     6
  9
$SURFTAB2
 70
     6
  9
$SURFTYPE
 70
     6
  9
$SURFU
 70
     6
  9
$SURFV
 70
     6
  9
$UCSNAME
  2

  9
$UCSORG
 10
0.0
 20
0.0
 30
0.0
  9
$UCSXDIR
 10
1.0
 20
0.0
 30
0.0
  9
$UCSYDIR
 10
0.0
 20
1.0
 30
0.0
  9
$PUCSNAME
  2

  9
$PUCSORG
 10
0.0
 20
0.0
 30
0.0
  9
$PUCSXDIR
 10
1.0
 20
0.0
 30
0.0
  9
$PUCSYDIR
 10
0.0
 20
1.0
 30
0.0
  9
$USERI1
 70
     0
  9
$USERI2
 70
     0
  9
$USERI3
 70
     0
  9
$USERI4
 70
     0
  9
$USERI5
 70
     0
  9
$USERR1
 40
0.0
  9
$USERR2
 40
0.0
  9
$USERR3
 40
0.0
  9
$USERR4
 40
0.0
  9
$USERR5
 40
0.0
  9
$WORLDVIEW
 70
     1
  9
$SHADEDGE
 70
     3
  9
$SHADEDIF
 70
    70
  9
$TILEMODE
 70
     1
  9
$MAXACTVP
 70
    64
  9
$PLIMCHECK
 70
     0
  9
$PEXTMIN
 10
1.000000000000000E+20
 20
1.000000000000000E+20
 30
1.000000000000000E+20
  9
$PEXTMAX
 10
-1.000000000000000E+20
 20
-1.000000000000000E+20
 30
-1.000000000000000E+20
  9
$PLIMMIN
 10
0.0
 20
0.0
  9
$PLIMMAX
 10
12.0
 20
9.0
  9
$UNITMODE
 70
     0
  9
$VISRETAIN
 70
     1
  9
$PLINEGEN
 70
     0
  9
$PSLTSCALE
 70
     1
  0
ENDSEC
  0
SECTION
  2
TABLES
  0
TABLE
  2
VPORT
 70
     1
  0
VPORT
  2
*ACTIVE
 70
     0
 10
0.0
 20
0.0
 11
1.0
 21
1.0
 12
10.42990654205607
 22
4.5
 13
0.0
 23
0.0
 14
0.5
 24
0.5
 15
0.5
 25
0.5
 16
0.0
 26
0.0
 36
1.0
 17
0.0
 27
0.0
 37
0.0
 40
9.0
 41
1.972972972850329
 42
50.0
 43
0.0
 44
0.0
 50
0.0
 51
0.0
 71
     0
 72
   100
 73
     1
 74
     3
 75
     0
 76
     0
 77
     0
 78
     0
  0
ENDTAB
  0
TABLE
  2
LTYPE
 70
     9
  0
LTYPE
  2
CONTINUOUS
 70
     0
  3
Solid Line
 72
    65
 73
     0
 40
0.0
  0
LTYPE
  2
MCDASH1
 70
     0
  3
MiniCad+ Generated
 72
    65
 73
     4
 40
1.182873
 49
0.591437
 49
-0.295718
 49
0.0
 49
-0.295718
  0
LTYPE
  2
MCDASH2
 70
     0
  3
MiniCad+ Generated
 72
    65
 73
     2
 40
3.527692
 49
2.469229
 49
-1.058463
  0
LTYPE
  2
MCDASH3
 70
     0
  3
MiniCad+ Generated
 72
    65
 73
     2
 40
6.35
 49
5.291537
 49
-1.058463
  0
LTYPE
  2
MCDASH4
 70
     0
  3
MiniCad+ Generated
 72
    65
 73
     2
 40
7.760767
 49
6.702692
 49
-1.058075
  0
LTYPE
  2
MCDASH5
 70
     0
  3
MiniCad+ Generated
 72
    65
 73
     2
 40
1.058075
 49
0.352692
 49
-0.705383
  0
LTYPE
  2
MCDASH6
 70
     0
  3
MiniCad+ Generated
 72
    65
 73
     4
 40
5.291538
 49
3.175
 49
-1.058075
 49
0.352692
 49
-0.705771
  0
LTYPE
  2
MCDASH7
 70
     0
  3
MiniCad+ Generated
 72
    65
 73
     6
 40
9.525001
 49
3.175
 49
-1.058075
 49
3.175
 49
-1.058463
 49
0.352692
 49
-0.705771
  0
LTYPE
  2
MCDASH8
 70
     0
  3
MiniCad+ Generated
 72
    65
 73
     6
 40
6.350001000000001
 49
3.175
 49
-1.058075
 49
0.352692
 49
-0.705771
 49
0.352692
 49
-0.705771
  0
ENDTAB
  0
TABLE
  2
LAYER
 70
     3
  0
LAYER
  2
0
 70
     0
 62
     7
  6
CONTINUOUS
  0
LAYER
  2
GUIDE
 70
     0
 62
     7
  6
CONTINUOUS
  0
LAYER
  2
AXIS
 70
     0
 62
     1
  6
CONTINUOUS
  0
ENDTAB
  0
TABLE
  2
STYLE
 70
     1
  0
STYLE
  2
STANDARD
 70
     0
 40
0.0
 41
1.0
 50
0.0
 71
     0
 42
0.2
  3
txt
  4

  0
ENDTAB
  0
TABLE
  2
VIEW
 70
     0
  0
ENDTAB
  0
TABLE
  2
UCS
 70
     0
  0
ENDTAB
  0
TABLE
  2
APPID
 70
     1
  0
APPID
  2
ACAD
 70
     0
  0
ENDTAB
  0
TABLE
  2
DIMSTYLE
 70
     1
  0
DIMSTYLE
  2
STANDARD
 70
     0
  3

  4

  5

  6

  7

 40
1.0
 41
0.18
 42
0.0625
 43
0.38
 44
0.18
 45
0.0
 46
0.0
 47
0.0
 48
0.0
140
0.18
141
0.09
142
0.0
143
25.4
144
1.0
145
0.0
146
1.0
147
0.09
 71
     0
 72
     0
 73
     1
 74
     1
 75
     0
 76
     0
 77
     0
 78
     0
170
     0
171
     2
172
     0
173
     0
174
     0
175
     0
176
     0
177
     0
178
     0
  0
ENDTAB
  0
ENDSEC
  0
SECTION
  2
BLOCKS
  0
BLOCK
  8
0
  2
$MODEL_SPACE
 70
     0
 10
0.0
 20
0.0
 30
0.0
  3
$MODEL_SPACE
  1

  0
ENDBLK
  5
253
  8
0
  0
BLOCK
 67
     1
  8
0
  2
$PAPER_SPACE
 70
     0
 10
0.0
 20
0.0
 30
0.0
  3
$PAPER_SPACE
  1

  0
ENDBLK
  5
251
 67
     1
  8
0
  0
BLOCK
  8
0
  2
$ARROW1$
 70
     0
 10
0.0
 20
0.0
 30
0.0
  3
$ARROW1$
  1

  0
POLYLINE
  5
2F
  8
0
 62
     1
 66
     1
 10
0.0
 20
0.0
 30
0.0
 70
     1
  0
VERTEX
  5
1A1
  8
0
 62
     1
 10
-25.4
 20
4.318
 30
0.0
  0
VERTEX
  5
1A2
  8
0
 62
     1
 10
-25.4
 20
-4.318
 30
0.0
  0
VERTEX
  5
1A3
  8
0
 62
     1
 10
0.0
 20
0.0
 30
0.0
  0
SEQEND
  5
23A
  8
0
 62
     1
  0
ENDBLK
  5
23C
  8
0
  0
BLOCK
  8
0
  2
$ARROW2$
 70
     0
 10
0.0
 20
0.0
 30
0.0
  3
$ARROW2$
  1

  0
POLYLINE
  5
37
  8
0
 62
     1
 66
     1
 10
0.0
 20
0.0
 30
0.0
 70
     1
  0
VERTEX
  5
1A5
  8
0
 62
     1
 10
-25.4
 20
12.7
 30
0.0
  0
VERTEX
  5
1A6
  8
0
 62
     1
 10
-25.4
 20
-12.7
 30
0.0
  0
VERTEX
  5
1A7
  8
0
 62
     1
 10
0.0
 20
0.0
 30
0.0
  0
SEQEND
  5
23D
  8
0
 62
     1
  0
ENDBLK
  5
23F
  8
0
  0
BLOCK
  8
0
  2
$ARROW3$
 70
     0
 10
0.0
 20
0.0
 30
0.0
  3
$ARROW3$
  1

  0
POLYLINE
  5
3F
  8
0
 62
     1
 66
     1
 10
0.0
 20
0.0
 30
0.0
 70
     1
 40
0.494003
 41
0.494003
  0
VERTEX
  5
1A9
  8
0
 62
     1
 10
-6.35
 20
0.0
 30
0.0
  0
VERTEX
  5
1AA
  8
0
 62
     1
 10
-6.253499
 20
-1.102835
 30
0.0
  0
VERTEX
  5
1AB
  8
0
 62
     1
 10
-5.966995
 20
-2.171976
 30
0.0
  0
VERTEX
  5
1AC
  8
0
 62
     1
 10
-5.499192
 20
-3.175123
 30
0.0
  0
VERTEX
  5
1AD
  8
0
 62
     1
 10
-4.864305
 20
-4.08179
 30
0.0
  0
VERTEX
  5
1AE
  8
0
 62
     1
 10
-4.081641
 20
-4.86443
 30
0.0
  0
VERTEX
  5
1AF
  8
0
 62
     1
 10
-3.174956
 20
-5.499289
 30
0.0
  0
VERTEX
  5
1B0
  8
0
 62
     1
 10
-2.171794
 20
-5.967061
 30
0.0
  0
VERTEX
  5
1B1
  8
0
 62
     1
 10
-1.102644
 20
-6.253533
 30
0.0
  0
VERTEX
  5
1B2
  8
0
 62
     1
 10
0.000097
 20
-6.35
 30
0.0
  0
VERTEX
  5
1B3
  8
0
 62
     1
 10
0.0
 20
-6.35
 30
0.0
  0
VERTEX
  5
1B4
  8
0
 62
     1
 10
1.10274
 20
-6.253516
 30
0.0
  0
VERTEX
  5
1B5
  8
0
 62
     1
 10
2.171885
 20
-5.967028
 30
0.0
  0
VERTEX
  5
1B6
  8
0
 62
     1
 10
3.175039
 20
-5.49924
 30
0.0
  0
VERTEX
  5
1B7
  8
0
 62
     1
 10
4.081716
 20
-4.864367
 30
0.0
  0
VERTEX
  5
1B8
  8
0
 62
     1
 10
4.86443
 20
-4.081641
 30
0.0
  0
VERTEX
  5
1B9
  8
0
 62
     1
 10
5.499289
 20
-3.174956
 30
0.0
  0
VERTEX
  5
1BA
  8
0
 62
     1
 10
5.967061
 20
-2.171794
 30
0.0
  0
VERTEX
  5
1BB
  8
0
 62
     1
 10
6.253533
 20
-1.102644
 30
0.0
  0
VERTEX
  5
1BC
  8
0
 62
     1
 10
6.35
 20
0.0
 30
0.0
  0
VERTEX
  5
1BD
  8
0
 62
     1
 10
6.253533
 20
1.102644
 30
0.0
  0
VERTEX
  5
1BE
  8
0
 62
     1
 10
5.967028
 20
2.171885
 30
0.0
  0
VERTEX
  5
1BF
  8
0
 62
     1
 10
5.49924
 20
3.175039
 30
0.0
  0
VERTEX
  5
1C0
  8
0
 62
     1
 10
4.864367
 20
4.081716
 30
0.0
  0
VERTEX
  5
1C1
  8
0
 62
     1
 10
4.081716
 20
4.864367
 30
0.0
  0
VERTEX
  5
1C2
  8
0
 62
     1
 10
3.175039
 20
5.49924
 30
0.0
  0
VERTEX
  5
1C3
  8
0
 62
     1
 10
2.171794
 20
5.967061
 30
0.0
  0
VERTEX
  5
1C4
  8
0
 62
     1
 10
1.102644
 20
6.253533
 30
0.0
  0
VERTEX
  5
1C5
  8
0
 62
     1
 10
0.0
 20
6.35
 30
0.0
  0
VERTEX
  5
1C6
  8
0
 62
     1
 10
-1.102644
 20
6.253533
 30
0.0
  0
VERTEX
  5
1C7
  8
0
 62
     1
 10
-2.171885
 20
5.967028
 30
0.0
  0
VERTEX
  5
1C8
  8
0
 62
     1
 10
-3.175039
 20
5.49924
 30
0.0
  0
VERTEX
  5
1C9
  8
0
 62
     1
 10
-4.081716
 20
4.864367
 30
0.0
  0
VERTEX
  5
1CA
  8
0
 62
     1
 10
-4.864367
 20
4.081716
 30
0.0
  0
VERTEX
  5
1CB
  8
0
 62
     1
 10
-5.499289
 20
3.174956
 30
0.0
  0
VERTEX
  5
1CC
  8
0
 62
     1
 10
-5.967061
 20
2.171794
 30
0.0
  0
VERTEX
  5
1CD
  8
0
 62
     1
 10
-6.253533
 20
1.102644
 30
0.0
  0
VERTEX
  5
1CE
  8
0
 62
     1
 10
-6.35
 20
0.0
 30
0.0
  0
SEQEND
  5
240
  8
0
 62
     1
  0
ENDBLK
  5
242
  8
0
  0
BLOCK
  8
0
  2
$ARROW4$
 70
     0
 10
0.0
 20
0.0
 30
0.0
  3
$ARROW4$
  1

  0
LINE
  5
6A
  8
0
 62
     1
 10
12.7
 20
12.7
 30
0.0
 11
-12.7
 21
-12.7
 31
0.0
  0
ENDBLK
  5
244
  8
0
  0
BLOCK
  8
0
  2
$ARROW5$
 70
     0
 10
0.0
 20
0.0
 30
0.0
  3
$ARROW5$
  1

  0
LINE
  5
6E
  8
0
 62
     1
 10
12.7
 20
12.7
 30
0.0
 11
-12.7
 21
-12.7
 31
0.0
  0
LINE
  5
6F
  8
0
 62
     1
 10
-12.7
 20
12.7
 30
0.0
 11
12.7
 21
-12.7
 31
0.0
  0
ENDBLK
  5
246
  8
0
  0
BLOCK
  8
0
  2
A$CD241
 70
     0
 10
0.0
 20
0.0
 30
0.0
  3
A$CD241
  1

  0
POLYLINE
  5
73
  8
0
 62
     1
 66
     1
 10
0.0
 20
0.0
 30
0.0
 70
     1
  0
VERTEX
  5
1D0
  8
0
 62
     1
 10
16.36815
 20
1.74689
 30
0.0
  0
VERTEX
  5
1D1
  8
0
 62
     1
 10
16.36815
 20
32.24689
 30
0.0
  0
VERTEX
  5
1D2
  8
0
 62
     1
 10
16.38046
 20
32.40331
 30
0.0
  0
VERTEX
  5
1D3
  8
0
 62
     1
 10
16.41709
 20
32.55589
 30
0.0
  0
VERTEX
  5
1D4
  8
0
 62
     1
 10
16.47713
 20
32.70086
 30
0.0
  0
VERTEX
  5
1D5
  8
0
 62
     1
 10
16.55911
 20
32.83466
 30
0.0
  0
VERTEX
  5
1D6
  8
0
 62
     1
 10
16.66103
 20
32.95399
 30
0.0
  0
VERTEX
  5
1D7
  8
0
 62
     1
 10
16.66104
 20
32.954
 30
0.0
  0
VERTEX
  5
1D8
  8
0
 62
     1
 10
16.78035
 20
33.0559
 30
0.0
  0
VERTEX
  5
1D9
  8
0
 62
     1
 10
16.91414
 20
33.13789
 30
0.0
  0
VERTEX
  5
1DA
  8
0
 62
     1
 10
17.05911
 20
33.19794
 30
0.0
  0
VERTEX
  5
1DB
  8
0
 62
     1
 10
17.2117
 20
33.23458
 30
0.0
  0
VERTEX
  5
1DC
  8
0
 62
     1
 10
17.36813
 20
33.24689
 30
0.0
  0
VERTEX
  5
1DD
  8
0
 62
     1
 10
17.36815
 20
33.24689
 30
0.0
  0
VERTEX
  5
1DE
  8
0
 62
     1
 10
26.86815
 20
33.24689
 30
0.0
  0
VERTEX
  5
1DF
  8
0
 62
     1
 10
27.02458
 20
33.23458
 30
0.0
  0
VERTEX
  5
1E0
  8
0
 62
     1
 10
27.17716
 20
33.19795
 30
0.0
  0
VERTEX
  5
1E1
  8
0
 62
     1
 10
27.32214
 20
33.1379
 30
0.0
  0
VERTEX
  5
1E2
  8
0
 62
     1
 10
27.45594
 20
33.05591
 30
0.0
  0
VERTEX
  5
1E3
  8
0
 62
     1
 10
27.57526
 20
32.954
 30
0.0
  0
VERTEX
  5
1E4
  8
0
 62
     1
 10
27.67717
 20
32.83468
 30
0.0
  0
VERTEX
  5
1E5
  8
0
 62
     1
 10
27.75916
 20
32.70089
 30
0.0
  0
VERTEX
  5
1E6
  8
0
 62
     1
 10
27.8192
 20
32.55592
 30
0.0
  0
VERTEX
  5
1E7
  8
0
 62
     1
 10
27.85584
 20
32.40334
 30
0.0
  0
VERTEX
  5
1E8
  8
0
 62
     1
 10
27.86815
 20
32.24689
 30
0.0
  0
VERTEX
  5
1E9
  8
0
 62
     1
 10
27.86815
 20
1.74689
 30
0.0
  0
VERTEX
  5
1EA
  8
0
 62
     1
 10
27.85584
 20
1.59046
 30
0.0
  0
VERTEX
  5
1EB
  8
0
 62
     1
 10
27.81921
 20
1.43788
 30
0.0
  0
VERTEX
  5
1EC
  8
0
 62
     1
 10
27.75916
 20
1.2929
 30
0.0
  0
VERTEX
  5
1ED
  8
0
 62
     1
 10
27.67718
 20
1.15911
 30
0.0
  0
VERTEX
  5
1EE
  8
0
 62
     1
 10
27.57526
 20
1.03978
 30
0.0
  0
VERTEX
  5
1EF
  8
0
 62
     1
 10
27.45594
 20
0.93787
 30
0.0
  0
VERTEX
  5
1F0
  8
0
 62
     1
 10
27.32215
 20
0.85588
 30
0.0
  0
VERTEX
  5
1F1
  8
0
 62
     1
 10
27.17718
 20
0.79584
 30
0.0
  0
VERTEX
  5
1F2
  8
0
 62
     1
 10
27.0246
 20
0.7592
 30
0.0
  0
VERTEX
  5
1F3
  8
0
 62
     1
 10
26.86815
 20
0.7468900000000001
 30
0.0
  0
VERTEX
  5
1F4
  8
0
 62
     1
 10
17.36815
 20
0.7468900000000001
 30
0.0
  0
VERTEX
  5
1F5
  8
0
 62
     1
 10
17.21172
 20
0.7592
 30
0.0
  0
VERTEX
  5
1F6
  8
0
 62
     1
 10
17.05914
 20
0.79583
 30
0.0
  0
VERTEX
  5
1F7
  8
0
 62
     1
 10
16.91416
 20
0.85588
 30
0.0
  0
VERTEX
  5
1F8
  8
0
 62
     1
 10
16.78037
 20
0.93786
 30
0.0
  0
VERTEX
  5
1F9
  8
0
 62
     1
 10
16.66104
 20
1.03978
 30
0.0
  0
VERTEX
  5
1FA
  8
0
 62
     1
 10
16.55913
 20
1.1591
 30
0.0
  0
VERTEX
  5
1FB
  8
0
 62
     1
 10
16.47714
 20
1.29289
 30
0.0
  0
VERTEX
  5
1FC
  8
0
 62
     1
 10
16.4171
 20
1.43786
 30
0.0
  0
VERTEX
  5
1FD
  8
0
 62
     1
 10
16.38046
 20
1.59044
 30
0.0
  0
VERTEX
  5
1FE
  8
0
 62
     1
 10
16.36815
 20
1.74689
 30
0.0
  0
SEQEND
  5
247
  8
0
 62
     1
  0
POLYLINE
  5
A4
  8
0
 62
     1
 66
     1
 10
0.0
 20
0.0
 30
0.0
 70
     1
  0
VERTEX
  5
200
  8
0
 62
     1
 10
19.61815
 20
33.24689
 30
0.0
  0
VERTEX
  5
201
  8
0
 62
     1
 10
19.61815
 20
33.89689
 30
0.0
  0
VERTEX
  5
202
  8
0
 62
     1
 10
24.61815
 20
33.89689
 30
0.0
  0
VERTEX
  5
203
  8
0
 62
     1
 10
24.61815
 20
33.24689
 30
0.0
  0
SEQEND
  5
248
  8
0
 62
     1
  0
POLYLINE
  5
AA
  8
0
 62
     1
 66
     1
 10
0.0
 20
0.0
 30
0.0
 70
     1
  0
VERTEX
  5
205
  8
0
 62
     1
 10
19.61815
 20
0.09689
 30
0.0
  0
VERTEX
  5
206
  8
0
 62
     1
 10
19.61815
 20
0.7468900000000001
 30
0.0
  0
VERTEX
  5
207
  8
0
 62
     1
 10
24.61815
 20
0.7468900000000001
 30
0.0
  0
VERTEX
  5
208
  8
0
 62
     1
 10
24.61815
 20
0.09689
 30
0.0
  0
SEQEND
  5
249
  8
0
 62
     1
  0
ENDBLK
  5
24B
  8
0
  0
ENDSEC
  0
SECTION
  2
ENTITIES
  0
LINE
  5
B1
  8
GUIDE
 10
35.065126
 20
-55.189797
 30
0.0
 11
35.065126
 21
-82.389797
 31
0.0
  0
LINE
  5
B2
  8
GUIDE
 10
38.065126
 20
-67.28979699999999
 30
0.0
 11
38.065126
 21
-70.28979699999999
 31
0.0
  0
LINE
  5
B3
  8
GUIDE
 10
-38.074814
 20
-62.789797
 30
0.0
 11
-38.074814
 21
-65.78979699999999
 31
0.0
  0
LINE
  5
B4
  8
GUIDE
 10
8.605076
 20
-62.789797
 30
0.0
 11
8.605076
 21
-65.78979699999999
 31
0.0
  0
LINE
  5
B5
  8
GUIDE
 10
-61.434874
 20
-82.389797
 30
0.0
 11
35.065126
 21
-82.389797
 31
0.0
  0
LINE
  5
B6
  8
GUIDE
 10
-61.434874
 20
-55.189797
 30
0.0
 11
35.065126
 21
-55.189797
 31
0.0
  0
LINE
  5
B7
  8
GUIDE
 10
-38.074814
 20
-62.789797
 30
0.0
 11
8.605076
 21
-62.789797
 31
0.0
  0
LINE
  5
B8
  8
GUIDE
 10
-38.074814
 20
-74.78979699999999
 30
0.0
 11
8.605076
 21
-74.78979699999999
 31
0.0
  0
LINE
  5
B9
  8
GUIDE
 10
-38.074814
 20
-65.78979699999999
 30
0.0
 11
8.605076
 21
-65.78979699999999
 31
0.0
  0
LINE
  5
BA
  8
GUIDE
 10
-38.074814
 20
-71.78979699999999
 30
0.0
 11
8.605076
 21
-71.78979699999999
 31
0.0
  0
LINE
  5
BB
  8
GUIDE
 10
-38.074814
 20
-71.78979699999999
 30
0.0
 11
-38.074814
 21
-74.78979699999999
 31
0.0
  0
LINE
  5
BC
  8
GUIDE
 10
8.605076
 20
-71.78979699999999
 30
0.0
 11
8.605076
 21
-74.78979699999999
 31
0.0
  0
LINE
  5
BD
  8
GUIDE
 10
-18.234874
 20
-65.78979699999999
 30
0.0
 11
-18.234874
 21
-71.78979699999999
 31
0.0
  0
LINE
  5
BE
  8
GUIDE
 10
-11.234874
 20
-65.78979699999999
 30
0.0
 11
-11.234874
 21
-71.78979699999999
 31
0.0
  0
LINE
  5
BF
  8
GUIDE
 10
35.065126
 20
-70.28979699999999
 30
0.0
 11
38.065126
 21
-70.28979699999999
 31
0.0
  0
LINE
  5
C0
  8
GUIDE
 10
35.065126
 20
-67.28979699999999
 30
0.0
 11
38.065126
 21
-67.28979699999999
 31
0.0
  0
LINE
  5
C1
  8
GUIDE
 10
-19.734874
 20
-62.789797
 30
0.0
 11
-9.734874
 21
-62.789797
 31
0.0
  0
ARC
  5
C2
  8
GUIDE
 10
-14.734874
 20
-73.20123700000001
 30
0.0
 40
3.5
 50
206.992554
 51
333.007431
  0
ARC
  5
C3
  8
GUIDE
 10
-14.734874
 20
-70.64572699999999
 30
0.0
 40
9.095050000000001
 50
59.741226
 51
120.258774
  0
LINE
  5
C4
  8
GUIDE
 10
-64.584874
 20
42.839883
 30
0.0
 11
35.115126
 21
42.839883
 31
0.0
  0
LINE
  5
C5
  8
GUIDE
 10
-64.584874
 20
-31.160117
 30
0.0
 11
35.115126
 21
-31.160117
 31
0.0
  0
LINE
  5
C6
  8
GUIDE
 10
35.115126
 20
42.839883
 30
0.0
 11
35.115126
 21
-31.160117
 31
0.0
  0
LINE
  5
C7
  8
GUIDE
 10
-64.584874
 20
-31.160117
 30
0.0
 11
-64.584874
 21
42.839883
 31
0.0
  0
LINE
  5
C8
  8
GUIDE
 10
38.115126
 20
38.089883
 30
0.0
 11
38.115126
 21
-26.410117
 31
0.0
  0
CIRCLE
  5
C9
  8
GUIDE
 10
-14.684874
 20
79.339883
 30
0.0
 40
3.5
  0
LINE
  5
CA
  8
GUIDE
 10
-35.288324
 20
44.610413
 30
0.0
 11
-20.464104
 21
80.952473
 31
0.0
  0
ARC
  5
CB
  8
GUIDE
 10
-38.024814
 20
45.839883
 30
0.0
 40
3.0
 50
270.0
 51
335.806305
  0
ARC
  5
CC
  8
GUIDE
 10
8.655075999999999
 20
45.839883
 30
0.0
 40
3.0
 50
204.193695
 51
270.0
  0
ARC
  5
CD
  8
GUIDE
 10
-14.684874
 20
79.339883
 30
0.0
 40
6.0
 50
15.59079
 51
164.40921
  0
LINE
  5
CE
  8
GUIDE
 10
5.918576
 20
44.610413
 30
0.0
 11
-8.905633999999999
 21
80.952473
 31
0.0
  0
LINE
  5
CF
  8
GUIDE
 10
-18.148974
 20
79.839883
 30
0.0
 11
-11.220764
 21
79.839883
 31
0.0
  0
LINE
  5
D0
  8
GUIDE
 10
-18.148974
 20
78.839883
 30
0.0
 11
-11.184874
 21
78.839883
 31
0.0
  0
LINE
  5
D1
  8
GUIDE
 10
81.649456
 20
35.839883
 30
0.0
 11
81.649456
 21
-24.160137
 31
0.0
  0
ARC
  5
D2
  8
GUIDE
 10
83.980526
 20
36.352483
 30
0.0
 40
2.38677
 50
110.377258
 51
192.40181
  0
ARC
  5
D3
  8
GUIDE
 10
83.980526
 20
-24.672717
 30
0.0
 40
2.38677
 50
167.59819
 51
249.622742
  0
POLYLINE
  5
D4
  8
GUIDE
 66
     1
 10
0.0
 20
0.0
 30
0.0
  0
VERTEX
  5
164
  8
GUIDE
 10
93.749456
 20
42.839883
 30
0.0
  0
VERTEX
  5
165
  8
GUIDE
 10
93.749456
 20
39.589883
 30
0.0
  0
VERTEX
  5
166
  8
GUIDE
 10
93.737146
 20
39.433453
 30
0.0
  0
VERTEX
  5
167
  8
GUIDE
 10
93.70051599999999
 20
39.280873
 30
0.0
  0
VERTEX
  5
168
  8
GUIDE
 10
93.640466
 20
39.135893
 30
0.0
  0
VERTEX
  5
169
  8
GUIDE
 10
93.558486
 20
39.002103
 30
0.0
  0
VERTEX
  5
16A
  8
GUIDE
 10
93.456566
 20
38.882773
 30
0.0
  0
VERTEX
  5
16B
  8
GUIDE
 10
93.33724599999999
 20
38.780863
 30
0.0
  0
VERTEX
  5
16C
  8
GUIDE
 10
93.203456
 20
38.698873
 30
0.0
  0
VERTEX
  5
16D
  8
GUIDE
 10
93.058486
 20
38.638833
 30
0.0
  0
VERTEX
  5
16E
  8
GUIDE
 10
92.905906
 20
38.602193
 30
0.0
  0
VERTEX
  5
16F
  8
GUIDE
 10
92.749456
 20
38.589883
 30
0.0
  0
VERTEX
  5
170
  8
GUIDE
 10
83.149456
 20
38.589883
 30
0.0
  0
SEQEND
  5
24C
  8
GUIDE
  0
POLYLINE
  5
E3
  8
GUIDE
 66
     1
 10
0.0
 20
0.0
 30
0.0
  0
VERTEX
  5
172
  8
GUIDE
 10
83.149456
 20
-26.910117
 30
0.0
  0
VERTEX
  5
173
  8
GUIDE
 10
92.749456
 20
-26.910117
 30
0.0
  0
VERTEX
  5
174
  8
GUIDE
 10
92.917266
 20
-26.955587
 30
0.0
  0
VERTEX
  5
175
  8
GUIDE
 10
93.077056
 20
-27.024077
 30
0.0
  0
VERTEX
  5
176
  8
GUIDE
 10
93.225706
 20
-27.114237
 30
0.0
  0
VERTEX
  5
177
  8
GUIDE
 10
93.360286
 20
-27.224317
 30
0.0
  0
VERTEX
  5
178
  8
GUIDE
 10
93.478156
 20
-27.352137
 30
0.0
  0
VERTEX
  5
179
  8
GUIDE
 10
93.478166
 20
-27.352147
 30
0.0
  0
VERTEX
  5
17A
  8
GUIDE
 10
93.57699599999999
 20
-27.495187
 30
0.0
  0
VERTEX
  5
17B
  8
GUIDE
 10
93.65484600000001
 20
-27.650647
 30
0.0
  0
VERTEX
  5
17C
  8
GUIDE
 10
93.71018599999999
 20
-27.815467
 30
0.0
  0
VERTEX
  5
17D
  8
GUIDE
 10
93.741936
 20
-27.986407
 30
0.0
  0
VERTEX
  5
17E
  8
GUIDE
 10
93.749456
 20
-28.160127
 30
0.0
  0
VERTEX
  5
17F
  8
GUIDE
 10
93.749456
 20
-28.160117
 30
0.0
  0
VERTEX
  5
180
  8
GUIDE
 10
93.749456
 20
-31.160117
 30
0.0
  0
SEQEND
  5
24D
  8
GUIDE
  0
LINE
  5
F4
  8
GUIDE
 10
93.749456
 20
42.839883
 30
0.0
 11
66.54945600000001
 21
42.839883
 31
0.0
  0
LINE
  5
F5
  8
GUIDE
 10
66.54945600000001
 20
-31.160117
 30
0.0
 11
93.749456
 21
-31.160117
 31
0.0
  0
LINE
  5
F6
  8
GUIDE
 10
78.649456
 20
35.839883
 30
0.0
 11
78.649456
 21
-24.160097
 31
0.0
  0
POLYLINE
  5
F7
  8
GUIDE
 66
     1
 10
0.0
 20
0.0
 30
0.0
  0
VERTEX
  5
182
  8
GUIDE
 10
77.149456
 20
-26.910117
 30
0.0
  0
VERTEX
  5
183
  8
GUIDE
 10
67.54945600000001
 20
-26.910117
 30
0.0
  0
VERTEX
  5
184
  8
GUIDE
 10
67.38161599999999
 20
-26.955597
 30
0.0
  0
VERTEX
  5
185
  8
GUIDE
 10
67.221816
 20
-27.024087
 30
0.0
  0
VERTEX
  5
186
  8
GUIDE
 10
67.073176
 20
-27.114267
 30
0.0
  0
VERTEX
  5
187
  8
GUIDE
 10
66.938596
 20
-27.224337
 30
0.0
  0
VERTEX
  5
188
  8
GUIDE
 10
66.820756
 20
-27.352137
 30
0.0
  0
VERTEX
  5
189
  8
GUIDE
 10
66.820746
 20
-27.352147
 30
0.0
  0
VERTEX
  5
18A
  8
GUIDE
 10
66.721906
 20
-27.495207
 30
0.0
  0
VERTEX
  5
18B
  8
GUIDE
 10
66.64405600000001
 20
-27.650667
 30
0.0
  0
VERTEX
  5
18C
  8
GUIDE
 10
66.58872599999999
 20
-27.815487
 30
0.0
  0
VERTEX
  5
18D
  8
GUIDE
 10
66.55697600000001
 20
-27.986427
 30
0.0
  0
VERTEX
  5
18E
  8
GUIDE
 10
66.54945600000001
 20
-28.160127
 30
0.0
  0
VERTEX
  5
18F
  8
GUIDE
 10
66.54945600000001
 20
-28.160117
 30
0.0
  0
VERTEX
  5
190
  8
GUIDE
 10
66.54945600000001
 20
-31.160117
 30
0.0
  0
SEQEND
  5
24E
  8
GUIDE
  0
ARC
  5
108
  8
GUIDE
 10
76.318386
 20
-24.672717
 30
0.0
 40
2.38677
 50
290.377258
 51
12.40181
  0
POLYLINE
  5
109
  8
GUIDE
 66
     1
 10
0.0
 20
0.0
 30
0.0
  0
VERTEX
  5
192
  8
GUIDE
 10
66.54945600000001
 20
42.839883
 30
0.0
  0
VERTEX
  5
193
  8
GUIDE
 10
66.54945600000001
 20
39.589883
 30
0.0
  0
VERTEX
  5
194
  8
GUIDE
 10
66.56176600000001
 20
39.433433
 30
0.0
  0
VERTEX
  5
195
  8
GUIDE
 10
66.598406
 20
39.280853
 30
0.0
  0
VERTEX
  5
196
  8
GUIDE
 10
66.658446
 20
39.135883
 30
0.0
  0
VERTEX
  5
197
  8
GUIDE
 10
66.740436
 20
39.002093
 30
0.0
  0
VERTEX
  5
198
  8
GUIDE
 10
66.84234600000001
 20
38.882773
 30
0.0
  0
VERTEX
  5
199
  8
GUIDE
 10
66.961676
 20
38.780853
 30
0.0
  0
VERTEX
  5
19A
  8
GUIDE
 10
67.095466
 20
38.698873
 30
0.0
  0
VERTEX
  5
19B
  8
GUIDE
 10
67.24044600000001
 20
38.638823
 30
0.0
  0
VERTEX
  5
19C
  8
GUIDE
 10
67.39302600000001
 20
38.602193
 30
0.0
  0
VERTEX
  5
19D
  8
GUIDE
 10
67.549476
 20
38.589883
 30
0.0
  0
VERTEX
  5
19E
  8
GUIDE
 10
67.54945600000001
 20
38.589883
 30
0.0
  0
VERTEX
  5
19F
  8
GUIDE
 10
77.149456
 20
38.589883
 30
0.0
  0
SEQEND
  5
24F
  8
GUIDE
  0
ARC
  5
119
  8
GUIDE
 10
76.318386
 20
36.352483
 30
0.0
 40
2.38677
 50
347.59819
 51
69.622742
  0
LINE
  5
11A
  8
GUIDE
 10
86.149456
 20
84.339883
 30
0.0
 11
83.149456
 21
84.339883
 31
0.0
  0
LINE
  5
11B
  8
GUIDE
 10
74.149456
 20
84.339883
 30
0.0
 11
74.149456
 21
74.339883
 31
0.0
  0
LINE
  5
11C
  8
GUIDE
 10
86.149456
 20
84.339883
 30
0.0
 11
86.149456
 21
74.339883
 31
0.0
  0
LINE
  5
11D
  8
GUIDE
 10
74.149456
 20
74.339883
 30
0.0
 11
67.54945600000001
 21
42.839883
 31
0.0
  0
LINE
  5
11E
  8
GUIDE
 10
86.149456
 20
74.339883
 30
0.0
 11
92.749456
 21
42.839883
 31
0.0
  0
LINE
  5
11F
  8
GUIDE
 10
77.149456
 20
84.339883
 30
0.0
 11
77.149456
 21
74.339883
 31
0.0
  0
LINE
  5
120
  8
GUIDE
 10
83.149456
 20
84.339883
 30
0.0
 11
83.149456
 21
74.339883
 31
0.0
  0
ARC
  5
121
  8
GUIDE
 10
75.738016
 20
79.339883
 30
0.0
 40
3.5
 50
116.992554
 51
243.007431
  0
ARC
  5
122
  8
GUIDE
 10
78.293526
 20
79.339883
 30
0.0
 40
9.095050000000001
 50
329.741226
 51
30.258774
  0
LINE
  5
123
  8
GUIDE
 10
74.149456
 20
74.339883
 30
0.0
 11
74.149456
 21
42.839883
 31
0.0
  0
LINE
  5
124
  8
GUIDE
 10
86.149456
 20
74.339883
 30
0.0
 11
86.149456
 21
42.839883
 31
0.0
  0
LINE
  5
125
  8
GUIDE
 10
83.149456
 20
82.339883
 30
0.0
 11
77.149456
 21
82.339883
 31
0.0
  0
LINE
  5
126
  8
GUIDE
 10
77.149456
 20
74.339883
 30
0.0
 11
77.149456
 21
42.839883
 31
0.0
  0
LINE
  5
127
  8
GUIDE
 10
83.149456
 20
74.339883
 30
0.0
 11
83.149456
 21
42.839883
 31
0.0
  0
LINE
  5
128
  8
GUIDE
 10
77.149456
 20
84.339883
 30
0.0
 11
74.149456
 21
84.339883
 31
0.0
  0
LINE
  5
129
  8
GUIDE
 10
63.649456
 20
-31.160117
 30
0.0
 11
63.649456
 21
42.839883
 31
0.0
  0
LINE
  5
12A
  8
GUIDE
 10
96.649456
 20
-31.160117
 30
0.0
 11
96.649456
 21
42.839883
 31
0.0
  0
LINE
  5
12B
  8
GUIDE
 10
63.649456
 20
42.839883
 30
0.0
 11
66.54945600000001
 21
42.839883
 31
0.0
  0
LINE
  5
12C
  8
GUIDE
 10
63.649456
 20
-31.160117
 30
0.0
 11
66.54945600000001
 21
-31.160117
 31
0.0
  0
LINE
  5
12D
  8
GUIDE
 10
66.54945600000001
 20
-28.160117
 30
0.0
 11
66.54945600000001
 21
39.589883
 31
0.0
  0
LINE
  5
12E
  8
GUIDE
 10
96.649456
 20
42.839883
 30
0.0
 11
93.749456
 21
42.839883
 31
0.0
  0
LINE
  5
12F
  8
GUIDE
 10
96.649456
 20
-31.160117
 30
0.0
 11
93.749456
 21
-31.160117
 31
0.0
  0
LINE
  5
130
  8
GUIDE
 10
93.749456
 20
-27.706497
 30
0.0
 11
93.749456
 21
39.589883
 31
0.0
  0
LINE
  5
131
  8
GUIDE
 10
35.115126
 20
38.089883
 30
0.0
 11
38.115126
 21
38.089883
 31
0.0
  0
LINE
  5
132
  8
GUIDE
 10
35.115126
 20
-26.410117
 30
0.0
 11
38.115126
 21
-26.410117
 31
0.0
  0
LINE
  5
133
  8
GUIDE
 10
35.065126
 20
-52.289797
 30
0.0
 11
-61.434874
 21
-52.289797
 31
0.0
  0
LINE
  5
134
  8
GUIDE
 10
35.065126
 20
-85.28979699999999
 30
0.0
 11
-61.434874
 21
-85.28979699999999
 31
0.0
  0
LINE
  5
135
  8
GUIDE
 10
35.065126
 20
-52.289797
 30
0.0
 11
35.065126
 21
-55.189797
 31
0.0
  0
LINE
  5
136
  8
GUIDE
 10
35.065126
 20
-82.389797
 30
0.0
 11
35.065126
 21
-85.28979699999999
 31
0.0
  0
LINE
  5
137
  8
GUIDE
 10
77.149456
 20
72.839883
 30
0.0
 11
83.149456
 21
72.839883
 31
0.0
  0
LINE
  5
138
  8
GUIDE
 10
-64.534874
 20
-67.28979699999999
 30
0.0
 11
-64.534874
 21
-70.28979699999999
 31
0.0
  0
LINE
  5
139
  8
GUIDE
 10
-61.434874
 20
-55.189797
 30
0.0
 11
-61.434874
 21
-67.28979699999999
 31
0.0
  0
LINE
  5
13A
  8
GUIDE
 10
-64.534874
 20
-67.28979699999999
 30
0.0
 11
-61.434874
 21
-67.28979699999999
 31
0.0
  0
LINE
  5
13B
  8
GUIDE
 10
-64.534874
 20
-70.28979699999999
 30
0.0
 11
-61.434874
 21
-70.28979699999999
 31
0.0
  0
LINE
  5
13C
  8
GUIDE
 10
-61.434874
 20
-70.28979699999999
 30
0.0
 11
-61.434874
 21
-82.389797
 31
0.0
  0
LINE
  5
13D
  8
GUIDE
 10
-61.434874
 20
-85.28979699999999
 30
0.0
 11
-61.434874
 21
-82.389797
 31
0.0
  0
LINE
  5
13E
  8
GUIDE
 10
-61.434874
 20
-55.189797
 30
0.0
 11
-61.434874
 21
-52.289797
 31
0.0
  0
LINE
  5
13F
  8
GUIDE
 10
-95.534874
 20
-67.28979699999999
 30
0.0
 11
-95.534874
 21
-70.28979699999999
 31
0.0
  0
ARC
  5
140
  8
GUIDE
 10
-58.479049
 20
-105.269706
 30
0.0
 40
53.0623
 50
93.19306899999999
 51
134.294846
  0
ARC
  5
141
  8
GUIDE
 10
-58.479049
 20
-32.309888
 30
0.0
 40
53.0623
 50
225.705154
 51
266.806931
  0
LINE
  5
142
  8
GUIDE
 10
-95.584874
 20
-31.160117
 30
0.0
 11
-95.584874
 21
42.839883
 31
0.0
  0
LINE
  5
143
  8
GUIDE
 10
-64.584874
 20
42.839883
 30
0.0
 11
-95.584874
 21
42.839883
 31
0.0
  0
LINE
  5
144
  8
GUIDE
 10
-64.584874
 20
-31.160117
 30
0.0
 11
-95.584874
 21
-31.160117
 31
0.0
  0
LINE
  5
145
  8
GUIDE
 10
-40.234874
 20
-31.160117
 30
0.0
 11
-40.234874
 21
-39.660117
 31
0.0
  0
LINE
  5
146
  8
GUIDE
 10
10.765126
 20
-31.160117
 30
0.0
 11
10.765126
 21
-39.660117
 31
0.0
  0
LINE
  5
147
  8
GUIDE
 10
-40.234874
 20
-39.660117
 30
0.0
 11
10.765126
 21
-39.660117
 31
0.0
  0
LINE
  5
148
  8
GUIDE
 10
-40.234874
 20
-33.360117
 30
0.0
 11
10.765126
 21
-33.360117
 31
0.0
  0
LINE
  5
149
  8
GUIDE
 10
-40.234874
 20
-31.160117
 30
0.0
 11
10.765126
 21
-31.160117
 31
0.0
  0
LINE
  5
14A
  8
GUIDE
 10
72.149456
 20
-39.660117
 30
0.0
 11
88.149456
 21
-39.660117
 31
0.0
  0
LINE
  5
14B
  8
GUIDE
 10
72.149456
 20
-33.360117
 30
0.0
 11
72.149456
 21
-39.660117
 31
0.0
  0
LINE
  5
14C
  8
GUIDE
 10
75.499456
 20
-31.160117
 30
0.0
 11
75.499456
 21
-33.360117
 31
0.0
  0
LINE
  5
14D
  8
GUIDE
 10
88.149456
 20
-33.360117
 30
0.0
 11
88.149456
 21
-39.660117
 31
0.0
  0
LINE
  5
14E
  8
GUIDE
 10
84.79945600000001
 20
-31.160117
 30
0.0
 11
84.79945600000001
 21
-33.360117
 31
0.0
  0
LINE
  5
14F
  8
GUIDE
 10
72.149456
 20
-33.360117
 30
0.0
 11
75.499456
 21
-33.360117
 31
0.0
  0
LINE
  5
150
  8
GUIDE
 10
84.79945600000001
 20
-33.360117
 30
0.0
 11
88.149456
 21
-33.360117
 31
0.0
  0
LINE
  5
151
  8
GUIDE
 10
75.499456
 20
-31.160117
 30
0.0
 11
84.79945600000001
 21
-31.160117
 31
0.0
  0
LINE
  5
152
  8
AXIS
 62
     1
 10
-14.734874
 20
-47.789797
 30
0.0
 11
-14.734874
 21
-59.789797
 31
0.0
  0
ENDSEC
  0
EOF
