  0
SECTION
  2
HEADER
  9
$ACADVER
  1
AC1009
  9
$DWGCODEPAGE
  3
ansi_1252
  9
$INSBASE
 10
0.0
 20
0.0
 30
0.0
  9
$EXTMIN
 10
-78.33238
 20
-113.71299
 30
0.0
  9
$EXTMAX
 10
78.33238
 20
113.71299
 30
0.0
  9
$LIMMIN
 10
0.0
 20
0.0
  9
$LIMMAX
 10
12.0
 20
9.0
  9
$ORTHOMODE
 70
     0
  9
$REGENMODE
 70
     1
  9
$FILLMODE
 70
     1
  9
$QTEXTMODE
 70
     0
  9
$MIRRTEXT
 70
     1
  9
$DRAGMODE
 70
     2
  9
$LTSCALE
 40
0.825444
  9
$OSMODE
 70
    37
  9
$ATTMODE
 70
     1
  9
$TEXTSIZE
 40
0.2
  9
$TRACEWID
 40
0.05
  9
$TEXTSTYLE
  7
STANDARD
  9
$CLAYER
  8
0
  9
$CELTYPE
  6
BYBLOCK
  9
$CECOLOR
 62
   256
  9
$DIMSCALE
 40
1.0
  9
$DIMASZ
 40
0.18
  9
$DIMEXO
 40
0.0625
  9
$DIMDLI
 40
0.38
  9
$DIMRND
 40
0.0
  9
$DIMDLE
 40
0.0
  9
$DIMEXE
 40
0.18
  9
$DIMTP
 40
0.0
  9
$DIMTM
 40
0.0
  9
$DIMTXT
 40
0.18
  9
$DIMCEN
 40
0.09
  9
$DIMTSZ
 40
0.0
  9
$DIMTOL
 70
     0
  9
$DIMLIM
 70
     0
  9
$DIMTIH
 70
     1
  9
$DIMTOH
 70
     1
  9
$DIMSE1
 70
     0
  9
$DIMSE2
 70
     0
  9
$DIMTAD
 70
     0
  9
$DIMZIN
 70
     0
  9
$DIMBLK
  1

  9
$DIMASO
 70
     1
  9
$DIMSHO
 70
     1
  9
$DIMPOST
  1

  9
$DIMAPOST
  1

  9
$DIMALT
 70
     0
  9
$DIMALTD
 70
     2
  9
$DIMALTF
 40
25.4
  9
$DIMLFAC
 40
1.0
  9
$DIMTOFL
 70
     0
  9
$DIMTVP
 40
0.0
  9
$DIMTIX
 70
     0
  9
$DIMSOXD
 70
     0
  9
$DIMSAH
 70
     0
  9
$DIMBLK1
  1

  9
$DIMBLK2
  1

  9
$DIMSTYLE
  2
STANDARD
  9
$DIMCLRD
 70
     0
  9
$DIMCLRE
 70
     0
  9
$DIMCLRT
 70
     0
  9
$DIMTFAC
 40
1.0
  9
$DIMGAP
 40
0.09
  9
$LUNITS
 70
     2
  9
$LUPREC
 70
     4
  9
$SKETCHINC
 40
0.1
  9
$FILLETRAD
 40
0.5
  9
$AUNITS
 70
     0
  9
$AUPREC
 70
     0
  9
$MENU
  1
.
  9
$ELEVATION
 40
0.0
  9
$PELEVATION
 40
0.0
  9
$THICKNESS
 40
0.0
  9
$LIMCHECK
 70
     0
  9
$CHAMFERA
 40
0.5
  9
$CHAMFERB
 40
0.5
  9
$SKPOLY
 70
     0
  9
$TDCREATE
 40
2453619.496144294
  9
$TDUPDATE
 40
2453619.496144305
  9
$TDINDWG
 40
0.0000000116
  9
$TDUSRTIMER
 40
0.0000000116
  9
$USRTIMER
 70
     1
  9
$ANGBASE
 50
0.0
  9
$ANGDIR
 70
     0
  9
$PDMODE
 70
     0
  9
$PDSIZE
 40
0.0
  9
$PLINEWID
 40
0.0
  9
$COORDS
 70
     1
  9
$SPLFRAME
 70
     0
  9
$SPLINETYPE
 70
     6
  9
$SPLINESEGS
 70
     8
  9
$ATTDIA
 70
     0
  9
$ATTREQ
 70
     1
  9
$HANDLING
 70
     1
  9
$HANDSEED
  5
2B5
  9
$SURFTAB1
 70
     6
  9
$SURFTAB2
 70
     6
  9
$SURFTYPE
 70
     6
  9
$SURFU
 70
     6
  9
$SURFV
 70
     6
  9
$UCSNAME
  2

  9
$UCSORG
 10
0.0
 20
0.0
 30
0.0
  9
$UCSXDIR
 10
1.0
 20
0.0
 30
0.0
  9
$UCSYDIR
 10
0.0
 20
1.0
 30
0.0
  9
$PUCSNAME
  2

  9
$PUCSORG
 10
0.0
 20
0.0
 30
0.0
  9
$PUCSXDIR
 10
1.0
 20
0.0
 30
0.0
  9
$PUCSYDIR
 10
0.0
 20
1.0
 30
0.0
  9
$USERI1
 70
     0
  9
$USERI2
 70
     0
  9
$USERI3
 70
     0
  9
$USERI4
 70
     0
  9
$USERI5
 70
     0
  9
$USERR1
 40
0.0
  9
$USERR2
 40
0.0
  9
$USERR3
 40
0.0
  9
$USERR4
 40
0.0
  9
$USERR5
 40
0.0
  9
$WORLDVIEW
 70
     1
  9
$SHADEDGE
 70
     3
  9
$SHADEDIF
 70
    70
  9
$TILEMODE
 70
     1
  9
$MAXACTVP
 70
    64
  9
$PLIMCHECK
 70
     0
  9
$PEXTMIN
 10
1.000000000000000E+20
 20
1.000000000000000E+20
 30
1.000000000000000E+20
  9
$PEXTMAX
 10
-1.000000000000000E+20
 20
-1.000000000000000E+20
 30
-1.000000000000000E+20
  9
$PLIMMIN
 10
0.0
 20
0.0
  9
$PLIMMAX
 10
12.0
 20
9.0
  9
$UNITMODE
 70
     0
  9
$VISRETAIN
 70
     1
  9
$PLINEGEN
 70
     0
  9
$PSLTSCALE
 70
     1
  0
ENDSEC
  0
SECTION
  2
TABLES
  0
TABLE
  2
VPORT
 70
     1
  0
VPORT
  2
*ACTIVE
 70
     0
 10
0.0
 20
0.0
 11
1.0
 21
1.0
 12
10.42990654205607
 22
4.5
 13
0.0
 23
0.0
 14
0.5
 24
0.5
 15
0.5
 25
0.5
 16
0.0
 26
0.0
 36
1.0
 17
0.0
 27
0.0
 37
0.0
 40
9.0
 41
1.972972972850329
 42
50.0
 43
0.0
 44
0.0
 50
0.0
 51
0.0
 71
     0
 72
   100
 73
     1
 74
     3
 75
     0
 76
     0
 77
     0
 78
     0
  0
ENDTAB
  0
TABLE
  2
LTYPE
 70
     9
  0
LTYPE
  2
CONTINUOUS
 70
     0
  3
Solid Line
 72
    65
 73
     0
 40
0.0
  0
LTYPE
  2
MCDASH1
 70
     0
  3
MiniCad+ Generated
 72
    65
 73
     4
 40
1.211167
 49
0.605777
 49
-0.302695
 49
0.0
 49
-0.302695
  0
LTYPE
  2
MCDASH2
 70
     0
  3
MiniCad+ Generated
 72
    65
 73
     2
 40
3.527692
 49
2.469229
 49
-1.058463
  0
LTYPE
  2
MCDASH3
 70
     0
  3
MiniCad+ Generated
 72
    65
 73
     2
 40
6.35
 49
5.291537
 49
-1.058463
  0
LTYPE
  2
MCDASH4
 70
     0
  3
MiniCad+ Generated
 72
    65
 73
     2
 40
7.760767
 49
6.702692
 49
-1.058075
  0
LTYPE
  2
MCDASH5
 70
     0
  3
MiniCad+ Generated
 72
    65
 73
     2
 40
1.058075
 49
0.352692
 49
-0.705383
  0
LTYPE
  2
MCDASH6
 70
     0
  3
MiniCad+ Generated
 72
    65
 73
     4
 40
5.291538
 49
3.175
 49
-1.058075
 49
0.352692
 49
-0.705771
  0
LTYPE
  2
MCDASH7
 70
     0
  3
MiniCad+ Generated
 72
    65
 73
     6
 40
9.525001
 49
3.175
 49
-1.058075
 49
3.175
 49
-1.058463
 49
0.352692
 49
-0.705771
  0
LTYPE
  2
MCDASH8
 70
     0
  3
MiniCad+ Generated
 72
    65
 73
     6
 40
6.350001000000001
 49
3.175
 49
-1.058075
 49
0.352692
 49
-0.705771
 49
0.352692
 49
-0.705771
  0
ENDTAB
  0
TABLE
  2
LAYER
 70
     3
  0
LAYER
  2
0
 70
     0
 62
     7
  6
CONTINUOUS
  0
LAYER
  2
GUIDE
 70
     0
 62
     7
  6
CONTINUOUS
  0
LAYER
  2
AXIS
 70
     0
 62
     1
  6
CONTINUOUS
  0
ENDTAB
  0
TABLE
  2
STYLE
 70
     1
  0
STYLE
  2
STANDARD
 70
     0
 40
0.0
 41
1.0
 50
0.0
 71
     0
 42
0.2
  3
txt
  4

  0
ENDTAB
  0
TABLE
  2
VIEW
 70
     0
  0
ENDTAB
  0
TABLE
  2
UCS
 70
     0
  0
ENDTAB
  0
TABLE
  2
APPID
 70
     1
  0
APPID
  2
ACAD
 70
     0
  0
ENDTAB
  0
TABLE
  2
DIMSTYLE
 70
     1
  0
DIMSTYLE
  2
STANDARD
 70
     0
  3

  4

  5

  6

  7

 40
1.0
 41
0.18
 42
0.0625
 43
0.38
 44
0.18
 45
0.0
 46
0.0
 47
0.0
 48
0.0
140
0.18
141
0.09
142
0.0
143
25.4
144
1.0
145
0.0
146
1.0
147
0.09
 71
     0
 72
     0
 73
     1
 74
     1
 75
     0
 76
     0
 77
     0
 78
     0
170
     0
171
     2
172
     0
173
     0
174
     0
175
     0
176
     0
177
     0
178
     0
  0
ENDTAB
  0
ENDSEC
  0
SECTION
  2
BLOCKS
  0
BLOCK
  8
0
  2
$MODEL_SPACE
 70
     0
 10
0.0
 20
0.0
 30
0.0
  3
$MODEL_SPACE
  1

  0
ENDBLK
  5
2B0
  8
0
  0
BLOCK
 67
     1
  8
0
  2
$PAPER_SPACE
 70
     0
 10
0.0
 20
0.0
 30
0.0
  3
$PAPER_SPACE
  1

  0
ENDBLK
  5
2AE
 67
     1
  8
0
  0
BLOCK
  8
0
  2
$ARROW1$
 70
     0
 10
0.0
 20
0.0
 30
0.0
  3
$ARROW1$
  1

  0
POLYLINE
  5
2F
  8
0
 62
     1
 66
     1
 10
0.0
 20
0.0
 30
0.0
 70
     1
  0
VERTEX
  5
1D7
  8
0
 62
     1
 10
-25.4
 20
4.318
 30
0.0
  0
VERTEX
  5
1D8
  8
0
 62
     1
 10
-25.4
 20
-4.318
 30
0.0
  0
VERTEX
  5
1D9
  8
0
 62
     1
 10
0.0
 20
0.0
 30
0.0
  0
SEQEND
  5
296
  8
0
 62
     1
  0
ENDBLK
  5
298
  8
0
  0
BLOCK
  8
0
  2
$ARROW2$
 70
     0
 10
0.0
 20
0.0
 30
0.0
  3
$ARROW2$
  1

  0
POLYLINE
  5
37
  8
0
 62
     1
 66
     1
 10
0.0
 20
0.0
 30
0.0
 70
     1
  0
VERTEX
  5
1DB
  8
0
 62
     1
 10
-25.4
 20
12.7
 30
0.0
  0
VERTEX
  5
1DC
  8
0
 62
     1
 10
-25.4
 20
-12.7
 30
0.0
  0
VERTEX
  5
1DD
  8
0
 62
     1
 10
0.0
 20
0.0
 30
0.0
  0
SEQEND
  5
299
  8
0
 62
     1
  0
ENDBLK
  5
29B
  8
0
  0
BLOCK
  8
0
  2
$ARROW3$
 70
     0
 10
0.0
 20
0.0
 30
0.0
  3
$ARROW3$
  1

  0
POLYLINE
  5
3F
  8
0
 62
     1
 66
     1
 10
0.0
 20
0.0
 30
0.0
 70
     1
 40
0.5031910000000001
 41
0.5031910000000001
  0
VERTEX
  5
1DF
  8
0
 62
     1
 10
-6.35
 20
0.0
 30
0.0
  0
VERTEX
  5
1E0
  8
0
 62
     1
 10
-6.253499
 20
-1.102835
 30
0.0
  0
VERTEX
  5
1E1
  8
0
 62
     1
 10
-5.966995
 20
-2.171976
 30
0.0
  0
VERTEX
  5
1E2
  8
0
 62
     1
 10
-5.499192
 20
-3.175123
 30
0.0
  0
VERTEX
  5
1E3
  8
0
 62
     1
 10
-4.864305
 20
-4.08179
 30
0.0
  0
VERTEX
  5
1E4
  8
0
 62
     1
 10
-4.081641
 20
-4.86443
 30
0.0
  0
VERTEX
  5
1E5
  8
0
 62
     1
 10
-3.174956
 20
-5.499289
 30
0.0
  0
VERTEX
  5
1E6
  8
0
 62
     1
 10
-2.171794
 20
-5.967061
 30
0.0
  0
VERTEX
  5
1E7
  8
0
 62
     1
 10
-1.102644
 20
-6.253533
 30
0.0
  0
VERTEX
  5
1E8
  8
0
 62
     1
 10
0.000097
 20
-6.35
 30
0.0
  0
VERTEX
  5
1E9
  8
0
 62
     1
 10
0.0
 20
-6.35
 30
0.0
  0
VERTEX
  5
1EA
  8
0
 62
     1
 10
1.10274
 20
-6.253516
 30
0.0
  0
VERTEX
  5
1EB
  8
0
 62
     1
 10
2.171885
 20
-5.967028
 30
0.0
  0
VERTEX
  5
1EC
  8
0
 62
     1
 10
3.175039
 20
-5.49924
 30
0.0
  0
VERTEX
  5
1ED
  8
0
 62
     1
 10
4.081716
 20
-4.864367
 30
0.0
  0
VERTEX
  5
1EE
  8
0
 62
     1
 10
4.86443
 20
-4.081641
 30
0.0
  0
VERTEX
  5
1EF
  8
0
 62
     1
 10
5.499289
 20
-3.174956
 30
0.0
  0
VERTEX
  5
1F0
  8
0
 62
     1
 10
5.967061
 20
-2.171794
 30
0.0
  0
VERTEX
  5
1F1
  8
0
 62
     1
 10
6.253533
 20
-1.102644
 30
0.0
  0
VERTEX
  5
1F2
  8
0
 62
     1
 10
6.35
 20
0.0
 30
0.0
  0
VERTEX
  5
1F3
  8
0
 62
     1
 10
6.253533
 20
1.102644
 30
0.0
  0
VERTEX
  5
1F4
  8
0
 62
     1
 10
5.967028
 20
2.171885
 30
0.0
  0
VERTEX
  5
1F5
  8
0
 62
     1
 10
5.49924
 20
3.175039
 30
0.0
  0
VERTEX
  5
1F6
  8
0
 62
     1
 10
4.864367
 20
4.081716
 30
0.0
  0
VERTEX
  5
1F7
  8
0
 62
     1
 10
4.081716
 20
4.864367
 30
0.0
  0
VERTEX
  5
1F8
  8
0
 62
     1
 10
3.175039
 20
5.49924
 30
0.0
  0
VERTEX
  5
1F9
  8
0
 62
     1
 10
2.171794
 20
5.967061
 30
0.0
  0
VERTEX
  5
1FA
  8
0
 62
     1
 10
1.102644
 20
6.253533
 30
0.0
  0
VERTEX
  5
1FB
  8
0
 62
     1
 10
0.0
 20
6.35
 30
0.0
  0
VERTEX
  5
1FC
  8
0
 62
     1
 10
-1.102644
 20
6.253533
 30
0.0
  0
VERTEX
  5
1FD
  8
0
 62
     1
 10
-2.171885
 20
5.967028
 30
0.0
  0
VERTEX
  5
1FE
  8
0
 62
     1
 10
-3.175039
 20
5.49924
 30
0.0
  0
VERTEX
  5
1FF
  8
0
 62
     1
 10
-4.081716
 20
4.864367
 30
0.0
  0
VERTEX
  5
200
  8
0
 62
     1
 10
-4.864367
 20
4.081716
 30
0.0
  0
VERTEX
  5
201
  8
0
 62
     1
 10
-5.499289
 20
3.174956
 30
0.0
  0
VERTEX
  5
202
  8
0
 62
     1
 10
-5.967061
 20
2.171794
 30
0.0
  0
VERTEX
  5
203
  8
0
 62
     1
 10
-6.253533
 20
1.102644
 30
0.0
  0
VERTEX
  5
204
  8
0
 62
     1
 10
-6.35
 20
0.0
 30
0.0
  0
SEQEND
  5
29C
  8
0
 62
     1
  0
ENDBLK
  5
29E
  8
0
  0
BLOCK
  8
0
  2
$ARROW4$
 70
     0
 10
0.0
 20
0.0
 30
0.0
  3
$ARROW4$
  1

  0
LINE
  5
6A
  8
0
 10
12.7
 20
12.7
 30
0.0
 11
-12.7
 21
-12.7
 31
0.0
  0
ENDBLK
  5
2A0
  8
0
  0
BLOCK
  8
0
  2
$ARROW5$
 70
     0
 10
0.0
 20
0.0
 30
0.0
  3
$ARROW5$
  1

  0
LINE
  5
6E
  8
0
 10
12.7
 20
12.7
 30
0.0
 11
-12.7
 21
-12.7
 31
0.0
  0
LINE
  5
6F
  8
0
 10
-12.7
 20
12.7
 30
0.0
 11
12.7
 21
-12.7
 31
0.0
  0
ENDBLK
  5
2A2
  8
0
  0
BLOCK
  8
0
  2
A$C3232
 70
     0
 10
0.0
 20
0.0
 30
0.0
  3
A$C3232
  1

  0
POLYLINE
  5
73
  8
0
 62
     1
 66
     1
 10
0.0
 20
0.0
 30
0.0
 70
     1
  0
VERTEX
  5
206
  8
0
 62
     1
 10
-18.33787
 20
25.14375
 30
0.0
  0
VERTEX
  5
207
  8
0
 62
     1
 10
-18.33787
 20
55.64375
 30
0.0
  0
VERTEX
  5
208
  8
0
 62
     1
 10
-18.32556
 20
55.80017
 30
0.0
  0
VERTEX
  5
209
  8
0
 62
     1
 10
-18.28893
 20
55.95275
 30
0.0
  0
VERTEX
  5
20A
  8
0
 62
     1
 10
-18.22889
 20
56.09772
 30
0.0
  0
VERTEX
  5
20B
  8
0
 62
     1
 10
-18.14691
 20
56.23152
 30
0.0
  0
VERTEX
  5
20C
  8
0
 62
     1
 10
-18.04499
 20
56.35085
 30
0.0
  0
VERTEX
  5
20D
  8
0
 62
     1
 10
-18.04498
 20
56.35086
 30
0.0
  0
VERTEX
  5
20E
  8
0
 62
     1
 10
-17.92567
 20
56.45276
 30
0.0
  0
VERTEX
  5
20F
  8
0
 62
     1
 10
-17.79188
 20
56.53475
 30
0.0
  0
VERTEX
  5
210
  8
0
 62
     1
 10
-17.64691
 20
56.5948
 30
0.0
  0
VERTEX
  5
211
  8
0
 62
     1
 10
-17.49432
 20
56.63144
 30
0.0
  0
VERTEX
  5
212
  8
0
 62
     1
 10
-17.33789
 20
56.64375
 30
0.0
  0
VERTEX
  5
213
  8
0
 62
     1
 10
-17.33787
 20
56.64375
 30
0.0
  0
VERTEX
  5
214
  8
0
 62
     1
 10
-7.83787
 20
56.64375
 30
0.0
  0
VERTEX
  5
215
  8
0
 62
     1
 10
-7.68144
 20
56.63144
 30
0.0
  0
VERTEX
  5
216
  8
0
 62
     1
 10
-7.52886
 20
56.59481
 30
0.0
  0
VERTEX
  5
217
  8
0
 62
     1
 10
-7.38388
 20
56.53476
 30
0.0
  0
VERTEX
  5
218
  8
0
 62
     1
 10
-7.25008
 20
56.45277
 30
0.0
  0
VERTEX
  5
219
  8
0
 62
     1
 10
-7.13076
 20
56.35086
 30
0.0
  0
VERTEX
  5
21A
  8
0
 62
     1
 10
-7.02885
 20
56.23154
 30
0.0
  0
VERTEX
  5
21B
  8
0
 62
     1
 10
-6.94686
 20
56.09775
 30
0.0
  0
VERTEX
  5
21C
  8
0
 62
     1
 10
-6.88682
 20
55.95278
 30
0.0
  0
VERTEX
  5
21D
  8
0
 62
     1
 10
-6.85018
 20
55.8002
 30
0.0
  0
VERTEX
  5
21E
  8
0
 62
     1
 10
-6.83787
 20
55.64375
 30
0.0
  0
VERTEX
  5
21F
  8
0
 62
     1
 10
-6.83787
 20
25.14375
 30
0.0
  0
VERTEX
  5
220
  8
0
 62
     1
 10
-6.85018
 20
24.98732
 30
0.0
  0
VERTEX
  5
221
  8
0
 62
     1
 10
-6.88681
 20
24.83474
 30
0.0
  0
VERTEX
  5
222
  8
0
 62
     1
 10
-6.94686
 20
24.68976
 30
0.0
  0
VERTEX
  5
223
  8
0
 62
     1
 10
-7.02884
 20
24.55597
 30
0.0
  0
VERTEX
  5
224
  8
0
 62
     1
 10
-7.13076
 20
24.43664
 30
0.0
  0
VERTEX
  5
225
  8
0
 62
     1
 10
-7.25008
 20
24.33473
 30
0.0
  0
VERTEX
  5
226
  8
0
 62
     1
 10
-7.38387
 20
24.25274
 30
0.0
  0
VERTEX
  5
227
  8
0
 62
     1
 10
-7.52884
 20
24.1927
 30
0.0
  0
VERTEX
  5
228
  8
0
 62
     1
 10
-7.68142
 20
24.15606
 30
0.0
  0
VERTEX
  5
229
  8
0
 62
     1
 10
-7.83787
 20
24.14375
 30
0.0
  0
VERTEX
  5
22A
  8
0
 62
     1
 10
-17.33787
 20
24.14375
 30
0.0
  0
VERTEX
  5
22B
  8
0
 62
     1
 10
-17.4943
 20
24.15606
 30
0.0
  0
VERTEX
  5
22C
  8
0
 62
     1
 10
-17.64688
 20
24.19269
 30
0.0
  0
VERTEX
  5
22D
  8
0
 62
     1
 10
-17.79186
 20
24.25274
 30
0.0
  0
VERTEX
  5
22E
  8
0
 62
     1
 10
-17.92565
 20
24.33472
 30
0.0
  0
VERTEX
  5
22F
  8
0
 62
     1
 10
-18.04498
 20
24.43664
 30
0.0
  0
VERTEX
  5
230
  8
0
 62
     1
 10
-18.14689
 20
24.55596
 30
0.0
  0
VERTEX
  5
231
  8
0
 62
     1
 10
-18.22888
 20
24.68975
 30
0.0
  0
VERTEX
  5
232
  8
0
 62
     1
 10
-18.28892
 20
24.83472
 30
0.0
  0
VERTEX
  5
233
  8
0
 62
     1
 10
-18.32556
 20
24.9873
 30
0.0
  0
VERTEX
  5
234
  8
0
 62
     1
 10
-18.33787
 20
25.14375
 30
0.0
  0
SEQEND
  5
2A3
  8
0
 62
     1
  0
POLYLINE
  5
A4
  8
0
 62
     1
 66
     1
 10
0.0
 20
0.0
 30
0.0
 70
     1
  0
VERTEX
  5
236
  8
0
 62
     1
 10
-18.33787
 20
-7.35625
 30
0.0
  0
VERTEX
  5
237
  8
0
 62
     1
 10
-18.33787
 20
23.14375
 30
0.0
  0
VERTEX
  5
238
  8
0
 62
     1
 10
-18.32556
 20
23.30017
 30
0.0
  0
VERTEX
  5
239
  8
0
 62
     1
 10
-18.28893
 20
23.45275
 30
0.0
  0
VERTEX
  5
23A
  8
0
 62
     1
 10
-18.22889
 20
23.59772
 30
0.0
  0
VERTEX
  5
23B
  8
0
 62
     1
 10
-18.14691
 20
23.73152
 30
0.0
  0
VERTEX
  5
23C
  8
0
 62
     1
 10
-18.04499
 20
23.85085
 30
0.0
  0
VERTEX
  5
23D
  8
0
 62
     1
 10
-18.04498
 20
23.85086
 30
0.0
  0
VERTEX
  5
23E
  8
0
 62
     1
 10
-17.92567
 20
23.95276
 30
0.0
  0
VERTEX
  5
23F
  8
0
 62
     1
 10
-17.79188
 20
24.03475
 30
0.0
  0
VERTEX
  5
240
  8
0
 62
     1
 10
-17.64691
 20
24.0948
 30
0.0
  0
VERTEX
  5
241
  8
0
 62
     1
 10
-17.49432
 20
24.13144
 30
0.0
  0
VERTEX
  5
242
  8
0
 62
     1
 10
-17.33789
 20
24.14375
 30
0.0
  0
VERTEX
  5
243
  8
0
 62
     1
 10
-17.33787
 20
24.14375
 30
0.0
  0
VERTEX
  5
244
  8
0
 62
     1
 10
-7.83787
 20
24.14375
 30
0.0
  0
VERTEX
  5
245
  8
0
 62
     1
 10
-7.68144
 20
24.13144
 30
0.0
  0
VERTEX
  5
246
  8
0
 62
     1
 10
-7.52886
 20
24.09481
 30
0.0
  0
VERTEX
  5
247
  8
0
 62
     1
 10
-7.38388
 20
24.03476
 30
0.0
  0
VERTEX
  5
248
  8
0
 62
     1
 10
-7.25008
 20
23.95277
 30
0.0
  0
VERTEX
  5
249
  8
0
 62
     1
 10
-7.13076
 20
23.85086
 30
0.0
  0
VERTEX
  5
24A
  8
0
 62
     1
 10
-7.02885
 20
23.73154
 30
0.0
  0
VERTEX
  5
24B
  8
0
 62
     1
 10
-6.94686
 20
23.59775
 30
0.0
  0
VERTEX
  5
24C
  8
0
 62
     1
 10
-6.88682
 20
23.45278
 30
0.0
  0
VERTEX
  5
24D
  8
0
 62
     1
 10
-6.85018
 20
23.3002
 30
0.0
  0
VERTEX
  5
24E
  8
0
 62
     1
 10
-6.83787
 20
23.14375
 30
0.0
  0
VERTEX
  5
24F
  8
0
 62
     1
 10
-6.83787
 20
-7.35625
 30
0.0
  0
VERTEX
  5
250
  8
0
 62
     1
 10
-6.85018
 20
-7.51268
 30
0.0
  0
VERTEX
  5
251
  8
0
 62
     1
 10
-6.88681
 20
-7.66526
 30
0.0
  0
VERTEX
  5
252
  8
0
 62
     1
 10
-6.94686
 20
-7.81024
 30
0.0
  0
VERTEX
  5
253
  8
0
 62
     1
 10
-7.02884
 20
-7.94403
 30
0.0
  0
VERTEX
  5
254
  8
0
 62
     1
 10
-7.13076
 20
-8.063359999999999
 30
0.0
  0
VERTEX
  5
255
  8
0
 62
     1
 10
-7.25008
 20
-8.16527
 30
0.0
  0
VERTEX
  5
256
  8
0
 62
     1
 10
-7.38387
 20
-8.247260000000001
 30
0.0
  0
VERTEX
  5
257
  8
0
 62
     1
 10
-7.52884
 20
-8.3073
 30
0.0
  0
VERTEX
  5
258
  8
0
 62
     1
 10
-7.68142
 20
-8.34394
 30
0.0
  0
VERTEX
  5
259
  8
0
 62
     1
 10
-7.83787
 20
-8.356249999999999
 30
0.0
  0
VERTEX
  5
25A
  8
0
 62
     1
 10
-17.33787
 20
-8.356249999999999
 30
0.0
  0
VERTEX
  5
25B
  8
0
 62
     1
 10
-17.4943
 20
-8.34394
 30
0.0
  0
VERTEX
  5
25C
  8
0
 62
     1
 10
-17.64688
 20
-8.307309999999999
 30
0.0
  0
VERTEX
  5
25D
  8
0
 62
     1
 10
-17.79186
 20
-8.247260000000001
 30
0.0
  0
VERTEX
  5
25E
  8
0
 62
     1
 10
-17.92565
 20
-8.165279999999999
 30
0.0
  0
VERTEX
  5
25F
  8
0
 62
     1
 10
-18.04498
 20
-8.063359999999999
 30
0.0
  0
VERTEX
  5
260
  8
0
 62
     1
 10
-18.14689
 20
-7.94404
 30
0.0
  0
VERTEX
  5
261
  8
0
 62
     1
 10
-18.22888
 20
-7.81025
 30
0.0
  0
VERTEX
  5
262
  8
0
 62
     1
 10
-18.28892
 20
-7.66528
 30
0.0
  0
VERTEX
  5
263
  8
0
 62
     1
 10
-18.32556
 20
-7.5127
 30
0.0
  0
VERTEX
  5
264
  8
0
 62
     1
 10
-18.33787
 20
-7.35625
 30
0.0
  0
SEQEND
  5
2A4
  8
0
 62
     1
  0
ENDBLK
  5
2A6
  8
0
  0
ENDSEC
  0
SECTION
  2
ENTITIES
  0
LINE
  5
D6
  8
GUIDE
 10
37.360652
 20
-66.2026
 30
0.0
 11
37.360652
 21
-93.40260000000001
 31
0.0
  0
LINE
  5
D7
  8
GUIDE
 10
40.360652
 20
-78.3026
 30
0.0
 11
40.360652
 21
-81.3026
 31
0.0
  0
LINE
  5
D8
  8
GUIDE
 10
-35.779298
 20
-73.8026
 30
0.0
 11
-35.779298
 21
-75.8026
 31
0.0
  0
LINE
  5
D9
  8
GUIDE
 10
10.900602
 20
-73.8026
 30
0.0
 11
10.900602
 21
-75.8026
 31
0.0
  0
LINE
  5
DA
  8
GUIDE
 10
-59.139348
 20
-93.40260000000001
 30
0.0
 11
37.360652
 21
-93.40260000000001
 31
0.0
  0
LINE
  5
DB
  8
GUIDE
 10
-59.139348
 20
-66.2026
 30
0.0
 11
37.360652
 21
-66.2026
 31
0.0
  0
LINE
  5
DC
  8
GUIDE
 10
-35.779298
 20
-73.8026
 30
0.0
 11
10.900602
 21
-73.8026
 31
0.0
  0
LINE
  5
DD
  8
GUIDE
 10
-35.779298
 20
-85.8026
 30
0.0
 11
10.900602
 21
-85.8026
 31
0.0
  0
LINE
  5
DE
  8
GUIDE
 10
-35.779298
 20
-75.8026
 30
0.0
 11
10.900602
 21
-75.8026
 31
0.0
  0
LINE
  5
DF
  8
GUIDE
 10
-35.779298
 20
-83.8026
 30
0.0
 11
10.900602
 21
-83.8026
 31
0.0
  0
LINE
  5
E0
  8
GUIDE
 10
-35.779298
 20
-83.8026
 30
0.0
 11
-35.779298
 21
-85.8026
 31
0.0
  0
LINE
  5
E1
  8
GUIDE
 10
10.900602
 20
-83.8026
 30
0.0
 11
10.900602
 21
-85.8026
 31
0.0
  0
LINE
  5
E2
  8
GUIDE
 10
-15.939348
 20
-75.8026
 30
0.0
 11
-15.939348
 21
-83.8026
 31
0.0
  0
LINE
  5
E3
  8
GUIDE
 10
-8.939348000000001
 20
-75.8026
 30
0.0
 11
-8.939348000000001
 21
-83.8026
 31
0.0
  0
LINE
  5
E4
  8
GUIDE
 10
37.360652
 20
-81.3026
 30
0.0
 11
40.360652
 21
-81.3026
 31
0.0
  0
LINE
  5
E5
  8
GUIDE
 10
37.360652
 20
-78.3026
 30
0.0
 11
40.360652
 21
-78.3026
 31
0.0
  0
LINE
  5
E6
  8
GUIDE
 10
-17.439348
 20
-73.8026
 30
0.0
 11
-7.439348
 21
-73.8026
 31
0.0
  0
ARC
  5
E7
  8
GUIDE
 10
-12.439348
 20
-84.21404
 30
0.0
 40
3.5
 50
206.992554
 51
333.007431
  0
ARC
  5
E8
  8
GUIDE
 10
-12.439348
 20
-81.65853
 30
0.0
 40
9.095050000000001
 50
59.741226
 51
120.258774
  0
ARC
  5
E9
  8
GUIDE
 10
-54.139348
 20
-70.0026
 30
0.0
 40
5.75
 50
150.408157
 51
209.591843
  0
ARC
  5
EA
  8
GUIDE
 10
-54.139348
 20
-70.0026
 30
0.0
 40
5.75
 50
41.366226
 51
138.633774
  0
ARC
  5
EB
  8
GUIDE
 10
-42.039348
 20
-70.0026
 30
0.0
 40
5.75
 50
41.366226
 51
138.633774
  0
ARC
  5
EC
  8
GUIDE
 10
-29.939348
 20
-70.0026
 30
0.0
 40
5.75
 50
41.366226
 51
138.633774
  0
ARC
  5
ED
  8
GUIDE
 10
-17.839348
 20
-70.0026
 30
0.0
 40
5.75
 50
41.366226
 51
138.633774
  0
ARC
  5
EE
  8
GUIDE
 10
-5.739348
 20
-70.0026
 30
0.0
 40
5.75
 50
41.366226
 51
138.633774
  0
ARC
  5
EF
  8
GUIDE
 10
6.360652
 20
-70.0026
 30
0.0
 40
5.75
 50
41.366226
 51
138.633774
  0
ARC
  5
F0
  8
GUIDE
 10
18.460652
 20
-70.0026
 30
0.0
 40
5.75
 50
41.366226
 51
138.633774
  0
ARC
  5
F1
  8
GUIDE
 10
30.560652
 20
-70.0026
 30
0.0
 40
5.75
 50
41.366226
 51
138.633774
  0
ARC
  5
F2
  8
GUIDE
 10
-5.739348
 20
-89.6026
 30
0.0
 40
5.75
 50
221.366226
 51
318.633774
  0
ARC
  5
F3
  8
GUIDE
 10
-54.139348
 20
-89.6026
 30
0.0
 40
5.75
 50
221.366226
 51
318.633774
  0
ARC
  5
F4
  8
GUIDE
 10
-29.939348
 20
-89.6026
 30
0.0
 40
5.75
 50
221.366226
 51
318.633774
  0
ARC
  5
F5
  8
GUIDE
 10
-42.039348
 20
-89.6026
 30
0.0
 40
5.75
 50
221.366226
 51
318.633774
  0
ARC
  5
F6
  8
GUIDE
 10
-17.839348
 20
-89.6026
 30
0.0
 40
5.75
 50
221.366226
 51
318.633774
  0
ARC
  5
F7
  8
GUIDE
 10
18.460652
 20
-89.6026
 30
0.0
 40
5.75
 50
221.366226
 51
318.633774
  0
ARC
  5
F8
  8
GUIDE
 10
6.360652
 20
-89.6026
 30
0.0
 40
5.75
 50
221.366226
 51
318.633774
  0
ARC
  5
F9
  8
GUIDE
 10
30.560652
 20
-89.6026
 30
0.0
 40
5.75
 50
221.366226
 51
318.633774
  0
ARC
  5
FA
  8
GUIDE
 10
-54.139348
 20
-89.6026
 30
0.0
 40
5.75
 50
150.408157
 51
209.591843
  0
LINE
  5
FB
  8
GUIDE
 10
-59.089348
 20
38.6026
 30
0.0
 11
37.410652
 21
38.6026
 31
0.0
  0
LINE
  5
FC
  8
GUIDE
 10
-59.089348
 20
-27.3974
 30
0.0
 11
37.410652
 21
-27.3974
 31
0.0
  0
LINE
  5
FD
  8
GUIDE
 10
-62.289348
 20
42.8526
 30
0.0
 11
37.410652
 21
42.8526
 31
0.0
  0
LINE
  5
FE
  8
GUIDE
 10
-62.289348
 20
-31.6474
 30
0.0
 11
37.410652
 21
-31.6474
 31
0.0
  0
LINE
  5
FF
  8
GUIDE
 10
37.410652
 20
42.8526
 30
0.0
 11
37.410652
 21
38.6026
 31
0.0
  0
LINE
  5
100
  8
GUIDE
 10
-62.289348
 20
-31.6474
 30
0.0
 11
-62.289348
 21
42.8526
 31
0.0
  0
LINE
  5
101
  8
GUIDE
 10
37.410652
 20
-27.3974
 30
0.0
 11
37.410652
 21
-31.6474
 31
0.0
  0
LINE
  5
102
  8
GUIDE
 10
-53.189348
 20
38.6026
 30
0.0
 11
-53.189348
 21
42.8526
 31
0.0
  0
LINE
  5
103
  8
GUIDE
 10
-55.189348
 20
38.6026
 30
0.0
 11
-55.189348
 21
42.8526
 31
0.0
  0
LINE
  5
104
  8
GUIDE
 10
-43.089348
 20
38.6026
 30
0.0
 11
-43.089348
 21
42.8526
 31
0.0
  0
LINE
  5
105
  8
GUIDE
 10
-41.089348
 20
38.6026
 30
0.0
 11
-41.089348
 21
42.8526
 31
0.0
  0
LINE
  5
106
  8
GUIDE
 10
-31.089348
 20
38.6026
 30
0.0
 11
-31.089348
 21
42.8526
 31
0.0
  0
LINE
  5
107
  8
GUIDE
 10
-29.089348
 20
38.6026
 30
0.0
 11
-29.089348
 21
42.8526
 31
0.0
  0
LINE
  5
108
  8
GUIDE
 10
-18.989348
 20
38.6026
 30
0.0
 11
-18.989348
 21
42.8526
 31
0.0
  0
LINE
  5
109
  8
GUIDE
 10
-16.989348
 20
38.6026
 30
0.0
 11
-16.989348
 21
42.8526
 31
0.0
  0
LINE
  5
10A
  8
GUIDE
 10
-6.889348
 20
38.6026
 30
0.0
 11
-6.889348
 21
42.8526
 31
0.0
  0
LINE
  5
10B
  8
GUIDE
 10
-4.889348
 20
38.6026
 30
0.0
 11
-4.889348
 21
42.8526
 31
0.0
  0
LINE
  5
10C
  8
GUIDE
 10
5.210652
 20
38.6026
 30
0.0
 11
5.210652
 21
42.8526
 31
0.0
  0
LINE
  5
10D
  8
GUIDE
 10
7.210652
 20
38.6026
 30
0.0
 11
7.210652
 21
42.8526
 31
0.0
  0
LINE
  5
10E
  8
GUIDE
 10
5.210652
 20
-31.6474
 30
0.0
 11
5.210652
 21
-27.3974
 31
0.0
  0
LINE
  5
10F
  8
GUIDE
 10
7.210652
 20
-31.6474
 30
0.0
 11
7.210652
 21
-27.3974
 31
0.0
  0
LINE
  5
110
  8
GUIDE
 10
-6.889348
 20
-27.3974
 30
0.0
 11
-6.889348
 21
-31.6474
 31
0.0
  0
LINE
  5
111
  8
GUIDE
 10
-4.889348
 20
-27.3974
 30
0.0
 11
-4.889348
 21
-31.6474
 31
0.0
  0
LINE
  5
112
  8
GUIDE
 10
-16.989348
 20
-27.3974
 30
0.0
 11
-16.989348
 21
-31.6474
 31
0.0
  0
LINE
  5
113
  8
GUIDE
 10
-18.989348
 20
-27.3974
 30
0.0
 11
-18.989348
 21
-31.6474
 31
0.0
  0
LINE
  5
114
  8
GUIDE
 10
-31.089348
 20
-31.6474
 30
0.0
 11
-31.089348
 21
-27.3974
 31
0.0
  0
LINE
  5
115
  8
GUIDE
 10
-29.089348
 20
-31.6474
 30
0.0
 11
-29.089348
 21
-27.3974
 31
0.0
  0
LINE
  5
116
  8
GUIDE
 10
-41.089348
 20
-27.3974
 30
0.0
 11
-41.089348
 21
-31.6474
 31
0.0
  0
LINE
  5
117
  8
GUIDE
 10
-43.089348
 20
-27.3974
 30
0.0
 11
-43.089348
 21
-31.6474
 31
0.0
  0
LINE
  5
118
  8
GUIDE
 10
-53.189348
 20
-27.3974
 30
0.0
 11
-53.189348
 21
-31.6474
 31
0.0
  0
LINE
  5
119
  8
GUIDE
 10
-55.189348
 20
-27.3974
 30
0.0
 11
-55.189348
 21
-31.6474
 31
0.0
  0
LINE
  5
11A
  8
GUIDE
 10
-59.089348
 20
38.6026
 30
0.0
 11
-59.089348
 21
42.8526
 31
0.0
  0
LINE
  5
11B
  8
GUIDE
 10
-59.089348
 20
-27.3974
 30
0.0
 11
-59.089348
 21
-31.6474
 31
0.0
  0
LINE
  5
11C
  8
GUIDE
 10
36.910652
 20
38.1026
 30
0.0
 11
40.410652
 21
38.1026
 31
0.0
  0
LINE
  5
11D
  8
GUIDE
 10
40.410652
 20
38.1026
 30
0.0
 11
40.410652
 21
-26.8974
 31
0.0
  0
ARC
  5
11E
  8
GUIDE
 10
36.808302
 20
38.73266
 30
0.0
 40
0.63831
 50
191.755997
 51
279.227081
  0
LINE
  5
11F
  8
GUIDE
 10
36.910652
 20
-26.8974
 30
0.0
 11
40.410652
 21
-26.8974
 31
0.0
  0
ARC
  5
120
  8
GUIDE
 10
36.808302
 20
-27.52745
 30
0.0
 40
0.63831
 50
80.772919
 51
168.244003
  0
LINE
  5
121
  8
GUIDE
 10
19.310652
 20
38.6026
 30
0.0
 11
19.310652
 21
42.8526
 31
0.0
  0
LINE
  5
122
  8
GUIDE
 10
17.310652
 20
38.6026
 30
0.0
 11
17.310652
 21
42.8526
 31
0.0
  0
LINE
  5
123
  8
GUIDE
 10
31.410652
 20
38.6026
 30
0.0
 11
31.410652
 21
42.8526
 31
0.0
  0
LINE
  5
124
  8
GUIDE
 10
29.410652
 20
38.6026
 30
0.0
 11
29.410652
 21
42.8526
 31
0.0
  0
LINE
  5
125
  8
GUIDE
 10
19.310652
 20
-27.3974
 30
0.0
 11
19.310652
 21
-31.6474
 31
0.0
  0
LINE
  5
126
  8
GUIDE
 10
17.310652
 20
-27.3974
 30
0.0
 11
17.310652
 21
-31.6474
 31
0.0
  0
LINE
  5
127
  8
GUIDE
 10
31.410652
 20
-31.6474
 30
0.0
 11
31.410652
 21
-27.3974
 31
0.0
  0
LINE
  5
128
  8
GUIDE
 10
29.410652
 20
-31.6474
 30
0.0
 11
29.410652
 21
-27.3974
 31
0.0
  0
CIRCLE
  5
129
  8
GUIDE
 10
-12.389348
 20
89.3526
 30
0.0
 40
3.5
  0
LINE
  5
12A
  8
GUIDE
 10
-32.992798
 20
44.62314
 30
0.0
 11
-18.168578
 21
90.96519000000001
 31
0.0
  0
ARC
  5
12B
  8
GUIDE
 10
-35.729298
 20
45.8526
 30
0.0
 40
3.0
 50
270.0
 51
335.806305
  0
ARC
  5
12C
  8
GUIDE
 10
10.950602
 20
45.8526
 30
0.0
 40
3.0
 50
204.193695
 51
270.0
  0
ARC
  5
12D
  8
GUIDE
 10
-12.389348
 20
89.3526
 30
0.0
 40
6.0
 50
15.59079
 51
164.40921
  0
LINE
  5
12E
  8
GUIDE
 10
8.214102000000001
 20
44.62314
 30
0.0
 11
-6.610108
 21
90.96519000000001
 31
0.0
  0
LINE
  5
12F
  8
GUIDE
 10
-15.853448
 20
89.8526
 30
0.0
 11
-8.925248
 21
89.8526
 31
0.0
  0
LINE
  5
130
  8
GUIDE
 10
-15.853448
 20
88.8526
 30
0.0
 11
-8.889348
 21
88.8526
 31
0.0
  0
POLYLINE
  5
131
  8
GUIDE
 66
     1
 10
0.0
 20
0.0
 30
0.0
 70
     1
  0
VERTEX
  5
1B9
  8
GUIDE
 10
-8.389348
 20
37.8026
 30
0.0
  0
VERTEX
  5
1BA
  8
GUIDE
 10
-8.389348
 20
38.6026
 30
0.0
  0
VERTEX
  5
1BB
  8
GUIDE
 10
-3.389348
 20
38.6026
 30
0.0
  0
VERTEX
  5
1BC
  8
GUIDE
 10
-3.389348
 20
37.8026
 30
0.0
  0
SEQEND
  5
2A7
  8
GUIDE
  0
LINE
  5
137
  8
GUIDE
 10
-44.589348
 20
38.6026
 30
0.0
 11
-44.589348
 21
37.8026
 31
0.0
  0
LINE
  5
138
  8
GUIDE
 10
-39.589348
 20
37.8026
 30
0.0
 11
-39.589348
 21
38.6026
 31
0.0
  0
LINE
  5
139
  8
GUIDE
 10
-39.589348
 20
38.6026
 30
0.0
 11
-44.589348
 21
38.6026
 31
0.0
  0
POLYLINE
  5
13A
  8
GUIDE
 66
     1
 10
0.0
 20
0.0
 30
0.0
 70
     1
  0
VERTEX
  5
1BE
  8
GUIDE
 10
-56.689348
 20
37.6526
 30
0.0
  0
VERTEX
  5
1BF
  8
GUIDE
 10
-56.689348
 20
38.6026
 30
0.0
  0
VERTEX
  5
1C0
  8
GUIDE
 10
-51.689348
 20
38.6026
 30
0.0
  0
VERTEX
  5
1C1
  8
GUIDE
 10
-51.689348
 20
37.6526
 30
0.0
  0
SEQEND
  5
2A8
  8
GUIDE
  0
LINE
  5
140
  8
GUIDE
 10
-20.489348
 20
38.6026
 30
0.0
 11
-20.489348
 21
37.8026
 31
0.0
  0
LINE
  5
141
  8
GUIDE
 10
-15.489348
 20
37.8026
 30
0.0
 11
-15.489348
 21
38.6026
 31
0.0
  0
LINE
  5
142
  8
GUIDE
 10
-15.489348
 20
38.6026
 30
0.0
 11
-20.489348
 21
38.6026
 31
0.0
  0
POLYLINE
  5
143
  8
GUIDE
 66
     1
 10
0.0
 20
0.0
 30
0.0
 70
     1
  0
VERTEX
  5
1C3
  8
GUIDE
 10
-32.589348
 20
37.8026
 30
0.0
  0
VERTEX
  5
1C4
  8
GUIDE
 10
-32.589348
 20
38.6026
 30
0.0
  0
VERTEX
  5
1C5
  8
GUIDE
 10
-27.589348
 20
38.6026
 30
0.0
  0
VERTEX
  5
1C6
  8
GUIDE
 10
-27.589348
 20
37.8026
 30
0.0
  0
SEQEND
  5
2A9
  8
GUIDE
  0
POLYLINE
  5
149
  8
GUIDE
 66
     1
 10
0.0
 20
0.0
 30
0.0
 70
     1
  0
VERTEX
  5
1C8
  8
GUIDE
 10
15.810652
 20
37.8026
 30
0.0
  0
VERTEX
  5
1C9
  8
GUIDE
 10
15.810652
 20
38.6026
 30
0.0
  0
VERTEX
  5
1CA
  8
GUIDE
 10
20.810652
 20
38.6026
 30
0.0
  0
VERTEX
  5
1CB
  8
GUIDE
 10
20.810652
 20
37.8026
 30
0.0
  0
SEQEND
  5
2AA
  8
GUIDE
  0
LINE
  5
14F
  8
GUIDE
 10
3.710652
 20
38.6026
 30
0.0
 11
3.710652
 21
37.8026
 31
0.0
  0
LINE
  5
150
  8
GUIDE
 10
8.710652
 20
37.8026
 30
0.0
 11
8.710652
 21
38.6026
 31
0.0
  0
LINE
  5
151
  8
GUIDE
 10
8.710652
 20
38.6026
 30
0.0
 11
3.710652
 21
38.6026
 31
0.0
  0
LINE
  5
152
  8
GUIDE
 10
27.910652
 20
38.6026
 30
0.0
 11
27.910652
 21
37.8026
 31
0.0
  0
LINE
  5
153
  8
GUIDE
 10
32.910652
 20
37.8026
 30
0.0
 11
32.910652
 21
38.6026
 31
0.0
  0
LINE
  5
154
  8
GUIDE
 10
32.910652
 20
38.6026
 30
0.0
 11
27.910652
 21
38.6026
 31
0.0
  0
INSERT
  5
155
  8
GUIDE
  2
A$C3232
 10
-41.601478
 20
-18.99115
 30
0.0
  0
INSERT
  5
156
  8
GUIDE
  2
A$C3232
 10
-29.501478
 20
-18.99115
 30
0.0
  0
INSERT
  5
157
  8
GUIDE
  2
A$C3232
 10
-17.401478
 20
-18.99115
 30
0.0
  0
INSERT
  5
158
  8
GUIDE
  2
A$C3232
 10
-5.301478
 20
-18.99115
 30
0.0
  0
INSERT
  5
159
  8
GUIDE
  2
A$C3232
 10
6.798522
 20
-18.99115
 30
0.0
  0
INSERT
  5
15A
  8
GUIDE
  2
A$C3232
 10
18.898522
 20
-18.99115
 30
0.0
  0
INSERT
  5
15B
  8
GUIDE
  2
A$C3232
 10
30.998522
 20
-18.99115
 30
0.0
  0
INSERT
  5
15C
  8
GUIDE
  2
A$C3232
 10
43.098522
 20
-18.99115
 30
0.0
  0
POLYLINE
  5
15D
  8
GUIDE
 66
     1
 10
0.0
 20
0.0
 30
0.0
 70
     1
  0
VERTEX
  5
1CD
  8
GUIDE
 10
85.918302
 20
37.6026
 30
0.0
  0
VERTEX
  5
1CE
  8
GUIDE
 10
85.918302
 20
38.1026
 30
0.0
  0
VERTEX
  5
1CF
  8
GUIDE
 10
90.918302
 20
38.1026
 30
0.0
  0
VERTEX
  5
1D0
  8
GUIDE
 10
90.918302
 20
37.6026
 30
0.0
  0
SEQEND
  5
2AB
  8
GUIDE
  0
LINE
  5
163
  8
GUIDE
 10
78.618302
 20
-31.6474
 30
0.0
 11
92.21830199999999
 21
-31.6474
 31
0.0
  0
ARC
  5
164
  8
GUIDE
 10
90.978692
 20
-28.61409
 30
0.0
 40
1.24006
 50
358.460831
 51
78.85878000000001
  0
LINE
  5
165
  8
GUIDE
 10
92.21830199999999
 20
-28.6474
 30
0.0
 11
92.21830199999999
 21
-31.6474
 31
0.0
  0
LINE
  5
166
  8
GUIDE
 10
92.21830199999999
 20
42.3526
 30
0.0
 11
92.21830199999999
 21
39.1026
 31
0.0
  0
ARC
  5
167
  8
GUIDE
 10
91.21830199999999
 20
39.1026
 30
0.0
 40
1.0
 50
270.0
 51
0.0
  0
LINE
  5
168
  8
GUIDE
 10
91.21830199999999
 20
38.1026
 30
0.0
 11
81.618302
 21
38.1026
 31
0.0
  0
ARC
  5
169
  8
GUIDE
 10
81.618302
 20
37.1026
 30
0.0
 40
1.0
 50
90.0
 51
180.0
  0
LINE
  5
16A
  8
GUIDE
 10
80.618302
 20
37.1026
 30
0.0
 11
80.618302
 21
-26.3974
 31
0.0
  0
ARC
  5
16B
  8
GUIDE
 10
81.618302
 20
-26.3974
 30
0.0
 40
1.0
 50
180.0
 51
270.0
  0
LINE
  5
16C
  8
GUIDE
 10
81.618302
 20
-27.3974
 30
0.0
 11
91.21830199999999
 21
-27.3974
 31
0.0
  0
LINE
  5
16D
  8
GUIDE
 10
78.618302
 20
-31.6474
 30
0.0
 11
65.01830200000001
 21
-31.6474
 31
0.0
  0
LINE
  5
16E
  8
GUIDE
 10
76.618302
 20
37.1026
 30
0.0
 11
76.618302
 21
-26.3974
 31
0.0
  0
LINE
  5
16F
  8
GUIDE
 10
75.618302
 20
-27.3974
 30
0.0
 11
66.01830200000001
 21
-27.3974
 31
0.0
  0
ARC
  5
170
  8
GUIDE
 10
75.618302
 20
-26.3974
 30
0.0
 40
1.0
 50
270.0
 51
0.0
  0
LINE
  5
171
  8
GUIDE
 10
65.01830200000001
 20
-28.6474
 30
0.0
 11
65.01830200000001
 21
-31.6474
 31
0.0
  0
ARC
  5
172
  8
GUIDE
 10
66.25791200000001
 20
-28.61409
 30
0.0
 40
1.24006
 50
101.14122
 51
181.539169
  0
LINE
  5
173
  8
GUIDE
 10
66.01830200000001
 20
38.1026
 30
0.0
 11
75.618302
 21
38.1026
 31
0.0
  0
POLYLINE
  5
174
  8
GUIDE
 66
     1
 10
0.0
 20
0.0
 30
0.0
 70
     1
  0
VERTEX
  5
1D2
  8
GUIDE
 10
71.318302
 20
37.6026
 30
0.0
  0
VERTEX
  5
1D3
  8
GUIDE
 10
71.318302
 20
38.1026
 30
0.0
  0
VERTEX
  5
1D4
  8
GUIDE
 10
66.318302
 20
38.1026
 30
0.0
  0
VERTEX
  5
1D5
  8
GUIDE
 10
66.318302
 20
37.6026
 30
0.0
  0
SEQEND
  5
2AC
  8
GUIDE
  0
ARC
  5
17A
  8
GUIDE
 10
75.618302
 20
37.1026
 30
0.0
 40
1.0
 50
0.0
 51
90.0
  0
LINE
  5
17B
  8
GUIDE
 10
65.01830200000001
 20
42.3526
 30
0.0
 11
65.01830200000001
 21
39.1026
 31
0.0
  0
ARC
  5
17C
  8
GUIDE
 10
66.01830200000001
 20
39.1026
 30
0.0
 40
1.0
 50
180.0
 51
270.0
  0
LINE
  5
17D
  8
GUIDE
 10
74.94009200000001
 20
93.96943
 30
0.0
 11
72.94009200000001
 21
93.96943
 31
0.0
  0
LINE
  5
17E
  8
GUIDE
 10
72.94009200000001
 20
93.96943
 30
0.0
 11
72.94009200000001
 21
83.96943
 31
0.0
  0
ARC
  5
17F
  8
GUIDE
 10
74.528662
 20
88.96943
 30
0.0
 40
3.5
 50
116.992554
 51
243.007431
  0
LINE
  5
180
  8
GUIDE
 10
84.94009200000001
 20
93.96943
 30
0.0
 11
82.94009200000001
 21
93.96943
 31
0.0
  0
LINE
  5
181
  8
GUIDE
 10
82.94009200000001
 20
93.96943
 30
0.0
 11
82.94009200000001
 21
83.96943
 31
0.0
  0
LINE
  5
182
  8
GUIDE
 10
74.94009200000001
 20
93.96943
 30
0.0
 11
74.94009200000001
 21
83.96943
 31
0.0
  0
LINE
  5
183
  8
GUIDE
 10
82.94009200000001
 20
91.96943
 30
0.0
 11
74.94009200000001
 21
91.96943
 31
0.0
  0
ARC
  5
184
  8
GUIDE
 10
77.084172
 20
88.96943
 30
0.0
 40
9.095050000000001
 50
329.741226
 51
30.258774
  0
LINE
  5
185
  8
GUIDE
 10
84.94009200000001
 20
93.96943
 30
0.0
 11
84.94009200000001
 21
83.96943
 31
0.0
  0
LINE
  5
186
  8
GUIDE
 10
72.94009200000001
 20
83.96943
 30
0.0
 11
72.94009200000001
 21
42.46943
 31
0.0
  0
LINE
  5
187
  8
GUIDE
 10
72.94009200000001
 20
83.96943
 30
0.0
 11
66.340092
 21
42.46943
 31
0.0
  0
LINE
  5
188
  8
GUIDE
 10
82.94009200000001
 20
83.96943
 30
0.0
 11
82.94009200000001
 21
42.46943
 31
0.0
  0
LINE
  5
189
  8
GUIDE
 10
74.94009200000001
 20
83.96943
 30
0.0
 11
74.94009200000001
 21
42.46943
 31
0.0
  0
LINE
  5
18A
  8
GUIDE
 10
84.94009200000001
 20
83.96943
 30
0.0
 11
84.94009200000001
 21
42.46943
 31
0.0
  0
LINE
  5
18B
  8
GUIDE
 10
84.94009200000001
 20
83.96943
 30
0.0
 11
91.540092
 21
42.46943
 31
0.0
  0
INSERT
  5
18C
  8
GUIDE
  2
A$C3232
 10
101.006172
 20
-19.04115
 30
0.0
  0
INSERT
  5
18D
  8
GUIDE
  2
A$C3232
 10
81.406172
 20
-19.04115
 30
0.0
  0
LINE
  5
18E
  8
GUIDE
 10
65.01830200000001
 20
42.3526
 30
0.0
 11
92.21830199999999
 21
42.3526
 31
0.0
  0
LINE
  5
18F
  8
GUIDE
 10
-62.239348
 20
-78.3026
 30
0.0
 11
-62.239348
 21
-81.3026
 31
0.0
  0
LINE
  5
190
  8
GUIDE
 10
-59.139348
 20
-66.2026
 30
0.0
 11
-59.139348
 21
-78.3026
 31
0.0
  0
LINE
  5
191
  8
GUIDE
 10
-62.239348
 20
-78.3026
 30
0.0
 11
-59.139348
 21
-78.3026
 31
0.0
  0
LINE
  5
192
  8
GUIDE
 10
-62.239348
 20
-81.3026
 30
0.0
 11
-59.139348
 21
-81.3026
 31
0.0
  0
LINE
  5
193
  8
GUIDE
 10
-59.139348
 20
-81.3026
 30
0.0
 11
-59.139348
 21
-93.40260000000001
 31
0.0
  0
LINE
  5
194
  8
GUIDE
 10
-93.23934800000001
 20
-78.3026
 30
0.0
 11
-93.23934800000001
 21
-81.3026
 31
0.0
  0
ARC
  5
195
  8
GUIDE
 10
-61.862608
 20
-112.62795
 30
0.0
 40
46.50516
 50
86.64308200000001
 51
132.430908
  0
ARC
  5
196
  8
GUIDE
 10
-61.862608
 20
-46.97725
 30
0.0
 40
46.50516
 50
227.569092
 51
273.356918
  0
LINE
  5
197
  8
GUIDE
 10
-93.289348
 20
-31.6474
 30
0.0
 11
-93.289348
 21
42.8526
 31
0.0
  0
LINE
  5
198
  8
GUIDE
 10
-62.289348
 20
42.8526
 30
0.0
 11
-93.289348
 21
42.8526
 31
0.0
  0
LINE
  5
199
  8
GUIDE
 10
-62.289348
 20
-31.6474
 30
0.0
 11
-93.289348
 21
-31.6474
 31
0.0
  0
LINE
  5
19A
  8
GUIDE
 10
-37.939348
 20
-31.6474
 30
0.0
 11
-37.939348
 21
-40.1474
 31
0.0
  0
LINE
  5
19B
  8
GUIDE
 10
13.060652
 20
-31.6474
 30
0.0
 11
13.060652
 21
-40.1474
 31
0.0
  0
LINE
  5
19C
  8
GUIDE
 10
-37.939348
 20
-40.1474
 30
0.0
 11
13.060652
 21
-40.1474
 31
0.0
  0
LINE
  5
19D
  8
GUIDE
 10
-37.939348
 20
-33.8474
 30
0.0
 11
13.060652
 21
-33.8474
 31
0.0
  0
LINE
  5
19E
  8
GUIDE
 10
-37.939348
 20
-31.6474
 30
0.0
 11
13.060652
 21
-31.6474
 31
0.0
  0
LINE
  5
19F
  8
GUIDE
 10
70.618302
 20
-40.1474
 30
0.0
 11
86.618302
 21
-40.1474
 31
0.0
  0
LINE
  5
1A0
  8
GUIDE
 10
70.618302
 20
-33.8474
 30
0.0
 11
70.618302
 21
-40.1474
 31
0.0
  0
LINE
  5
1A1
  8
GUIDE
 10
73.96830199999999
 20
-31.6474
 30
0.0
 11
73.96830199999999
 21
-33.8474
 31
0.0
  0
LINE
  5
1A2
  8
GUIDE
 10
86.618302
 20
-33.8474
 30
0.0
 11
86.618302
 21
-40.1474
 31
0.0
  0
LINE
  5
1A3
  8
GUIDE
 10
83.26830200000001
 20
-31.6474
 30
0.0
 11
83.26830200000001
 21
-33.8474
 31
0.0
  0
LINE
  5
1A4
  8
GUIDE
 10
70.618302
 20
-33.8474
 30
0.0
 11
73.96830199999999
 21
-33.8474
 31
0.0
  0
LINE
  5
1A5
  8
GUIDE
 10
83.26830200000001
 20
-33.8474
 30
0.0
 11
86.618302
 21
-33.8474
 31
0.0
  0
LINE
  5
1A6
  8
GUIDE
 10
73.96830199999999
 20
-31.6474
 30
0.0
 11
83.26830200000001
 21
-31.6474
 31
0.0
  0
LINE
  5
1A7
  8
AXIS
 62
     1
 10
-12.439348
 20
-73.8026
 30
0.0
 11
-12.439348
 21
-85.8026
 31
0.0
  0
ENDSEC
  0
EOF
