  0
SECTION
  2
HEADER
  9
$ACADVER
  1
AC1009
  9
$DWGCODEPAGE
  3
ansi_1252
  9
$INSBASE
 10
0.0
 20
0.0
 30
0.0
  9
$EXTMIN
 10
-79.73618
 20
-115.750849
 30
0.0
  9
$EXTMAX
 10
79.73618
 20
115.750849
 30
0.0
  9
$LIMMIN
 10
0.0
 20
0.0
  9
$LIMMAX
 10
12.0
 20
9.0
  9
$ORTHOMODE
 70
     0
  9
$REGENMODE
 70
     1
  9
$FILLMODE
 70
     1
  9
$QTEXTMODE
 70
     0
  9
$MIRRTEXT
 70
     1
  9
$DRAGMODE
 70
     2
  9
$LTSCALE
 40
0.840237
  9
$OSMODE
 70
    37
  9
$ATTMODE
 70
     1
  9
$TEXTSIZE
 40
0.2
  9
$TRACEWID
 40
0.05
  9
$TEXTSTYLE
  7
STANDARD
  9
$CLAYER
  8
0
  9
$CELTYPE
  6
BYBLOCK
  9
$CECOLOR
 62
   256
  9
$DIMSCALE
 40
1.0
  9
$DIMASZ
 40
0.18
  9
$DIMEXO
 40
0.0625
  9
$DIMDLI
 40
0.38
  9
$DIMRND
 40
0.0
  9
$DIMDLE
 40
0.0
  9
$DIMEXE
 40
0.18
  9
$DIMTP
 40
0.0
  9
$DIMTM
 40
0.0
  9
$DIMTXT
 40
0.18
  9
$DIMCEN
 40
0.09
  9
$DIMTSZ
 40
0.0
  9
$DIMTOL
 70
     0
  9
$DIMLIM
 70
     0
  9
$DIMTIH
 70
     1
  9
$DIMTOH
 70
     1
  9
$DIMSE1
 70
     0
  9
$DIMSE2
 70
     0
  9
$DIMTAD
 70
     0
  9
$DIMZIN
 70
     0
  9
$DIMBLK
  1

  9
$DIMASO
 70
     1
  9
$DIMSHO
 70
     1
  9
$DIMPOST
  1

  9
$DIMAPOST
  1

  9
$DIMALT
 70
     0
  9
$DIMALTD
 70
     2
  9
$DIMALTF
 40
25.4
  9
$DIMLFAC
 40
1.0
  9
$DIMTOFL
 70
     0
  9
$DIMTVP
 40
0.0
  9
$DIMTIX
 70
     0
  9
$DIMSOXD
 70
     0
  9
$DIMSAH
 70
     0
  9
$DIMBLK1
  1

  9
$DIMBLK2
  1

  9
$DIMSTYLE
  2
STANDARD
  9
$DIMCLRD
 70
     0
  9
$DIMCLRE
 70
     0
  9
$DIMCLRT
 70
     0
  9
$DIMTFAC
 40
1.0
  9
$DIMGAP
 40
0.09
  9
$LUNITS
 70
     2
  9
$LUPREC
 70
     4
  9
$SKETCHINC
 40
0.1
  9
$FILLETRAD
 40
0.5
  9
$AUNITS
 70
     0
  9
$AUPREC
 70
     0
  9
$MENU
  1
.
  9
$ELEVATION
 40
0.0
  9
$PELEVATION
 40
0.0
  9
$THICKNESS
 40
0.0
  9
$LIMCHECK
 70
     0
  9
$CHAMFERA
 40
0.5
  9
$CHAMFERB
 40
0.5
  9
$SKPOLY
 70
     0
  9
$TDCREATE
 40
2453619.496140937
  9
$TDUPDATE
 40
2453619.496140949
  9
$TDINDWG
 40
0.0000000116
  9
$TDUSRTIMER
 40
0.0000000116
  9
$USRTIMER
 70
     1
  9
$ANGBASE
 50
0.0
  9
$ANGDIR
 70
     0
  9
$PDMODE
 70
     0
  9
$PDSIZE
 40
0.0
  9
$PLINEWID
 40
0.0
  9
$COORDS
 70
     1
  9
$SPLFRAME
 70
     0
  9
$SPLINETYPE
 70
     6
  9
$SPLINESEGS
 70
     8
  9
$ATTDIA
 70
     0
  9
$ATTREQ
 70
     1
  9
$HANDLING
 70
     1
  9
$HANDSEED
  5
717
  9
$SURFTAB1
 70
     6
  9
$SURFTAB2
 70
     6
  9
$SURFTYPE
 70
     6
  9
$SURFU
 70
     6
  9
$SURFV
 70
     6
  9
$UCSNAME
  2

  9
$UCSORG
 10
0.0
 20
0.0
 30
0.0
  9
$UCSXDIR
 10
1.0
 20
0.0
 30
0.0
  9
$UCSYDIR
 10
0.0
 20
1.0
 30
0.0
  9
$PUCSNAME
  2

  9
$PUCSORG
 10
0.0
 20
0.0
 30
0.0
  9
$PUCSXDIR
 10
1.0
 20
0.0
 30
0.0
  9
$PUCSYDIR
 10
0.0
 20
1.0
 30
0.0
  9
$USERI1
 70
     0
  9
$USERI2
 70
     0
  9
$USERI3
 70
     0
  9
$USERI4
 70
     0
  9
$USERI5
 70
     0
  9
$USERR1
 40
0.0
  9
$USERR2
 40
0.0
  9
$USERR3
 40
0.0
  9
$USERR4
 40
0.0
  9
$USERR5
 40
0.0
  9
$WORLDVIEW
 70
     1
  9
$SHADEDGE
 70
     3
  9
$SHADEDIF
 70
    70
  9
$TILEMODE
 70
     1
  9
$MAXACTVP
 70
    64
  9
$PLIMCHECK
 70
     0
  9
$PEXTMIN
 10
1.000000000000000E+20
 20
1.000000000000000E+20
 30
1.000000000000000E+20
  9
$PEXTMAX
 10
-1.000000000000000E+20
 20
-1.000000000000000E+20
 30
-1.000000000000000E+20
  9
$PLIMMIN
 10
0.0
 20
0.0
  9
$PLIMMAX
 10
12.0
 20
9.0
  9
$UNITMODE
 70
     0
  9
$VISRETAIN
 70
     1
  9
$PLINEGEN
 70
     0
  9
$PSLTSCALE
 70
     1
  0
ENDSEC
  0
SECTION
  2
TABLES
  0
TABLE
  2
VPORT
 70
     1
  0
VPORT
  2
*ACTIVE
 70
     0
 10
0.0
 20
0.0
 11
1.0
 21
1.0
 12
10.42990654205607
 22
4.5
 13
0.0
 23
0.0
 14
0.5
 24
0.5
 15
0.5
 25
0.5
 16
0.0
 26
0.0
 36
1.0
 17
0.0
 27
0.0
 37
0.0
 40
9.0
 41
1.972972972850329
 42
50.0
 43
0.0
 44
0.0
 50
0.0
 51
0.0
 71
     0
 72
   100
 73
     1
 74
     3
 75
     0
 76
     0
 77
     0
 78
     0
  0
ENDTAB
  0
TABLE
  2
LTYPE
 70
     9
  0
LTYPE
  2
CONTINUOUS
 70
     0
  3
Solid Line
 72
    65
 73
     0
 40
0.0
  0
LTYPE
  2
MCDASH1
 70
     0
  3
MiniCad+ Generated
 72
    65
 73
     4
 40
1.190237
 49
0.594925
 49
-0.297656
 49
0.0
 49
-0.297656
  0
LTYPE
  2
MCDASH2
 70
     0
  3
MiniCad+ Generated
 72
    65
 73
     2
 40
3.527692
 49
2.469229
 49
-1.058463
  0
LTYPE
  2
MCDASH3
 70
     0
  3
MiniCad+ Generated
 72
    65
 73
     2
 40
6.35
 49
5.291537
 49
-1.058463
  0
LTYPE
  2
MCDASH4
 70
     0
  3
MiniCad+ Generated
 72
    65
 73
     2
 40
7.760767
 49
6.702692
 49
-1.058075
  0
LTYPE
  2
MCDASH5
 70
     0
  3
MiniCad+ Generated
 72
    65
 73
     2
 40
1.058075
 49
0.352692
 49
-0.705383
  0
LTYPE
  2
MCDASH6
 70
     0
  3
MiniCad+ Generated
 72
    65
 73
     4
 40
5.291538
 49
3.175
 49
-1.058075
 49
0.352692
 49
-0.705771
  0
LTYPE
  2
MCDASH7
 70
     0
  3
MiniCad+ Generated
 72
    65
 73
     6
 40
9.525001
 49
3.175
 49
-1.058075
 49
3.175
 49
-1.058463
 49
0.352692
 49
-0.705771
  0
LTYPE
  2
MCDASH8
 70
     0
  3
MiniCad+ Generated
 72
    65
 73
     6
 40
6.350001000000001
 49
3.175
 49
-1.058075
 49
0.352692
 49
-0.705771
 49
0.352692
 49
-0.705771
  0
ENDTAB
  0
TABLE
  2
LAYER
 70
     3
  0
LAYER
  2
0
 70
     0
 62
     7
  6
CONTINUOUS
  0
LAYER
  2
GUIDE
 70
     0
 62
     7
  6
CONTINUOUS
  0
LAYER
  2
AXIS
 70
     0
 62
     1
  6
CONTINUOUS
  0
ENDTAB
  0
TABLE
  2
STYLE
 70
     1
  0
STYLE
  2
STANDARD
 70
     0
 40
0.0
 41
1.0
 50
0.0
 71
     0
 42
0.2
  3
txt
  4

  0
ENDTAB
  0
TABLE
  2
VIEW
 70
     0
  0
ENDTAB
  0
TABLE
  2
UCS
 70
     0
  0
ENDTAB
  0
TABLE
  2
APPID
 70
     1
  0
APPID
  2
ACAD
 70
     0
  0
ENDTAB
  0
TABLE
  2
DIMSTYLE
 70
     1
  0
DIMSTYLE
  2
STANDARD
 70
     0
  3

  4

  5

  6

  7

 40
1.0
 41
0.18
 42
0.0625
 43
0.38
 44
0.18
 45
0.0
 46
0.0
 47
0.0
 48
0.0
140
0.18
141
0.09
142
0.0
143
25.4
144
1.0
145
0.0
146
1.0
147
0.09
 71
     0
 72
     0
 73
     1
 74
     1
 75
     0
 76
     0
 77
     0
 78
     0
170
     0
171
     2
172
     0
173
     0
174
     0
175
     0
176
     0
177
     0
178
     0
  0
ENDTAB
  0
ENDSEC
  0
SECTION
  2
BLOCKS
  0
BLOCK
  8
0
  2
$MODEL_SPACE
 70
     0
 10
0.0
 20
0.0
 30
0.0
  3
$MODEL_SPACE
  1

  0
ENDBLK
  5
712
  8
0
  0
BLOCK
 67
     1
  8
0
  2
$PAPER_SPACE
 70
     0
 10
0.0
 20
0.0
 30
0.0
  3
$PAPER_SPACE
  1

  0
ENDBLK
  5
710
 67
     1
  8
0
  0
BLOCK
  8
0
  2
$ARROW1$
 70
     0
 10
0.0
 20
0.0
 30
0.0
  3
$ARROW1$
  1

  0
POLYLINE
  5
2F
  8
0
 62
     1
 66
     1
 10
0.0
 20
0.0
 30
0.0
 70
     1
  0
VERTEX
  5
640
  8
0
 62
     1
 10
-25.4
 20
4.318
 30
0.0
  0
VERTEX
  5
641
  8
0
 62
     1
 10
-25.4
 20
-4.318
 30
0.0
  0
VERTEX
  5
642
  8
0
 62
     1
 10
0.0
 20
0.0
 30
0.0
  0
SEQEND
  5
69E
  8
0
 62
     1
  0
ENDBLK
  5
6A0
  8
0
  0
BLOCK
  8
0
  2
$ARROW2$
 70
     0
 10
0.0
 20
0.0
 30
0.0
  3
$ARROW2$
  1

  0
POLYLINE
  5
37
  8
0
 62
     1
 66
     1
 10
0.0
 20
0.0
 30
0.0
 70
     1
  0
VERTEX
  5
644
  8
0
 62
     1
 10
-25.4
 20
12.7
 30
0.0
  0
VERTEX
  5
645
  8
0
 62
     1
 10
-25.4
 20
-12.7
 30
0.0
  0
VERTEX
  5
646
  8
0
 62
     1
 10
0.0
 20
0.0
 30
0.0
  0
SEQEND
  5
6A1
  8
0
 62
     1
  0
ENDBLK
  5
6A3
  8
0
  0
BLOCK
  8
0
  2
$ARROW3$
 70
     0
 10
0.0
 20
0.0
 30
0.0
  3
$ARROW3$
  1

  0
POLYLINE
  5
3F
  8
0
 62
     1
 66
     1
 10
0.0
 20
0.0
 30
0.0
 70
     1
 40
0.490867
 41
0.490867
  0
VERTEX
  5
648
  8
0
 62
     1
 10
-6.35
 20
0.0
 30
0.0
  0
VERTEX
  5
649
  8
0
 62
     1
 10
-6.253499
 20
-1.102835
 30
0.0
  0
VERTEX
  5
64A
  8
0
 62
     1
 10
-5.966995
 20
-2.171976
 30
0.0
  0
VERTEX
  5
64B
  8
0
 62
     1
 10
-5.499192
 20
-3.175123
 30
0.0
  0
VERTEX
  5
64C
  8
0
 62
     1
 10
-4.864305
 20
-4.08179
 30
0.0
  0
VERTEX
  5
64D
  8
0
 62
     1
 10
-4.081641
 20
-4.86443
 30
0.0
  0
VERTEX
  5
64E
  8
0
 62
     1
 10
-3.174956
 20
-5.499289
 30
0.0
  0
VERTEX
  5
64F
  8
0
 62
     1
 10
-2.171794
 20
-5.967061
 30
0.0
  0
VERTEX
  5
650
  8
0
 62
     1
 10
-1.102644
 20
-6.253533
 30
0.0
  0
VERTEX
  5
651
  8
0
 62
     1
 10
0.000097
 20
-6.35
 30
0.0
  0
VERTEX
  5
652
  8
0
 62
     1
 10
0.0
 20
-6.35
 30
0.0
  0
VERTEX
  5
653
  8
0
 62
     1
 10
1.10274
 20
-6.253516
 30
0.0
  0
VERTEX
  5
654
  8
0
 62
     1
 10
2.171885
 20
-5.967028
 30
0.0
  0
VERTEX
  5
655
  8
0
 62
     1
 10
3.175039
 20
-5.49924
 30
0.0
  0
VERTEX
  5
656
  8
0
 62
     1
 10
4.081716
 20
-4.864367
 30
0.0
  0
VERTEX
  5
657
  8
0
 62
     1
 10
4.86443
 20
-4.081641
 30
0.0
  0
VERTEX
  5
658
  8
0
 62
     1
 10
5.499289
 20
-3.174956
 30
0.0
  0
VERTEX
  5
659
  8
0
 62
     1
 10
5.967061
 20
-2.171794
 30
0.0
  0
VERTEX
  5
65A
  8
0
 62
     1
 10
6.253533
 20
-1.102644
 30
0.0
  0
VERTEX
  5
65B
  8
0
 62
     1
 10
6.35
 20
0.0
 30
0.0
  0
VERTEX
  5
65C
  8
0
 62
     1
 10
6.253533
 20
1.102644
 30
0.0
  0
VERTEX
  5
65D
  8
0
 62
     1
 10
5.967028
 20
2.171885
 30
0.0
  0
VERTEX
  5
65E
  8
0
 62
     1
 10
5.49924
 20
3.175039
 30
0.0
  0
VERTEX
  5
65F
  8
0
 62
     1
 10
4.864367
 20
4.081716
 30
0.0
  0
VERTEX
  5
660
  8
0
 62
     1
 10
4.081716
 20
4.864367
 30
0.0
  0
VERTEX
  5
661
  8
0
 62
     1
 10
3.175039
 20
5.49924
 30
0.0
  0
VERTEX
  5
662
  8
0
 62
     1
 10
2.171794
 20
5.967061
 30
0.0
  0
VERTEX
  5
663
  8
0
 62
     1
 10
1.102644
 20
6.253533
 30
0.0
  0
VERTEX
  5
664
  8
0
 62
     1
 10
0.0
 20
6.35
 30
0.0
  0
VERTEX
  5
665
  8
0
 62
     1
 10
-1.102644
 20
6.253533
 30
0.0
  0
VERTEX
  5
666
  8
0
 62
     1
 10
-2.171885
 20
5.967028
 30
0.0
  0
VERTEX
  5
667
  8
0
 62
     1
 10
-3.175039
 20
5.49924
 30
0.0
  0
VERTEX
  5
668
  8
0
 62
     1
 10
-4.081716
 20
4.864367
 30
0.0
  0
VERTEX
  5
669
  8
0
 62
     1
 10
-4.864367
 20
4.081716
 30
0.0
  0
VERTEX
  5
66A
  8
0
 62
     1
 10
-5.499289
 20
3.174956
 30
0.0
  0
VERTEX
  5
66B
  8
0
 62
     1
 10
-5.967061
 20
2.171794
 30
0.0
  0
VERTEX
  5
66C
  8
0
 62
     1
 10
-6.253533
 20
1.102644
 30
0.0
  0
VERTEX
  5
66D
  8
0
 62
     1
 10
-6.35
 20
0.0
 30
0.0
  0
SEQEND
  5
6A4
  8
0
 62
     1
  0
ENDBLK
  5
6A6
  8
0
  0
BLOCK
  8
0
  2
$ARROW4$
 70
     0
 10
0.0
 20
0.0
 30
0.0
  3
$ARROW4$
  1

  0
LINE
  5
6A
  8
0
 10
12.7
 20
12.7
 30
0.0
 11
-12.7
 21
-12.7
 31
0.0
  0
ENDBLK
  5
6A8
  8
0
  0
BLOCK
  8
0
  2
$ARROW5$
 70
     0
 10
0.0
 20
0.0
 30
0.0
  3
$ARROW5$
  1

  0
LINE
  5
6E
  8
0
 10
12.7
 20
12.7
 30
0.0
 11
-12.7
 21
-12.7
 31
0.0
  0
LINE
  5
6F
  8
0
 10
-12.7
 20
12.7
 30
0.0
 11
12.7
 21
-12.7
 31
0.0
  0
ENDBLK
  5
6AA
  8
0
  0
ENDSEC
  0
SECTION
  2
ENTITIES
  0
LINE
  5
71
  8
GUIDE
 10
35.828297
 20
-71.10243
 30
0.0
 11
35.828297
 21
-98.30243
 31
0.0
  0
LINE
  5
72
  8
GUIDE
 10
38.828297
 20
-83.20243000000001
 30
0.0
 11
38.828297
 21
-86.20243000000001
 31
0.0
  0
LINE
  5
73
  8
GUIDE
 10
-37.311643
 20
-78.70243000000001
 30
0.0
 11
-37.311643
 21
-80.70243000000001
 31
0.0
  0
LINE
  5
74
  8
GUIDE
 10
9.368247
 20
-78.70243000000001
 30
0.0
 11
9.368247
 21
-80.70243000000001
 31
0.0
  0
LINE
  5
75
  8
GUIDE
 10
-60.671703
 20
-98.30243
 30
0.0
 11
35.828297
 21
-98.30243
 31
0.0
  0
LINE
  5
76
  8
GUIDE
 10
-60.671703
 20
-71.10243
 30
0.0
 11
35.828297
 21
-71.10243
 31
0.0
  0
LINE
  5
77
  8
GUIDE
 10
-37.311643
 20
-78.70243000000001
 30
0.0
 11
9.368247
 21
-78.70243000000001
 31
0.0
  0
LINE
  5
78
  8
GUIDE
 10
-37.311643
 20
-90.70243000000001
 30
0.0
 11
9.368247
 21
-90.70243000000001
 31
0.0
  0
LINE
  5
79
  8
GUIDE
 10
-37.311643
 20
-80.70243000000001
 30
0.0
 11
9.368247
 21
-80.70243000000001
 31
0.0
  0
LINE
  5
7A
  8
GUIDE
 10
-37.311643
 20
-88.70243000000001
 30
0.0
 11
9.368247
 21
-88.70243000000001
 31
0.0
  0
LINE
  5
7B
  8
GUIDE
 10
-37.311643
 20
-88.70243000000001
 30
0.0
 11
-37.311643
 21
-90.70243000000001
 31
0.0
  0
LINE
  5
7C
  8
GUIDE
 10
9.368247
 20
-88.70243000000001
 30
0.0
 11
9.368247
 21
-90.70243000000001
 31
0.0
  0
LINE
  5
7D
  8
GUIDE
 10
-17.471703
 20
-80.70243000000001
 30
0.0
 11
-17.471703
 21
-88.70243000000001
 31
0.0
  0
LINE
  5
7E
  8
GUIDE
 10
-10.471703
 20
-80.70243000000001
 30
0.0
 11
-10.471703
 21
-88.70243000000001
 31
0.0
  0
LINE
  5
7F
  8
GUIDE
 10
35.828297
 20
-86.20243000000001
 30
0.0
 11
38.828297
 21
-86.20243000000001
 31
0.0
  0
LINE
  5
80
  8
GUIDE
 10
35.828297
 20
-83.20243000000001
 30
0.0
 11
38.828297
 21
-83.20243000000001
 31
0.0
  0
ARC
  5
81
  8
GUIDE
 10
28.828297
 20
-74.90243
 30
0.0
 40
6.8
 50
33.974487
 51
146.025528
  0
ARC
  5
82
  8
GUIDE
 10
28.828297
 20
-94.50243
 30
0.0
 40
6.8
 50
213.974487
 51
326.025528
  0
ARC
  5
83
  8
GUIDE
 10
-43.671703
 20
-74.90243
 30
0.0
 40
6.8
 50
33.974487
 51
146.025528
  0
ARC
  5
84
  8
GUIDE
 10
-31.671703
 20
-74.90243
 30
0.0
 40
6.8
 50
33.974487
 51
146.025528
  0
ARC
  5
85
  8
GUIDE
 10
-19.571703
 20
-74.90243
 30
0.0
 40
6.8
 50
33.974487
 51
146.025528
  0
ARC
  5
86
  8
GUIDE
 10
-7.471703
 20
-74.90243
 30
0.0
 40
6.8
 50
33.974487
 51
146.025528
  0
ARC
  5
87
  8
GUIDE
 10
4.628297
 20
-74.90243
 30
0.0
 40
6.8
 50
33.974487
 51
146.025528
  0
ARC
  5
88
  8
GUIDE
 10
16.728297
 20
-74.90243
 30
0.0
 40
6.8
 50
33.974487
 51
146.025528
  0
ARC
  5
89
  8
GUIDE
 10
16.728297
 20
-94.50243
 30
0.0
 40
6.8
 50
213.974487
 51
326.025528
  0
ARC
  5
8A
  8
GUIDE
 10
4.628297
 20
-94.50243
 30
0.0
 40
6.8
 50
213.974487
 51
326.025528
  0
ARC
  5
8B
  8
GUIDE
 10
-7.471703
 20
-94.50243
 30
0.0
 40
6.8
 50
213.974487
 51
326.025528
  0
ARC
  5
8C
  8
GUIDE
 10
-19.571703
 20
-94.50243
 30
0.0
 40
6.8
 50
213.974487
 51
326.025528
  0
ARC
  5
8D
  8
GUIDE
 10
-31.671703
 20
-94.50243
 30
0.0
 40
6.8
 50
213.974487
 51
326.025528
  0
ARC
  5
8E
  8
GUIDE
 10
-43.671703
 20
-94.50243
 30
0.0
 40
6.8
 50
213.974487
 51
326.025528
  0
ARC
  5
8F
  8
GUIDE
 10
-55.771703
 20
-74.90243
 30
0.0
 40
6.8
 50
33.974472
 51
223.896927
  0
ARC
  5
90
  8
GUIDE
 10
-55.771703
 20
-94.50243
 30
0.0
 40
6.8
 50
136.103073
 51
326.025528
  0
LINE
  5
91
  8
GUIDE
 10
-18.971703
 20
-78.70243000000001
 30
0.0
 11
-8.971703
 21
-78.70243000000001
 31
0.0
  0
ARC
  5
92
  8
GUIDE
 10
-13.971703
 20
-89.11387000000001
 30
0.0
 40
3.5
 50
206.992554
 51
333.007431
  0
ARC
  5
93
  8
GUIDE
 10
-13.971703
 20
-86.55835999999999
 30
0.0
 40
9.095050000000001
 50
59.741226
 51
120.258774
  0
LINE
  5
94
  8
GUIDE
 10
-60.671703
 20
44.55243
 30
0.0
 11
35.828297
 21
44.55243
 31
0.0
  0
LINE
  5
95
  8
GUIDE
 10
-60.671703
 20
-21.44757
 30
0.0
 11
35.828297
 21
-21.44757
 31
0.0
  0
LINE
  5
96
  8
GUIDE
 10
-63.771703
 20
48.80243
 30
0.0
 11
35.828297
 21
48.80243
 31
0.0
  0
LINE
  5
97
  8
GUIDE
 10
-63.771703
 20
-25.69757
 30
0.0
 11
35.828297
 21
-25.69757
 31
0.0
  0
LINE
  5
98
  8
GUIDE
 10
35.828297
 20
48.80243
 30
0.0
 11
35.828297
 21
44.55243
 31
0.0
  0
LINE
  5
99
  8
GUIDE
 10
-63.771703
 20
-25.69757
 30
0.0
 11
-63.771703
 21
48.80243
 31
0.0
  0
LINE
  5
9A
  8
GUIDE
 10
35.828297
 20
-21.44757
 30
0.0
 11
35.828297
 21
-25.69757
 31
0.0
  0
LINE
  5
9B
  8
GUIDE
 10
-54.771703
 20
44.55243
 30
0.0
 11
-54.771703
 21
48.80243
 31
0.0
  0
LINE
  5
9C
  8
GUIDE
 10
-56.771703
 20
44.55243
 30
0.0
 11
-56.771703
 21
48.80243
 31
0.0
  0
LINE
  5
9D
  8
GUIDE
 10
-44.671703
 20
44.55243
 30
0.0
 11
-44.671703
 21
48.80243
 31
0.0
  0
LINE
  5
9E
  8
GUIDE
 10
-42.671703
 20
44.55243
 30
0.0
 11
-42.671703
 21
48.80243
 31
0.0
  0
LINE
  5
9F
  8
GUIDE
 10
-32.671703
 20
44.55243
 30
0.0
 11
-32.671703
 21
48.80243
 31
0.0
  0
LINE
  5
A0
  8
GUIDE
 10
-30.671703
 20
44.55243
 30
0.0
 11
-30.671703
 21
48.80243
 31
0.0
  0
LINE
  5
A1
  8
GUIDE
 10
-20.571703
 20
44.55243
 30
0.0
 11
-20.571703
 21
48.80243
 31
0.0
  0
LINE
  5
A2
  8
GUIDE
 10
-18.571703
 20
44.55243
 30
0.0
 11
-18.571703
 21
48.80243
 31
0.0
  0
LINE
  5
A3
  8
GUIDE
 10
-8.471703
 20
44.55243
 30
0.0
 11
-8.471703
 21
48.80243
 31
0.0
  0
LINE
  5
A4
  8
GUIDE
 10
-6.471703
 20
44.55243
 30
0.0
 11
-6.471703
 21
48.80243
 31
0.0
  0
LINE
  5
A5
  8
GUIDE
 10
3.628297
 20
44.55243
 30
0.0
 11
3.628297
 21
48.80243
 31
0.0
  0
LINE
  5
A6
  8
GUIDE
 10
5.628297
 20
44.55243
 30
0.0
 11
5.628297
 21
48.80243
 31
0.0
  0
LINE
  5
A7
  8
GUIDE
 10
3.628297
 20
-25.69757
 30
0.0
 11
3.628297
 21
-21.44757
 31
0.0
  0
LINE
  5
A8
  8
GUIDE
 10
5.628297
 20
-25.69757
 30
0.0
 11
5.628297
 21
-21.44757
 31
0.0
  0
LINE
  5
A9
  8
GUIDE
 10
-8.471703
 20
-21.44757
 30
0.0
 11
-8.471703
 21
-25.69757
 31
0.0
  0
LINE
  5
AA
  8
GUIDE
 10
-6.471703
 20
-21.44757
 30
0.0
 11
-6.471703
 21
-25.69757
 31
0.0
  0
LINE
  5
AB
  8
GUIDE
 10
-18.571703
 20
-21.44757
 30
0.0
 11
-18.571703
 21
-25.69757
 31
0.0
  0
LINE
  5
AC
  8
GUIDE
 10
-20.571703
 20
-21.44757
 30
0.0
 11
-20.571703
 21
-25.69757
 31
0.0
  0
LINE
  5
AD
  8
GUIDE
 10
-32.671703
 20
-25.69757
 30
0.0
 11
-32.671703
 21
-21.44757
 31
0.0
  0
LINE
  5
AE
  8
GUIDE
 10
-30.671703
 20
-25.69757
 30
0.0
 11
-30.671703
 21
-21.44757
 31
0.0
  0
LINE
  5
AF
  8
GUIDE
 10
-42.671703
 20
-21.44757
 30
0.0
 11
-42.671703
 21
-25.69757
 31
0.0
  0
LINE
  5
B0
  8
GUIDE
 10
-44.671703
 20
-21.44757
 30
0.0
 11
-44.671703
 21
-25.69757
 31
0.0
  0
LINE
  5
B1
  8
GUIDE
 10
-54.771703
 20
-21.44757
 30
0.0
 11
-54.771703
 21
-25.69757
 31
0.0
  0
LINE
  5
B2
  8
GUIDE
 10
-56.771703
 20
-21.44757
 30
0.0
 11
-56.771703
 21
-25.69757
 31
0.0
  0
LINE
  5
B3
  8
GUIDE
 10
-60.671703
 20
44.55243
 30
0.0
 11
-60.671703
 21
48.80243
 31
0.0
  0
LINE
  5
B4
  8
GUIDE
 10
-60.671703
 20
-21.44757
 30
0.0
 11
-60.671703
 21
-25.69757
 31
0.0
  0
LINE
  5
B5
  8
GUIDE
 10
35.328297
 20
44.05243
 30
0.0
 11
38.828297
 21
44.05243
 31
0.0
  0
LINE
  5
B6
  8
GUIDE
 10
38.828297
 20
44.05243
 30
0.0
 11
38.828297
 21
-20.94757
 31
0.0
  0
ARC
  5
B7
  8
GUIDE
 10
35.225947
 20
44.68249
 30
0.0
 40
0.63831
 50
191.755997
 51
279.227081
  0
LINE
  5
B8
  8
GUIDE
 10
35.328297
 20
-20.94757
 30
0.0
 11
38.828297
 21
-20.94757
 31
0.0
  0
ARC
  5
B9
  8
GUIDE
 10
35.225947
 20
-21.57762
 30
0.0
 40
0.63831
 50
80.772919
 51
168.244003
  0
LINE
  5
BA
  8
GUIDE
 10
17.728297
 20
44.55243
 30
0.0
 11
17.728297
 21
48.80243
 31
0.0
  0
LINE
  5
BB
  8
GUIDE
 10
15.728297
 20
44.55243
 30
0.0
 11
15.728297
 21
48.80243
 31
0.0
  0
LINE
  5
BC
  8
GUIDE
 10
29.828297
 20
44.55243
 30
0.0
 11
29.828297
 21
48.80243
 31
0.0
  0
LINE
  5
BD
  8
GUIDE
 10
27.828297
 20
44.55243
 30
0.0
 11
27.828297
 21
48.80243
 31
0.0
  0
LINE
  5
BE
  8
GUIDE
 10
17.728297
 20
-21.44757
 30
0.0
 11
17.728297
 21
-25.69757
 31
0.0
  0
LINE
  5
BF
  8
GUIDE
 10
15.728297
 20
-21.44757
 30
0.0
 11
15.728297
 21
-25.69757
 31
0.0
  0
LINE
  5
C0
  8
GUIDE
 10
29.828297
 20
-25.69757
 30
0.0
 11
29.828297
 21
-21.44757
 31
0.0
  0
LINE
  5
C1
  8
GUIDE
 10
27.828297
 20
-25.69757
 30
0.0
 11
27.828297
 21
-21.44757
 31
0.0
  0
CIRCLE
  5
C2
  8
GUIDE
 10
-13.971703
 20
95.30243
 30
0.0
 40
3.5
  0
LINE
  5
C3
  8
GUIDE
 10
-34.575153
 20
50.57297
 30
0.0
 11
-19.750933
 21
96.91502
 31
0.0
  0
ARC
  5
C4
  8
GUIDE
 10
-37.311643
 20
51.80243
 30
0.0
 40
3.0
 50
270.0
 51
335.806305
  0
ARC
  5
C5
  8
GUIDE
 10
9.368247
 20
51.80243
 30
0.0
 40
3.0
 50
204.193695
 51
270.0
  0
ARC
  5
C6
  8
GUIDE
 10
-13.971703
 20
95.30243
 30
0.0
 40
6.0
 50
15.59079
 51
164.40921
  0
LINE
  5
C7
  8
GUIDE
 10
6.631747
 20
50.57297
 30
0.0
 11
-8.192463
 21
96.91502
 31
0.0
  0
LINE
  5
C8
  8
GUIDE
 10
-17.435803
 20
95.80243
 30
0.0
 11
-10.507593
 21
95.80243
 31
0.0
  0
LINE
  5
C9
  8
GUIDE
 10
-17.435803
 20
94.80243
 30
0.0
 11
-10.471703
 21
94.80243
 31
0.0
  0
POLYLINE
  5
CA
  8
GUIDE
 66
     1
 10
0.0
 20
0.0
 30
0.0
 70
     1
  0
VERTEX
  5
454
  8
GUIDE
 10
-11.471703
 20
27.65243
 30
0.0
  0
VERTEX
  5
455
  8
GUIDE
 10
-11.471703
 20
27.95243
 30
0.0
  0
VERTEX
  5
456
  8
GUIDE
 10
-3.471703
 20
27.95243
 30
0.0
  0
VERTEX
  5
457
  8
GUIDE
 10
-3.471703
 20
27.65243
 30
0.0
  0
SEQEND
  5
6AB
  8
GUIDE
  0
POLYLINE
  5
D0
  8
GUIDE
 66
     1
 10
0.0
 20
0.0
 30
0.0
 70
     1
  0
VERTEX
  5
459
  8
GUIDE
 10
-14.271703
 20
11.85243
 30
0.0
  0
VERTEX
  5
45A
  8
GUIDE
 10
-14.271703
 20
18.45243
 30
0.0
  0
VERTEX
  5
45B
  8
GUIDE
 10
-0.6717030000000001
 20
18.45243
 30
0.0
  0
VERTEX
  5
45C
  8
GUIDE
 10
-0.6717030000000001
 20
11.85243
 30
0.0
  0
SEQEND
  5
6AC
  8
GUIDE
  0
POLYLINE
  5
D6
  8
GUIDE
 66
     1
 10
0.0
 20
0.0
 30
0.0
 70
     1
  0
VERTEX
  5
45E
  8
GUIDE
 10
-11.471703
 20
11.55243
 30
0.0
  0
VERTEX
  5
45F
  8
GUIDE
 10
-11.471703
 20
11.85243
 30
0.0
  0
VERTEX
  5
460
  8
GUIDE
 10
-3.471703
 20
11.85243
 30
0.0
  0
VERTEX
  5
461
  8
GUIDE
 10
-3.471703
 20
11.55243
 30
0.0
  0
SEQEND
  5
6AD
  8
GUIDE
  0
POLYLINE
  5
DC
  8
GUIDE
 66
     1
 10
0.0
 20
0.0
 30
0.0
 70
     1
  0
VERTEX
  5
463
  8
GUIDE
 10
-9.971703
 20
-21.44757
 30
0.0
  0
VERTEX
  5
464
  8
GUIDE
 10
-9.971703
 20
-20.64757
 30
0.0
  0
VERTEX
  5
465
  8
GUIDE
 10
-4.971703
 20
-20.64757
 30
0.0
  0
VERTEX
  5
466
  8
GUIDE
 10
-4.971703
 20
-21.44757
 30
0.0
  0
SEQEND
  5
6AE
  8
GUIDE
  0
POLYLINE
  5
E2
  8
GUIDE
 66
     1
 10
0.0
 20
0.0
 30
0.0
 70
     1
  0
VERTEX
  5
468
  8
GUIDE
 10
-11.471703
 20
18.45243
 30
0.0
  0
VERTEX
  5
469
  8
GUIDE
 10
-11.471703
 20
27.65243
 30
0.0
  0
VERTEX
  5
46A
  8
GUIDE
 10
-3.471703
 20
27.65243
 30
0.0
  0
VERTEX
  5
46B
  8
GUIDE
 10
-3.471703
 20
18.45243
 30
0.0
  0
SEQEND
  5
6AF
  8
GUIDE
  0
POLYLINE
  5
E8
  8
GUIDE
 66
     1
 10
0.0
 20
0.0
 30
0.0
 70
     1
  0
VERTEX
  5
46D
  8
GUIDE
 10
-9.971703
 20
43.75243
 30
0.0
  0
VERTEX
  5
46E
  8
GUIDE
 10
-9.971703
 20
44.55243
 30
0.0
  0
VERTEX
  5
46F
  8
GUIDE
 10
-4.971703
 20
44.55243
 30
0.0
  0
VERTEX
  5
470
  8
GUIDE
 10
-4.971703
 20
43.75243
 30
0.0
  0
SEQEND
  5
6B0
  8
GUIDE
  0
POLYLINE
  5
EE
  8
GUIDE
 66
     1
 10
0.0
 20
0.0
 30
0.0
 70
     1
  0
VERTEX
  5
472
  8
GUIDE
 10
-14.271703
 20
27.95243
 30
0.0
  0
VERTEX
  5
473
  8
GUIDE
 10
-14.271703
 20
34.55243
 30
0.0
  0
VERTEX
  5
474
  8
GUIDE
 10
-0.6717030000000001
 20
34.55243
 30
0.0
  0
VERTEX
  5
475
  8
GUIDE
 10
-0.6717030000000001
 20
27.95243
 30
0.0
  0
SEQEND
  5
6B1
  8
GUIDE
  0
POLYLINE
  5
F4
  8
GUIDE
 66
     1
 10
0.0
 20
0.0
 30
0.0
 70
     1
  0
VERTEX
  5
477
  8
GUIDE
 10
-11.471703
 20
34.55243
 30
0.0
  0
VERTEX
  5
478
  8
GUIDE
 10
-11.471703
 20
43.75243
 30
0.0
  0
VERTEX
  5
479
  8
GUIDE
 10
-3.471703
 20
43.75243
 30
0.0
  0
VERTEX
  5
47A
  8
GUIDE
 10
-3.471703
 20
34.55243
 30
0.0
  0
SEQEND
  5
6B2
  8
GUIDE
  0
LINE
  5
FA
  8
GUIDE
 10
-47.671703
 20
27.65243
 30
0.0
 11
-47.671703
 21
27.35243
 31
0.0
  0
LINE
  5
FB
  8
GUIDE
 10
-47.671703
 20
27.35243
 30
0.0
 11
-39.671703
 21
27.35243
 31
0.0
  0
LINE
  5
FC
  8
GUIDE
 10
-39.671703
 20
27.35243
 30
0.0
 11
-39.671703
 21
27.65243
 31
0.0
  0
LINE
  5
FD
  8
GUIDE
 10
-39.671703
 20
27.65243
 30
0.0
 11
-47.671703
 21
27.65243
 31
0.0
  0
LINE
  5
FE
  8
GUIDE
 10
-50.471703
 20
43.45243
 30
0.0
 11
-50.471703
 21
36.85243
 31
0.0
  0
LINE
  5
FF
  8
GUIDE
 10
-50.471703
 20
36.85243
 30
0.0
 11
-36.871703
 21
36.85243
 31
0.0
  0
LINE
  5
100
  8
GUIDE
 10
-36.871703
 20
36.85243
 30
0.0
 11
-36.871703
 21
43.45243
 31
0.0
  0
LINE
  5
101
  8
GUIDE
 10
-36.871703
 20
43.45243
 30
0.0
 11
-50.471703
 21
43.45243
 31
0.0
  0
LINE
  5
102
  8
GUIDE
 10
-47.671703
 20
43.75243
 30
0.0
 11
-47.671703
 21
43.45243
 31
0.0
  0
LINE
  5
103
  8
GUIDE
 10
-47.671703
 20
43.45243
 30
0.0
 11
-39.671703
 21
43.45243
 31
0.0
  0
LINE
  5
104
  8
GUIDE
 10
-39.671703
 20
43.45243
 30
0.0
 11
-39.671703
 21
43.75243
 31
0.0
  0
LINE
  5
105
  8
GUIDE
 10
-39.671703
 20
43.75243
 30
0.0
 11
-47.671703
 21
43.75243
 31
0.0
  0
LINE
  5
106
  8
GUIDE
 10
-46.171703
 20
44.55243
 30
0.0
 11
-46.171703
 21
43.75243
 31
0.0
  0
LINE
  5
107
  8
GUIDE
 10
-46.171703
 20
43.75243
 30
0.0
 11
-41.171703
 21
43.75243
 31
0.0
  0
LINE
  5
108
  8
GUIDE
 10
-41.171703
 20
43.75243
 30
0.0
 11
-41.171703
 21
44.55243
 31
0.0
  0
LINE
  5
109
  8
GUIDE
 10
-41.171703
 20
44.55243
 30
0.0
 11
-46.171703
 21
44.55243
 31
0.0
  0
LINE
  5
10A
  8
GUIDE
 10
-47.671703
 20
36.85243
 30
0.0
 11
-47.671703
 21
27.65243
 31
0.0
  0
LINE
  5
10B
  8
GUIDE
 10
-47.671703
 20
27.65243
 30
0.0
 11
-39.671703
 21
27.65243
 31
0.0
  0
LINE
  5
10C
  8
GUIDE
 10
-39.671703
 20
27.65243
 30
0.0
 11
-39.671703
 21
36.85243
 31
0.0
  0
LINE
  5
10D
  8
GUIDE
 10
-39.671703
 20
36.85243
 30
0.0
 11
-47.671703
 21
36.85243
 31
0.0
  0
LINE
  5
10E
  8
GUIDE
 10
-46.171703
 20
-20.64757
 30
0.0
 11
-46.171703
 21
-21.44757
 31
0.0
  0
LINE
  5
10F
  8
GUIDE
 10
-46.171703
 20
-21.44757
 30
0.0
 11
-41.171703
 21
-21.44757
 31
0.0
  0
LINE
  5
110
  8
GUIDE
 10
-41.171703
 20
-21.44757
 30
0.0
 11
-41.171703
 21
-20.64757
 31
0.0
  0
LINE
  5
111
  8
GUIDE
 10
-41.171703
 20
-20.64757
 30
0.0
 11
-46.171703
 21
-20.64757
 31
0.0
  0
LINE
  5
112
  8
GUIDE
 10
-50.471703
 20
27.35243
 30
0.0
 11
-50.471703
 21
20.75243
 31
0.0
  0
LINE
  5
113
  8
GUIDE
 10
-50.471703
 20
20.75243
 30
0.0
 11
-36.871703
 21
20.75243
 31
0.0
  0
LINE
  5
114
  8
GUIDE
 10
-36.871703
 20
20.75243
 30
0.0
 11
-36.871703
 21
27.35243
 31
0.0
  0
LINE
  5
115
  8
GUIDE
 10
-36.871703
 20
27.35243
 30
0.0
 11
-50.471703
 21
27.35243
 31
0.0
  0
LINE
  5
116
  8
GUIDE
 10
-47.671703
 20
20.75243
 30
0.0
 11
-47.671703
 21
11.55243
 31
0.0
  0
LINE
  5
117
  8
GUIDE
 10
-47.671703
 20
11.55243
 30
0.0
 11
-39.671703
 21
11.55243
 31
0.0
  0
LINE
  5
118
  8
GUIDE
 10
-39.671703
 20
11.55243
 30
0.0
 11
-39.671703
 21
20.75243
 31
0.0
  0
LINE
  5
119
  8
GUIDE
 10
-39.671703
 20
20.75243
 30
0.0
 11
-47.671703
 21
20.75243
 31
0.0
  0
POLYLINE
  5
11A
  8
GUIDE
 66
     1
 10
0.0
 20
0.0
 30
0.0
 70
     1
  0
VERTEX
  5
47C
  8
GUIDE
 10
-59.771703
 20
27.65243
 30
0.0
  0
VERTEX
  5
47D
  8
GUIDE
 10
-59.771703
 20
27.95243
 30
0.0
  0
VERTEX
  5
47E
  8
GUIDE
 10
-51.771703
 20
27.95243
 30
0.0
  0
VERTEX
  5
47F
  8
GUIDE
 10
-51.771703
 20
27.65243
 30
0.0
  0
SEQEND
  5
6B3
  8
GUIDE
  0
POLYLINE
  5
120
  8
GUIDE
 66
     1
 10
0.0
 20
0.0
 30
0.0
 70
     1
  0
VERTEX
  5
481
  8
GUIDE
 10
-62.571703
 20
11.85243
 30
0.0
  0
VERTEX
  5
482
  8
GUIDE
 10
-62.571703
 20
18.45243
 30
0.0
  0
VERTEX
  5
483
  8
GUIDE
 10
-48.971703
 20
18.45243
 30
0.0
  0
VERTEX
  5
484
  8
GUIDE
 10
-48.971703
 20
11.85243
 30
0.0
  0
SEQEND
  5
6B4
  8
GUIDE
  0
POLYLINE
  5
126
  8
GUIDE
 66
     1
 10
0.0
 20
0.0
 30
0.0
 70
     1
  0
VERTEX
  5
486
  8
GUIDE
 10
-59.771703
 20
11.55243
 30
0.0
  0
VERTEX
  5
487
  8
GUIDE
 10
-59.771703
 20
11.85243
 30
0.0
  0
VERTEX
  5
488
  8
GUIDE
 10
-51.771703
 20
11.85243
 30
0.0
  0
VERTEX
  5
489
  8
GUIDE
 10
-51.771703
 20
11.55243
 30
0.0
  0
SEQEND
  5
6B5
  8
GUIDE
  0
POLYLINE
  5
12C
  8
GUIDE
 66
     1
 10
0.0
 20
0.0
 30
0.0
 70
     1
  0
VERTEX
  5
48B
  8
GUIDE
 10
-58.271703
 20
-21.44757
 30
0.0
  0
VERTEX
  5
48C
  8
GUIDE
 10
-58.271703
 20
-20.64757
 30
0.0
  0
VERTEX
  5
48D
  8
GUIDE
 10
-53.271703
 20
-20.64757
 30
0.0
  0
VERTEX
  5
48E
  8
GUIDE
 10
-53.271703
 20
-21.44757
 30
0.0
  0
SEQEND
  5
6B6
  8
GUIDE
  0
POLYLINE
  5
132
  8
GUIDE
 66
     1
 10
0.0
 20
0.0
 30
0.0
 70
     1
  0
VERTEX
  5
490
  8
GUIDE
 10
-59.771703
 20
18.45243
 30
0.0
  0
VERTEX
  5
491
  8
GUIDE
 10
-59.771703
 20
27.65243
 30
0.0
  0
VERTEX
  5
492
  8
GUIDE
 10
-51.771703
 20
27.65243
 30
0.0
  0
VERTEX
  5
493
  8
GUIDE
 10
-51.771703
 20
18.45243
 30
0.0
  0
SEQEND
  5
6B7
  8
GUIDE
  0
POLYLINE
  5
138
  8
GUIDE
 66
     1
 10
0.0
 20
0.0
 30
0.0
 70
     1
  0
VERTEX
  5
495
  8
GUIDE
 10
-58.271703
 20
43.75243
 30
0.0
  0
VERTEX
  5
496
  8
GUIDE
 10
-58.271703
 20
44.55243
 30
0.0
  0
VERTEX
  5
497
  8
GUIDE
 10
-53.271703
 20
44.55243
 30
0.0
  0
VERTEX
  5
498
  8
GUIDE
 10
-53.271703
 20
43.75243
 30
0.0
  0
SEQEND
  5
6B8
  8
GUIDE
  0
POLYLINE
  5
13E
  8
GUIDE
 66
     1
 10
0.0
 20
0.0
 30
0.0
 70
     1
  0
VERTEX
  5
49A
  8
GUIDE
 10
-62.571703
 20
27.95243
 30
0.0
  0
VERTEX
  5
49B
  8
GUIDE
 10
-62.571703
 20
34.55243
 30
0.0
  0
VERTEX
  5
49C
  8
GUIDE
 10
-48.971703
 20
34.55243
 30
0.0
  0
VERTEX
  5
49D
  8
GUIDE
 10
-48.971703
 20
27.95243
 30
0.0
  0
SEQEND
  5
6B9
  8
GUIDE
  0
POLYLINE
  5
144
  8
GUIDE
 66
     1
 10
0.0
 20
0.0
 30
0.0
 70
     1
  0
VERTEX
  5
49F
  8
GUIDE
 10
-59.771703
 20
34.55243
 30
0.0
  0
VERTEX
  5
4A0
  8
GUIDE
 10
-59.771703
 20
43.75243
 30
0.0
  0
VERTEX
  5
4A1
  8
GUIDE
 10
-51.771703
 20
43.75243
 30
0.0
  0
VERTEX
  5
4A2
  8
GUIDE
 10
-51.771703
 20
34.55243
 30
0.0
  0
SEQEND
  5
6BA
  8
GUIDE
  0
LINE
  5
14A
  8
GUIDE
 10
-23.571703
 20
27.65243
 30
0.0
 11
-23.571703
 21
27.35243
 31
0.0
  0
LINE
  5
14B
  8
GUIDE
 10
-23.571703
 20
27.35243
 30
0.0
 11
-15.571703
 21
27.35243
 31
0.0
  0
LINE
  5
14C
  8
GUIDE
 10
-15.571703
 20
27.35243
 30
0.0
 11
-15.571703
 21
27.65243
 31
0.0
  0
LINE
  5
14D
  8
GUIDE
 10
-15.571703
 20
27.65243
 30
0.0
 11
-23.571703
 21
27.65243
 31
0.0
  0
LINE
  5
14E
  8
GUIDE
 10
-26.371703
 20
43.45243
 30
0.0
 11
-26.371703
 21
36.85243
 31
0.0
  0
LINE
  5
14F
  8
GUIDE
 10
-26.371703
 20
36.85243
 30
0.0
 11
-12.771703
 21
36.85243
 31
0.0
  0
LINE
  5
150
  8
GUIDE
 10
-12.771703
 20
36.85243
 30
0.0
 11
-12.771703
 21
43.45243
 31
0.0
  0
LINE
  5
151
  8
GUIDE
 10
-12.771703
 20
43.45243
 30
0.0
 11
-26.371703
 21
43.45243
 31
0.0
  0
LINE
  5
152
  8
GUIDE
 10
-23.571703
 20
43.75243
 30
0.0
 11
-23.571703
 21
43.45243
 31
0.0
  0
LINE
  5
153
  8
GUIDE
 10
-23.571703
 20
43.45243
 30
0.0
 11
-15.571703
 21
43.45243
 31
0.0
  0
LINE
  5
154
  8
GUIDE
 10
-15.571703
 20
43.45243
 30
0.0
 11
-15.571703
 21
43.75243
 31
0.0
  0
LINE
  5
155
  8
GUIDE
 10
-15.571703
 20
43.75243
 30
0.0
 11
-23.571703
 21
43.75243
 31
0.0
  0
LINE
  5
156
  8
GUIDE
 10
-22.071703
 20
44.55243
 30
0.0
 11
-22.071703
 21
43.75243
 31
0.0
  0
LINE
  5
157
  8
GUIDE
 10
-22.071703
 20
43.75243
 30
0.0
 11
-17.071703
 21
43.75243
 31
0.0
  0
LINE
  5
158
  8
GUIDE
 10
-17.071703
 20
43.75243
 30
0.0
 11
-17.071703
 21
44.55243
 31
0.0
  0
LINE
  5
159
  8
GUIDE
 10
-17.071703
 20
44.55243
 30
0.0
 11
-22.071703
 21
44.55243
 31
0.0
  0
LINE
  5
15A
  8
GUIDE
 10
-23.571703
 20
36.85243
 30
0.0
 11
-23.571703
 21
27.65243
 31
0.0
  0
LINE
  5
15B
  8
GUIDE
 10
-23.571703
 20
27.65243
 30
0.0
 11
-15.571703
 21
27.65243
 31
0.0
  0
LINE
  5
15C
  8
GUIDE
 10
-15.571703
 20
27.65243
 30
0.0
 11
-15.571703
 21
36.85243
 31
0.0
  0
LINE
  5
15D
  8
GUIDE
 10
-15.571703
 20
36.85243
 30
0.0
 11
-23.571703
 21
36.85243
 31
0.0
  0
LINE
  5
15E
  8
GUIDE
 10
-22.071703
 20
-20.64757
 30
0.0
 11
-22.071703
 21
-21.44757
 31
0.0
  0
LINE
  5
15F
  8
GUIDE
 10
-22.071703
 20
-21.44757
 30
0.0
 11
-17.071703
 21
-21.44757
 31
0.0
  0
LINE
  5
160
  8
GUIDE
 10
-17.071703
 20
-21.44757
 30
0.0
 11
-17.071703
 21
-20.64757
 31
0.0
  0
LINE
  5
161
  8
GUIDE
 10
-17.071703
 20
-20.64757
 30
0.0
 11
-22.071703
 21
-20.64757
 31
0.0
  0
LINE
  5
162
  8
GUIDE
 10
-26.371703
 20
27.35243
 30
0.0
 11
-26.371703
 21
20.75243
 31
0.0
  0
LINE
  5
163
  8
GUIDE
 10
-26.371703
 20
20.75243
 30
0.0
 11
-12.771703
 21
20.75243
 31
0.0
  0
LINE
  5
164
  8
GUIDE
 10
-12.771703
 20
20.75243
 30
0.0
 11
-12.771703
 21
27.35243
 31
0.0
  0
LINE
  5
165
  8
GUIDE
 10
-12.771703
 20
27.35243
 30
0.0
 11
-26.371703
 21
27.35243
 31
0.0
  0
LINE
  5
166
  8
GUIDE
 10
-23.571703
 20
20.75243
 30
0.0
 11
-23.571703
 21
11.55243
 31
0.0
  0
LINE
  5
167
  8
GUIDE
 10
-23.571703
 20
11.55243
 30
0.0
 11
-15.571703
 21
11.55243
 31
0.0
  0
LINE
  5
168
  8
GUIDE
 10
-15.571703
 20
11.55243
 30
0.0
 11
-15.571703
 21
20.75243
 31
0.0
  0
LINE
  5
169
  8
GUIDE
 10
-15.571703
 20
20.75243
 30
0.0
 11
-23.571703
 21
20.75243
 31
0.0
  0
POLYLINE
  5
16A
  8
GUIDE
 66
     1
 10
0.0
 20
0.0
 30
0.0
 70
     1
  0
VERTEX
  5
4A4
  8
GUIDE
 10
-35.671703
 20
27.65243
 30
0.0
  0
VERTEX
  5
4A5
  8
GUIDE
 10
-35.671703
 20
27.95243
 30
0.0
  0
VERTEX
  5
4A6
  8
GUIDE
 10
-27.671703
 20
27.95243
 30
0.0
  0
VERTEX
  5
4A7
  8
GUIDE
 10
-27.671703
 20
27.65243
 30
0.0
  0
SEQEND
  5
6BB
  8
GUIDE
  0
POLYLINE
  5
170
  8
GUIDE
 66
     1
 10
0.0
 20
0.0
 30
0.0
 70
     1
  0
VERTEX
  5
4A9
  8
GUIDE
 10
-38.471703
 20
11.85243
 30
0.0
  0
VERTEX
  5
4AA
  8
GUIDE
 10
-38.471703
 20
18.45243
 30
0.0
  0
VERTEX
  5
4AB
  8
GUIDE
 10
-24.871703
 20
18.45243
 30
0.0
  0
VERTEX
  5
4AC
  8
GUIDE
 10
-24.871703
 20
11.85243
 30
0.0
  0
SEQEND
  5
6BC
  8
GUIDE
  0
POLYLINE
  5
176
  8
GUIDE
 66
     1
 10
0.0
 20
0.0
 30
0.0
 70
     1
  0
VERTEX
  5
4AE
  8
GUIDE
 10
-35.671703
 20
11.55243
 30
0.0
  0
VERTEX
  5
4AF
  8
GUIDE
 10
-35.671703
 20
11.85243
 30
0.0
  0
VERTEX
  5
4B0
  8
GUIDE
 10
-27.671703
 20
11.85243
 30
0.0
  0
VERTEX
  5
4B1
  8
GUIDE
 10
-27.671703
 20
11.55243
 30
0.0
  0
SEQEND
  5
6BD
  8
GUIDE
  0
POLYLINE
  5
17C
  8
GUIDE
 66
     1
 10
0.0
 20
0.0
 30
0.0
 70
     1
  0
VERTEX
  5
4B3
  8
GUIDE
 10
-34.171703
 20
-21.44757
 30
0.0
  0
VERTEX
  5
4B4
  8
GUIDE
 10
-34.171703
 20
-20.64757
 30
0.0
  0
VERTEX
  5
4B5
  8
GUIDE
 10
-29.171703
 20
-20.64757
 30
0.0
  0
VERTEX
  5
4B6
  8
GUIDE
 10
-29.171703
 20
-21.44757
 30
0.0
  0
SEQEND
  5
6BE
  8
GUIDE
  0
POLYLINE
  5
182
  8
GUIDE
 66
     1
 10
0.0
 20
0.0
 30
0.0
 70
     1
  0
VERTEX
  5
4B8
  8
GUIDE
 10
-35.671703
 20
18.45243
 30
0.0
  0
VERTEX
  5
4B9
  8
GUIDE
 10
-35.671703
 20
27.65243
 30
0.0
  0
VERTEX
  5
4BA
  8
GUIDE
 10
-27.671703
 20
27.65243
 30
0.0
  0
VERTEX
  5
4BB
  8
GUIDE
 10
-27.671703
 20
18.45243
 30
0.0
  0
SEQEND
  5
6BF
  8
GUIDE
  0
POLYLINE
  5
188
  8
GUIDE
 66
     1
 10
0.0
 20
0.0
 30
0.0
 70
     1
  0
VERTEX
  5
4BD
  8
GUIDE
 10
-34.171703
 20
43.75243
 30
0.0
  0
VERTEX
  5
4BE
  8
GUIDE
 10
-34.171703
 20
44.55243
 30
0.0
  0
VERTEX
  5
4BF
  8
GUIDE
 10
-29.171703
 20
44.55243
 30
0.0
  0
VERTEX
  5
4C0
  8
GUIDE
 10
-29.171703
 20
43.75243
 30
0.0
  0
SEQEND
  5
6C0
  8
GUIDE
  0
POLYLINE
  5
18E
  8
GUIDE
 66
     1
 10
0.0
 20
0.0
 30
0.0
 70
     1
  0
VERTEX
  5
4C2
  8
GUIDE
 10
-38.471703
 20
27.95243
 30
0.0
  0
VERTEX
  5
4C3
  8
GUIDE
 10
-38.471703
 20
34.55243
 30
0.0
  0
VERTEX
  5
4C4
  8
GUIDE
 10
-24.871703
 20
34.55243
 30
0.0
  0
VERTEX
  5
4C5
  8
GUIDE
 10
-24.871703
 20
27.95243
 30
0.0
  0
SEQEND
  5
6C1
  8
GUIDE
  0
POLYLINE
  5
194
  8
GUIDE
 66
     1
 10
0.0
 20
0.0
 30
0.0
 70
     1
  0
VERTEX
  5
4C7
  8
GUIDE
 10
-35.671703
 20
34.55243
 30
0.0
  0
VERTEX
  5
4C8
  8
GUIDE
 10
-35.671703
 20
43.75243
 30
0.0
  0
VERTEX
  5
4C9
  8
GUIDE
 10
-27.671703
 20
43.75243
 30
0.0
  0
VERTEX
  5
4CA
  8
GUIDE
 10
-27.671703
 20
34.55243
 30
0.0
  0
SEQEND
  5
6C2
  8
GUIDE
  0
POLYLINE
  5
19A
  8
GUIDE
 66
     1
 10
0.0
 20
0.0
 30
0.0
 70
     1
  0
VERTEX
  5
4CC
  8
GUIDE
 10
12.728297
 20
27.65243
 30
0.0
  0
VERTEX
  5
4CD
  8
GUIDE
 10
12.728297
 20
27.95243
 30
0.0
  0
VERTEX
  5
4CE
  8
GUIDE
 10
20.728297
 20
27.95243
 30
0.0
  0
VERTEX
  5
4CF
  8
GUIDE
 10
20.728297
 20
27.65243
 30
0.0
  0
SEQEND
  5
6C3
  8
GUIDE
  0
POLYLINE
  5
1A0
  8
GUIDE
 66
     1
 10
0.0
 20
0.0
 30
0.0
 70
     1
  0
VERTEX
  5
4D1
  8
GUIDE
 10
9.928297000000001
 20
11.85243
 30
0.0
  0
VERTEX
  5
4D2
  8
GUIDE
 10
9.928297000000001
 20
18.45243
 30
0.0
  0
VERTEX
  5
4D3
  8
GUIDE
 10
23.528297
 20
18.45243
 30
0.0
  0
VERTEX
  5
4D4
  8
GUIDE
 10
23.528297
 20
11.85243
 30
0.0
  0
SEQEND
  5
6C4
  8
GUIDE
  0
POLYLINE
  5
1A6
  8
GUIDE
 66
     1
 10
0.0
 20
0.0
 30
0.0
 70
     1
  0
VERTEX
  5
4D6
  8
GUIDE
 10
12.728297
 20
11.55243
 30
0.0
  0
VERTEX
  5
4D7
  8
GUIDE
 10
12.728297
 20
11.85243
 30
0.0
  0
VERTEX
  5
4D8
  8
GUIDE
 10
20.728297
 20
11.85243
 30
0.0
  0
VERTEX
  5
4D9
  8
GUIDE
 10
20.728297
 20
11.55243
 30
0.0
  0
SEQEND
  5
6C5
  8
GUIDE
  0
POLYLINE
  5
1AC
  8
GUIDE
 66
     1
 10
0.0
 20
0.0
 30
0.0
 70
     1
  0
VERTEX
  5
4DB
  8
GUIDE
 10
14.228297
 20
-21.44757
 30
0.0
  0
VERTEX
  5
4DC
  8
GUIDE
 10
14.228297
 20
-20.64757
 30
0.0
  0
VERTEX
  5
4DD
  8
GUIDE
 10
19.228297
 20
-20.64757
 30
0.0
  0
VERTEX
  5
4DE
  8
GUIDE
 10
19.228297
 20
-21.44757
 30
0.0
  0
SEQEND
  5
6C6
  8
GUIDE
  0
POLYLINE
  5
1B2
  8
GUIDE
 66
     1
 10
0.0
 20
0.0
 30
0.0
 70
     1
  0
VERTEX
  5
4E0
  8
GUIDE
 10
12.728297
 20
18.45243
 30
0.0
  0
VERTEX
  5
4E1
  8
GUIDE
 10
12.728297
 20
27.65243
 30
0.0
  0
VERTEX
  5
4E2
  8
GUIDE
 10
20.728297
 20
27.65243
 30
0.0
  0
VERTEX
  5
4E3
  8
GUIDE
 10
20.728297
 20
18.45243
 30
0.0
  0
SEQEND
  5
6C7
  8
GUIDE
  0
POLYLINE
  5
1B8
  8
GUIDE
 66
     1
 10
0.0
 20
0.0
 30
0.0
 70
     1
  0
VERTEX
  5
4E5
  8
GUIDE
 10
14.228297
 20
43.75243
 30
0.0
  0
VERTEX
  5
4E6
  8
GUIDE
 10
14.228297
 20
44.55243
 30
0.0
  0
VERTEX
  5
4E7
  8
GUIDE
 10
19.228297
 20
44.55243
 30
0.0
  0
VERTEX
  5
4E8
  8
GUIDE
 10
19.228297
 20
43.75243
 30
0.0
  0
SEQEND
  5
6C8
  8
GUIDE
  0
POLYLINE
  5
1BE
  8
GUIDE
 66
     1
 10
0.0
 20
0.0
 30
0.0
 70
     1
  0
VERTEX
  5
4EA
  8
GUIDE
 10
9.928297000000001
 20
27.95243
 30
0.0
  0
VERTEX
  5
4EB
  8
GUIDE
 10
9.928297000000001
 20
34.55243
 30
0.0
  0
VERTEX
  5
4EC
  8
GUIDE
 10
23.528297
 20
34.55243
 30
0.0
  0
VERTEX
  5
4ED
  8
GUIDE
 10
23.528297
 20
27.95243
 30
0.0
  0
SEQEND
  5
6C9
  8
GUIDE
  0
POLYLINE
  5
1C4
  8
GUIDE
 66
     1
 10
0.0
 20
0.0
 30
0.0
 70
     1
  0
VERTEX
  5
4EF
  8
GUIDE
 10
12.728297
 20
34.55243
 30
0.0
  0
VERTEX
  5
4F0
  8
GUIDE
 10
12.728297
 20
43.75243
 30
0.0
  0
VERTEX
  5
4F1
  8
GUIDE
 10
20.728297
 20
43.75243
 30
0.0
  0
VERTEX
  5
4F2
  8
GUIDE
 10
20.728297
 20
34.55243
 30
0.0
  0
SEQEND
  5
6CA
  8
GUIDE
  0
LINE
  5
1CA
  8
GUIDE
 10
0.628297
 20
27.65243
 30
0.0
 11
0.628297
 21
27.35243
 31
0.0
  0
LINE
  5
1CB
  8
GUIDE
 10
0.628297
 20
27.35243
 30
0.0
 11
8.628297
 21
27.35243
 31
0.0
  0
LINE
  5
1CC
  8
GUIDE
 10
8.628297
 20
27.35243
 30
0.0
 11
8.628297
 21
27.65243
 31
0.0
  0
LINE
  5
1CD
  8
GUIDE
 10
8.628297
 20
27.65243
 30
0.0
 11
0.628297
 21
27.65243
 31
0.0
  0
LINE
  5
1CE
  8
GUIDE
 10
-2.171703
 20
43.45243
 30
0.0
 11
-2.171703
 21
36.85243
 31
0.0
  0
LINE
  5
1CF
  8
GUIDE
 10
-2.171703
 20
36.85243
 30
0.0
 11
11.428297
 21
36.85243
 31
0.0
  0
LINE
  5
1D0
  8
GUIDE
 10
11.428297
 20
36.85243
 30
0.0
 11
11.428297
 21
43.45243
 31
0.0
  0
LINE
  5
1D1
  8
GUIDE
 10
11.428297
 20
43.45243
 30
0.0
 11
-2.171703
 21
43.45243
 31
0.0
  0
LINE
  5
1D2
  8
GUIDE
 10
0.628297
 20
43.75243
 30
0.0
 11
0.628297
 21
43.45243
 31
0.0
  0
LINE
  5
1D3
  8
GUIDE
 10
0.628297
 20
43.45243
 30
0.0
 11
8.628297
 21
43.45243
 31
0.0
  0
LINE
  5
1D4
  8
GUIDE
 10
8.628297
 20
43.45243
 30
0.0
 11
8.628297
 21
43.75243
 31
0.0
  0
LINE
  5
1D5
  8
GUIDE
 10
8.628297
 20
43.75243
 30
0.0
 11
0.628297
 21
43.75243
 31
0.0
  0
LINE
  5
1D6
  8
GUIDE
 10
2.128297
 20
44.55243
 30
0.0
 11
2.128297
 21
43.75243
 31
0.0
  0
LINE
  5
1D7
  8
GUIDE
 10
2.128297
 20
43.75243
 30
0.0
 11
7.128297
 21
43.75243
 31
0.0
  0
LINE
  5
1D8
  8
GUIDE
 10
7.128297
 20
43.75243
 30
0.0
 11
7.128297
 21
44.55243
 31
0.0
  0
LINE
  5
1D9
  8
GUIDE
 10
7.128297
 20
44.55243
 30
0.0
 11
2.128297
 21
44.55243
 31
0.0
  0
LINE
  5
1DA
  8
GUIDE
 10
0.628297
 20
36.85243
 30
0.0
 11
0.628297
 21
27.65243
 31
0.0
  0
LINE
  5
1DB
  8
GUIDE
 10
0.628297
 20
27.65243
 30
0.0
 11
8.628297
 21
27.65243
 31
0.0
  0
LINE
  5
1DC
  8
GUIDE
 10
8.628297
 20
27.65243
 30
0.0
 11
8.628297
 21
36.85243
 31
0.0
  0
LINE
  5
1DD
  8
GUIDE
 10
8.628297
 20
36.85243
 30
0.0
 11
0.628297
 21
36.85243
 31
0.0
  0
LINE
  5
1DE
  8
GUIDE
 10
2.128297
 20
-20.64757
 30
0.0
 11
2.128297
 21
-21.44757
 31
0.0
  0
LINE
  5
1DF
  8
GUIDE
 10
2.128297
 20
-21.44757
 30
0.0
 11
7.128297
 21
-21.44757
 31
0.0
  0
LINE
  5
1E0
  8
GUIDE
 10
7.128297
 20
-21.44757
 30
0.0
 11
7.128297
 21
-20.64757
 31
0.0
  0
LINE
  5
1E1
  8
GUIDE
 10
7.128297
 20
-20.64757
 30
0.0
 11
2.128297
 21
-20.64757
 31
0.0
  0
LINE
  5
1E2
  8
GUIDE
 10
-2.171703
 20
27.35243
 30
0.0
 11
-2.171703
 21
20.75243
 31
0.0
  0
LINE
  5
1E3
  8
GUIDE
 10
-2.171703
 20
20.75243
 30
0.0
 11
11.428297
 21
20.75243
 31
0.0
  0
LINE
  5
1E4
  8
GUIDE
 10
11.428297
 20
20.75243
 30
0.0
 11
11.428297
 21
27.35243
 31
0.0
  0
LINE
  5
1E5
  8
GUIDE
 10
11.428297
 20
27.35243
 30
0.0
 11
-2.171703
 21
27.35243
 31
0.0
  0
LINE
  5
1E6
  8
GUIDE
 10
0.628297
 20
20.75243
 30
0.0
 11
0.628297
 21
11.55243
 31
0.0
  0
LINE
  5
1E7
  8
GUIDE
 10
0.628297
 20
11.55243
 30
0.0
 11
8.628297
 21
11.55243
 31
0.0
  0
LINE
  5
1E8
  8
GUIDE
 10
8.628297
 20
11.55243
 30
0.0
 11
8.628297
 21
20.75243
 31
0.0
  0
LINE
  5
1E9
  8
GUIDE
 10
8.628297
 20
20.75243
 30
0.0
 11
0.628297
 21
20.75243
 31
0.0
  0
LINE
  5
1EA
  8
GUIDE
 10
24.828297
 20
27.65243
 30
0.0
 11
24.828297
 21
27.35243
 31
0.0
  0
LINE
  5
1EB
  8
GUIDE
 10
24.828297
 20
27.35243
 30
0.0
 11
32.828297
 21
27.35243
 31
0.0
  0
LINE
  5
1EC
  8
GUIDE
 10
32.828297
 20
27.35243
 30
0.0
 11
32.828297
 21
27.65243
 31
0.0
  0
LINE
  5
1ED
  8
GUIDE
 10
32.828297
 20
27.65243
 30
0.0
 11
24.828297
 21
27.65243
 31
0.0
  0
LINE
  5
1EE
  8
GUIDE
 10
22.028297
 20
43.45243
 30
0.0
 11
22.028297
 21
36.85243
 31
0.0
  0
LINE
  5
1EF
  8
GUIDE
 10
22.028297
 20
36.85243
 30
0.0
 11
35.628297
 21
36.85243
 31
0.0
  0
LINE
  5
1F0
  8
GUIDE
 10
35.628297
 20
36.85243
 30
0.0
 11
35.628297
 21
43.45243
 31
0.0
  0
LINE
  5
1F1
  8
GUIDE
 10
35.628297
 20
43.45243
 30
0.0
 11
22.028297
 21
43.45243
 31
0.0
  0
LINE
  5
1F2
  8
GUIDE
 10
24.828297
 20
43.75243
 30
0.0
 11
24.828297
 21
43.45243
 31
0.0
  0
LINE
  5
1F3
  8
GUIDE
 10
24.828297
 20
43.45243
 30
0.0
 11
32.828297
 21
43.45243
 31
0.0
  0
LINE
  5
1F4
  8
GUIDE
 10
32.828297
 20
43.45243
 30
0.0
 11
32.828297
 21
43.75243
 31
0.0
  0
LINE
  5
1F5
  8
GUIDE
 10
32.828297
 20
43.75243
 30
0.0
 11
24.828297
 21
43.75243
 31
0.0
  0
LINE
  5
1F6
  8
GUIDE
 10
26.328297
 20
44.55243
 30
0.0
 11
26.328297
 21
43.75243
 31
0.0
  0
LINE
  5
1F7
  8
GUIDE
 10
26.328297
 20
43.75243
 30
0.0
 11
31.328297
 21
43.75243
 31
0.0
  0
LINE
  5
1F8
  8
GUIDE
 10
31.328297
 20
43.75243
 30
0.0
 11
31.328297
 21
44.55243
 31
0.0
  0
LINE
  5
1F9
  8
GUIDE
 10
31.328297
 20
44.55243
 30
0.0
 11
26.328297
 21
44.55243
 31
0.0
  0
LINE
  5
1FA
  8
GUIDE
 10
24.828297
 20
36.85243
 30
0.0
 11
24.828297
 21
27.65243
 31
0.0
  0
LINE
  5
1FB
  8
GUIDE
 10
24.828297
 20
27.65243
 30
0.0
 11
32.828297
 21
27.65243
 31
0.0
  0
LINE
  5
1FC
  8
GUIDE
 10
32.828297
 20
27.65243
 30
0.0
 11
32.828297
 21
36.85243
 31
0.0
  0
LINE
  5
1FD
  8
GUIDE
 10
32.828297
 20
36.85243
 30
0.0
 11
24.828297
 21
36.85243
 31
0.0
  0
LINE
  5
1FE
  8
GUIDE
 10
26.328297
 20
-20.64757
 30
0.0
 11
26.328297
 21
-21.44757
 31
0.0
  0
LINE
  5
1FF
  8
GUIDE
 10
26.328297
 20
-21.44757
 30
0.0
 11
31.328297
 21
-21.44757
 31
0.0
  0
LINE
  5
200
  8
GUIDE
 10
31.328297
 20
-21.44757
 30
0.0
 11
31.328297
 21
-20.64757
 31
0.0
  0
LINE
  5
201
  8
GUIDE
 10
31.328297
 20
-20.64757
 30
0.0
 11
26.328297
 21
-20.64757
 31
0.0
  0
LINE
  5
202
  8
GUIDE
 10
22.028297
 20
27.35243
 30
0.0
 11
22.028297
 21
20.75243
 31
0.0
  0
LINE
  5
203
  8
GUIDE
 10
22.028297
 20
20.75243
 30
0.0
 11
35.628297
 21
20.75243
 31
0.0
  0
LINE
  5
204
  8
GUIDE
 10
35.628297
 20
20.75243
 30
0.0
 11
35.628297
 21
27.35243
 31
0.0
  0
LINE
  5
205
  8
GUIDE
 10
35.628297
 20
27.35243
 30
0.0
 11
22.028297
 21
27.35243
 31
0.0
  0
LINE
  5
206
  8
GUIDE
 10
24.828297
 20
20.75243
 30
0.0
 11
24.828297
 21
11.55243
 31
0.0
  0
LINE
  5
207
  8
GUIDE
 10
24.828297
 20
11.55243
 30
0.0
 11
32.828297
 21
11.55243
 31
0.0
  0
LINE
  5
208
  8
GUIDE
 10
32.828297
 20
11.55243
 30
0.0
 11
32.828297
 21
20.75243
 31
0.0
  0
LINE
  5
209
  8
GUIDE
 10
32.828297
 20
20.75243
 30
0.0
 11
24.828297
 21
20.75243
 31
0.0
  0
POLYLINE
  5
20A
  8
GUIDE
 66
     1
 10
0.0
 20
0.0
 30
0.0
 70
     1
  0
VERTEX
  5
4F4
  8
GUIDE
 10
-14.271703
 20
-4.24757
 30
0.0
  0
VERTEX
  5
4F5
  8
GUIDE
 10
-14.271703
 20
2.35243
 30
0.0
  0
VERTEX
  5
4F6
  8
GUIDE
 10
-0.6717030000000001
 20
2.35243
 30
0.0
  0
VERTEX
  5
4F7
  8
GUIDE
 10
-0.6717030000000001
 20
-4.24757
 30
0.0
  0
SEQEND
  5
6CB
  8
GUIDE
  0
POLYLINE
  5
210
  8
GUIDE
 66
     1
 10
0.0
 20
0.0
 30
0.0
 70
     1
  0
VERTEX
  5
4F9
  8
GUIDE
 10
-14.271703
 20
-20.34757
 30
0.0
  0
VERTEX
  5
4FA
  8
GUIDE
 10
-14.271703
 20
-13.74757
 30
0.0
  0
VERTEX
  5
4FB
  8
GUIDE
 10
-0.6717030000000001
 20
-13.74757
 30
0.0
  0
VERTEX
  5
4FC
  8
GUIDE
 10
-0.6717030000000001
 20
-20.34757
 30
0.0
  0
SEQEND
  5
6CC
  8
GUIDE
  0
LINE
  5
216
  8
GUIDE
 10
-39.671703
 20
-11.44757
 30
0.0
 11
-47.671703
 21
-11.44757
 31
0.0
  0
LINE
  5
217
  8
GUIDE
 10
-36.871703
 20
-4.84757
 30
0.0
 11
-50.471703
 21
-4.84757
 31
0.0
  0
LINE
  5
218
  8
GUIDE
 10
-50.471703
 20
-11.44757
 30
0.0
 11
-36.871703
 21
-11.44757
 31
0.0
  0
LINE
  5
219
  8
GUIDE
 10
-39.671703
 20
4.65243
 30
0.0
 11
-47.671703
 21
4.65243
 31
0.0
  0
LINE
  5
21A
  8
GUIDE
 10
-47.671703
 20
-4.54757
 30
0.0
 11
-39.671703
 21
-4.54757
 31
0.0
  0
LINE
  5
21B
  8
GUIDE
 10
-50.471703
 20
4.65243
 30
0.0
 11
-36.871703
 21
4.65243
 31
0.0
  0
LINE
  5
21C
  8
GUIDE
 10
-39.671703
 20
-4.54757
 30
0.0
 11
-47.671703
 21
-4.54757
 31
0.0
  0
LINE
  5
21D
  8
GUIDE
 10
-47.671703
 20
-4.84757
 30
0.0
 11
-39.671703
 21
-4.84757
 31
0.0
  0
POLYLINE
  5
21E
  8
GUIDE
 66
     1
 10
0.0
 20
0.0
 30
0.0
 70
     1
  0
VERTEX
  5
4FE
  8
GUIDE
 10
-59.771703
 20
-13.74757
 30
0.0
  0
VERTEX
  5
4FF
  8
GUIDE
 10
-59.771703
 20
-4.54757
 30
0.0
  0
VERTEX
  5
500
  8
GUIDE
 10
-51.771703
 20
-4.54757
 30
0.0
  0
VERTEX
  5
501
  8
GUIDE
 10
-51.771703
 20
-13.74757
 30
0.0
  0
SEQEND
  5
6CD
  8
GUIDE
  0
LINE
  5
224
  8
GUIDE
 10
-50.471703
 20
-4.84757
 30
0.0
 11
-50.471703
 21
-11.44757
 31
0.0
  0
POLYLINE
  5
225
  8
GUIDE
 66
     1
 10
0.0
 20
0.0
 30
0.0
 70
     1
  0
VERTEX
  5
503
  8
GUIDE
 10
-62.571703
 20
-20.34757
 30
0.0
  0
VERTEX
  5
504
  8
GUIDE
 10
-62.571703
 20
-13.74757
 30
0.0
  0
VERTEX
  5
505
  8
GUIDE
 10
-48.971703
 20
-13.74757
 30
0.0
  0
VERTEX
  5
506
  8
GUIDE
 10
-48.971703
 20
-20.34757
 30
0.0
  0
SEQEND
  5
6CE
  8
GUIDE
  0
LINE
  5
22B
  8
GUIDE
 10
-47.671703
 20
-11.44757
 30
0.0
 11
-47.671703
 21
-20.64757
 31
0.0
  0
POLYLINE
  5
22C
  8
GUIDE
 66
     1
 10
0.0
 20
0.0
 30
0.0
 70
     1
  0
VERTEX
  5
508
  8
GUIDE
 10
-62.571703
 20
-4.24757
 30
0.0
  0
VERTEX
  5
509
  8
GUIDE
 10
-62.571703
 20
2.35243
 30
0.0
  0
VERTEX
  5
50A
  8
GUIDE
 10
-48.971703
 20
2.35243
 30
0.0
  0
VERTEX
  5
50B
  8
GUIDE
 10
-48.971703
 20
-4.24757
 30
0.0
  0
SEQEND
  5
6CF
  8
GUIDE
  0
POLYLINE
  5
232
  8
GUIDE
 66
     1
 10
0.0
 20
0.0
 30
0.0
 70
     1
  0
VERTEX
  5
50D
  8
GUIDE
 10
-59.771703
 20
2.35243
 30
0.0
  0
VERTEX
  5
50E
  8
GUIDE
 10
-59.771703
 20
11.55243
 30
0.0
  0
VERTEX
  5
50F
  8
GUIDE
 10
-51.771703
 20
11.55243
 30
0.0
  0
VERTEX
  5
510
  8
GUIDE
 10
-51.771703
 20
2.35243
 30
0.0
  0
SEQEND
  5
6D0
  8
GUIDE
  0
LINE
  5
238
  8
GUIDE
 10
-47.671703
 20
4.65243
 30
0.0
 11
-47.671703
 21
-4.54757
 31
0.0
  0
POLYLINE
  5
239
  8
GUIDE
 66
     1
 10
0.0
 20
0.0
 30
0.0
 70
     1
  0
VERTEX
  5
512
  8
GUIDE
 10
-59.771703
 20
-4.54757
 30
0.0
  0
VERTEX
  5
513
  8
GUIDE
 10
-59.771703
 20
-4.24757
 30
0.0
  0
VERTEX
  5
514
  8
GUIDE
 10
-51.771703
 20
-4.24757
 30
0.0
  0
VERTEX
  5
515
  8
GUIDE
 10
-51.771703
 20
-4.54757
 30
0.0
  0
SEQEND
  5
6D1
  8
GUIDE
  0
LINE
  5
23F
  8
GUIDE
 10
-47.671703
 20
-4.54757
 30
0.0
 11
-47.671703
 21
-4.84757
 31
0.0
  0
LINE
  5
240
  8
GUIDE
 10
-50.471703
 20
11.25243
 30
0.0
 11
-50.471703
 21
4.65243
 31
0.0
  0
POLYLINE
  5
241
  8
GUIDE
 66
     1
 10
0.0
 20
0.0
 30
0.0
 70
     1
  0
VERTEX
  5
517
  8
GUIDE
 10
-35.671703
 20
-13.74757
 30
0.0
  0
VERTEX
  5
518
  8
GUIDE
 10
-35.671703
 20
-4.54757
 30
0.0
  0
VERTEX
  5
519
  8
GUIDE
 10
-27.671703
 20
-4.54757
 30
0.0
  0
VERTEX
  5
51A
  8
GUIDE
 10
-27.671703
 20
-13.74757
 30
0.0
  0
SEQEND
  5
6D2
  8
GUIDE
  0
LINE
  5
247
  8
GUIDE
 10
-12.771703
 20
-11.44757
 30
0.0
 11
-12.771703
 21
-4.84757
 31
0.0
  0
LINE
  5
248
  8
GUIDE
 10
-26.371703
 20
-4.84757
 30
0.0
 11
-26.371703
 21
-11.44757
 31
0.0
  0
LINE
  5
249
  8
GUIDE
 10
-36.871703
 20
-11.44757
 30
0.0
 11
-36.871703
 21
-4.84757
 31
0.0
  0
POLYLINE
  5
24A
  8
GUIDE
 66
     1
 10
0.0
 20
0.0
 30
0.0
 70
     1
  0
VERTEX
  5
51C
  8
GUIDE
 10
-38.471703
 20
-20.34757
 30
0.0
  0
VERTEX
  5
51D
  8
GUIDE
 10
-38.471703
 20
-13.74757
 30
0.0
  0
VERTEX
  5
51E
  8
GUIDE
 10
-24.871703
 20
-13.74757
 30
0.0
  0
VERTEX
  5
51F
  8
GUIDE
 10
-24.871703
 20
-20.34757
 30
0.0
  0
SEQEND
  5
6D3
  8
GUIDE
  0
LINE
  5
250
  8
GUIDE
 10
-39.671703
 20
-20.64757
 30
0.0
 11
-39.671703
 21
-11.44757
 31
0.0
  0
LINE
  5
251
  8
GUIDE
 10
-15.571703
 20
-11.44757
 30
0.0
 11
-23.571703
 21
-11.44757
 31
0.0
  0
LINE
  5
252
  8
GUIDE
 10
-26.371703
 20
-11.44757
 30
0.0
 11
-12.771703
 21
-11.44757
 31
0.0
  0
LINE
  5
253
  8
GUIDE
 10
-23.571703
 20
-11.44757
 30
0.0
 11
-23.571703
 21
-20.64757
 31
0.0
  0
LINE
  5
254
  8
GUIDE
 10
-15.571703
 20
-20.64757
 30
0.0
 11
-15.571703
 21
-11.44757
 31
0.0
  0
POLYLINE
  5
255
  8
GUIDE
 66
     1
 10
0.0
 20
0.0
 30
0.0
 70
     1
  0
VERTEX
  5
521
  8
GUIDE
 10
-35.671703
 20
2.35243
 30
0.0
  0
VERTEX
  5
522
  8
GUIDE
 10
-35.671703
 20
11.55243
 30
0.0
  0
VERTEX
  5
523
  8
GUIDE
 10
-27.671703
 20
11.55243
 30
0.0
  0
VERTEX
  5
524
  8
GUIDE
 10
-27.671703
 20
2.35243
 30
0.0
  0
SEQEND
  5
6D4
  8
GUIDE
  0
POLYLINE
  5
25B
  8
GUIDE
 66
     1
 10
0.0
 20
0.0
 30
0.0
 70
     1
  0
VERTEX
  5
526
  8
GUIDE
 10
-38.471703
 20
-4.24757
 30
0.0
  0
VERTEX
  5
527
  8
GUIDE
 10
-38.471703
 20
2.35243
 30
0.0
  0
VERTEX
  5
528
  8
GUIDE
 10
-24.871703
 20
2.35243
 30
0.0
  0
VERTEX
  5
529
  8
GUIDE
 10
-24.871703
 20
-4.24757
 30
0.0
  0
SEQEND
  5
6D5
  8
GUIDE
  0
POLYLINE
  5
261
  8
GUIDE
 66
     1
 10
0.0
 20
0.0
 30
0.0
 70
     1
  0
VERTEX
  5
52B
  8
GUIDE
 10
-35.671703
 20
-4.54757
 30
0.0
  0
VERTEX
  5
52C
  8
GUIDE
 10
-35.671703
 20
-4.24757
 30
0.0
  0
VERTEX
  5
52D
  8
GUIDE
 10
-27.671703
 20
-4.24757
 30
0.0
  0
VERTEX
  5
52E
  8
GUIDE
 10
-27.671703
 20
-4.54757
 30
0.0
  0
SEQEND
  5
6D6
  8
GUIDE
  0
LINE
  5
267
  8
GUIDE
 10
-39.671703
 20
-4.54757
 30
0.0
 11
-39.671703
 21
4.65243
 31
0.0
  0
LINE
  5
268
  8
GUIDE
 10
-39.671703
 20
-4.84757
 30
0.0
 11
-39.671703
 21
-4.54757
 31
0.0
  0
LINE
  5
269
  8
GUIDE
 10
-36.871703
 20
4.65243
 30
0.0
 11
-36.871703
 21
11.25243
 31
0.0
  0
LINE
  5
26A
  8
GUIDE
 10
-15.571703
 20
-4.54757
 30
0.0
 11
-15.571703
 21
4.65243
 31
0.0
  0
LINE
  5
26B
  8
GUIDE
 10
-23.571703
 20
4.65243
 30
0.0
 11
-23.571703
 21
-4.54757
 31
0.0
  0
LINE
  5
26C
  8
GUIDE
 10
-12.771703
 20
-4.84757
 30
0.0
 11
-26.371703
 21
-4.84757
 31
0.0
  0
LINE
  5
26D
  8
GUIDE
 10
-23.571703
 20
-4.54757
 30
0.0
 11
-15.571703
 21
-4.54757
 31
0.0
  0
LINE
  5
26E
  8
GUIDE
 10
-15.571703
 20
-4.54757
 30
0.0
 11
-23.571703
 21
-4.54757
 31
0.0
  0
LINE
  5
26F
  8
GUIDE
 10
-23.571703
 20
-4.84757
 30
0.0
 11
-15.571703
 21
-4.84757
 31
0.0
  0
LINE
  5
270
  8
GUIDE
 10
-23.571703
 20
-4.54757
 30
0.0
 11
-23.571703
 21
-4.84757
 31
0.0
  0
LINE
  5
271
  8
GUIDE
 10
-15.571703
 20
-4.84757
 30
0.0
 11
-15.571703
 21
-4.54757
 31
0.0
  0
LINE
  5
272
  8
GUIDE
 10
-15.571703
 20
4.65243
 30
0.0
 11
-23.571703
 21
4.65243
 31
0.0
  0
LINE
  5
273
  8
GUIDE
 10
-26.371703
 20
4.65243
 30
0.0
 11
-12.771703
 21
4.65243
 31
0.0
  0
LINE
  5
274
  8
GUIDE
 10
-26.371703
 20
11.25243
 30
0.0
 11
-26.371703
 21
4.65243
 31
0.0
  0
LINE
  5
275
  8
GUIDE
 10
-12.771703
 20
4.65243
 30
0.0
 11
-12.771703
 21
11.25243
 31
0.0
  0
POLYLINE
  5
276
  8
GUIDE
 66
     1
 10
0.0
 20
0.0
 30
0.0
 70
     1
  0
VERTEX
  5
530
  8
GUIDE
 10
12.728297
 20
2.35243
 30
0.0
  0
VERTEX
  5
531
  8
GUIDE
 10
12.728297
 20
11.55243
 30
0.0
  0
VERTEX
  5
532
  8
GUIDE
 10
20.728297
 20
11.55243
 30
0.0
  0
VERTEX
  5
533
  8
GUIDE
 10
20.728297
 20
2.35243
 30
0.0
  0
SEQEND
  5
6D7
  8
GUIDE
  0
POLYLINE
  5
27C
  8
GUIDE
 66
     1
 10
0.0
 20
0.0
 30
0.0
 70
     1
  0
VERTEX
  5
535
  8
GUIDE
 10
9.928297000000001
 20
-4.24757
 30
0.0
  0
VERTEX
  5
536
  8
GUIDE
 10
9.928297000000001
 20
2.35243
 30
0.0
  0
VERTEX
  5
537
  8
GUIDE
 10
23.528297
 20
2.35243
 30
0.0
  0
VERTEX
  5
538
  8
GUIDE
 10
23.528297
 20
-4.24757
 30
0.0
  0
SEQEND
  5
6D8
  8
GUIDE
  0
POLYLINE
  5
282
  8
GUIDE
 66
     1
 10
0.0
 20
0.0
 30
0.0
 70
     1
  0
VERTEX
  5
53A
  8
GUIDE
 10
12.728297
 20
-13.74757
 30
0.0
  0
VERTEX
  5
53B
  8
GUIDE
 10
12.728297
 20
-4.54757
 30
0.0
  0
VERTEX
  5
53C
  8
GUIDE
 10
20.728297
 20
-4.54757
 30
0.0
  0
VERTEX
  5
53D
  8
GUIDE
 10
20.728297
 20
-13.74757
 30
0.0
  0
SEQEND
  5
6D9
  8
GUIDE
  0
POLYLINE
  5
288
  8
GUIDE
 66
     1
 10
0.0
 20
0.0
 30
0.0
 70
     1
  0
VERTEX
  5
53F
  8
GUIDE
 10
9.928297000000001
 20
-20.34757
 30
0.0
  0
VERTEX
  5
540
  8
GUIDE
 10
9.928297000000001
 20
-13.74757
 30
0.0
  0
VERTEX
  5
541
  8
GUIDE
 10
23.528297
 20
-13.74757
 30
0.0
  0
VERTEX
  5
542
  8
GUIDE
 10
23.528297
 20
-20.34757
 30
0.0
  0
SEQEND
  5
6DA
  8
GUIDE
  0
POLYLINE
  5
28E
  8
GUIDE
 66
     1
 10
0.0
 20
0.0
 30
0.0
 70
     1
  0
VERTEX
  5
544
  8
GUIDE
 10
12.728297
 20
-4.54757
 30
0.0
  0
VERTEX
  5
545
  8
GUIDE
 10
12.728297
 20
-4.24757
 30
0.0
  0
VERTEX
  5
546
  8
GUIDE
 10
20.728297
 20
-4.24757
 30
0.0
  0
VERTEX
  5
547
  8
GUIDE
 10
20.728297
 20
-4.54757
 30
0.0
  0
SEQEND
  5
6DB
  8
GUIDE
  0
POLYLINE
  5
294
  8
GUIDE
 66
     1
 10
0.0
 20
0.0
 30
0.0
 70
     1
  0
VERTEX
  5
549
  8
GUIDE
 10
-11.471703
 20
-13.74757
 30
0.0
  0
VERTEX
  5
54A
  8
GUIDE
 10
-11.471703
 20
-4.54757
 30
0.0
  0
VERTEX
  5
54B
  8
GUIDE
 10
-3.471703
 20
-4.54757
 30
0.0
  0
VERTEX
  5
54C
  8
GUIDE
 10
-3.471703
 20
-13.74757
 30
0.0
  0
SEQEND
  5
6DC
  8
GUIDE
  0
LINE
  5
29A
  8
GUIDE
 10
11.428297
 20
-11.44757
 30
0.0
 11
11.428297
 21
-4.84757
 31
0.0
  0
LINE
  5
29B
  8
GUIDE
 10
-2.171703
 20
-4.84757
 30
0.0
 11
-2.171703
 21
-11.44757
 31
0.0
  0
LINE
  5
29C
  8
GUIDE
 10
8.628297
 20
-11.44757
 30
0.0
 11
0.628297
 21
-11.44757
 31
0.0
  0
LINE
  5
29D
  8
GUIDE
 10
-2.171703
 20
-11.44757
 30
0.0
 11
11.428297
 21
-11.44757
 31
0.0
  0
LINE
  5
29E
  8
GUIDE
 10
0.628297
 20
-11.44757
 30
0.0
 11
0.628297
 21
-20.64757
 31
0.0
  0
LINE
  5
29F
  8
GUIDE
 10
8.628297
 20
-20.64757
 30
0.0
 11
8.628297
 21
-11.44757
 31
0.0
  0
LINE
  5
2A0
  8
GUIDE
 10
11.428297
 20
-4.84757
 30
0.0
 11
-2.171703
 21
-4.84757
 31
0.0
  0
LINE
  5
2A1
  8
GUIDE
 10
8.628297
 20
4.65243
 30
0.0
 11
0.628297
 21
4.65243
 31
0.0
  0
LINE
  5
2A2
  8
GUIDE
 10
0.628297
 20
-4.54757
 30
0.0
 11
8.628297
 21
-4.54757
 31
0.0
  0
LINE
  5
2A3
  8
GUIDE
 10
-2.171703
 20
4.65243
 30
0.0
 11
11.428297
 21
4.65243
 31
0.0
  0
LINE
  5
2A4
  8
GUIDE
 10
8.628297
 20
-4.54757
 30
0.0
 11
0.628297
 21
-4.54757
 31
0.0
  0
LINE
  5
2A5
  8
GUIDE
 10
0.628297
 20
-4.84757
 30
0.0
 11
8.628297
 21
-4.84757
 31
0.0
  0
POLYLINE
  5
2A6
  8
GUIDE
 66
     1
 10
0.0
 20
0.0
 30
0.0
 70
     1
  0
VERTEX
  5
54E
  8
GUIDE
 10
-11.471703
 20
2.35243
 30
0.0
  0
VERTEX
  5
54F
  8
GUIDE
 10
-11.471703
 20
11.55243
 30
0.0
  0
VERTEX
  5
550
  8
GUIDE
 10
-3.471703
 20
11.55243
 30
0.0
  0
VERTEX
  5
551
  8
GUIDE
 10
-3.471703
 20
2.35243
 30
0.0
  0
SEQEND
  5
6DD
  8
GUIDE
  0
LINE
  5
2AC
  8
GUIDE
 10
0.628297
 20
4.65243
 30
0.0
 11
0.628297
 21
-4.54757
 31
0.0
  0
POLYLINE
  5
2AD
  8
GUIDE
 66
     1
 10
0.0
 20
0.0
 30
0.0
 70
     1
  0
VERTEX
  5
553
  8
GUIDE
 10
-11.471703
 20
-4.54757
 30
0.0
  0
VERTEX
  5
554
  8
GUIDE
 10
-11.471703
 20
-4.24757
 30
0.0
  0
VERTEX
  5
555
  8
GUIDE
 10
-3.471703
 20
-4.24757
 30
0.0
  0
VERTEX
  5
556
  8
GUIDE
 10
-3.471703
 20
-4.54757
 30
0.0
  0
SEQEND
  5
6DE
  8
GUIDE
  0
LINE
  5
2B3
  8
GUIDE
 10
0.628297
 20
-4.54757
 30
0.0
 11
0.628297
 21
-4.84757
 31
0.0
  0
LINE
  5
2B4
  8
GUIDE
 10
-2.171703
 20
11.25243
 30
0.0
 11
-2.171703
 21
4.65243
 31
0.0
  0
LINE
  5
2B5
  8
GUIDE
 10
8.628297
 20
-4.54757
 30
0.0
 11
8.628297
 21
4.65243
 31
0.0
  0
LINE
  5
2B6
  8
GUIDE
 10
8.628297
 20
-4.84757
 30
0.0
 11
8.628297
 21
-4.54757
 31
0.0
  0
LINE
  5
2B7
  8
GUIDE
 10
11.428297
 20
4.65243
 30
0.0
 11
11.428297
 21
11.25243
 31
0.0
  0
LINE
  5
2B8
  8
GUIDE
 10
22.028297
 20
-4.84757
 30
0.0
 11
22.028297
 21
-11.44757
 31
0.0
  0
LINE
  5
2B9
  8
GUIDE
 10
22.028297
 20
-11.44757
 30
0.0
 11
35.628297
 21
-11.44757
 31
0.0
  0
LINE
  5
2BA
  8
GUIDE
 10
32.828297
 20
-11.44757
 30
0.0
 11
24.828297
 21
-11.44757
 31
0.0
  0
LINE
  5
2BB
  8
GUIDE
 10
24.828297
 20
-11.44757
 30
0.0
 11
24.828297
 21
-20.64757
 31
0.0
  0
LINE
  5
2BC
  8
GUIDE
 10
32.828297
 20
-20.64757
 30
0.0
 11
32.828297
 21
-11.44757
 31
0.0
  0
LINE
  5
2BD
  8
GUIDE
 10
35.628297
 20
-4.84757
 30
0.0
 11
22.028297
 21
-4.84757
 31
0.0
  0
LINE
  5
2BE
  8
GUIDE
 10
22.028297
 20
4.65243
 30
0.0
 11
35.628297
 21
4.65243
 31
0.0
  0
LINE
  5
2BF
  8
GUIDE
 10
32.828297
 20
-4.54757
 30
0.0
 11
32.828297
 21
4.65243
 31
0.0
  0
LINE
  5
2C0
  8
GUIDE
 10
24.828297
 20
4.65243
 30
0.0
 11
24.828297
 21
-4.54757
 31
0.0
  0
LINE
  5
2C1
  8
GUIDE
 10
24.828297
 20
-4.54757
 30
0.0
 11
32.828297
 21
-4.54757
 31
0.0
  0
LINE
  5
2C2
  8
GUIDE
 10
32.828297
 20
-4.54757
 30
0.0
 11
24.828297
 21
-4.54757
 31
0.0
  0
LINE
  5
2C3
  8
GUIDE
 10
24.828297
 20
-4.84757
 30
0.0
 11
32.828297
 21
-4.84757
 31
0.0
  0
LINE
  5
2C4
  8
GUIDE
 10
24.828297
 20
-4.54757
 30
0.0
 11
24.828297
 21
-4.84757
 31
0.0
  0
LINE
  5
2C5
  8
GUIDE
 10
32.828297
 20
-4.84757
 30
0.0
 11
32.828297
 21
-4.54757
 31
0.0
  0
LINE
  5
2C6
  8
GUIDE
 10
32.828297
 20
4.65243
 30
0.0
 11
24.828297
 21
4.65243
 31
0.0
  0
LINE
  5
2C7
  8
GUIDE
 10
22.028297
 20
11.25243
 30
0.0
 11
22.028297
 21
4.65243
 31
0.0
  0
LINE
  5
2C8
  8
GUIDE
 10
-47.671703
 20
-20.64757
 30
0.0
 11
-39.671703
 21
-20.64757
 31
0.0
  0
POLYLINE
  5
2C9
  8
GUIDE
 66
     1
 10
0.0
 20
0.0
 30
0.0
 70
     1
  0
VERTEX
  5
558
  8
GUIDE
 10
-59.771703
 20
-20.64757
 30
0.0
  0
VERTEX
  5
559
  8
GUIDE
 10
-59.771703
 20
-20.34757
 30
0.0
  0
VERTEX
  5
55A
  8
GUIDE
 10
-51.771703
 20
-20.34757
 30
0.0
  0
VERTEX
  5
55B
  8
GUIDE
 10
-51.771703
 20
-20.64757
 30
0.0
  0
SEQEND
  5
6DF
  8
GUIDE
  0
POLYLINE
  5
2CF
  8
GUIDE
 66
     1
 10
0.0
 20
0.0
 30
0.0
 70
     1
  0
VERTEX
  5
55D
  8
GUIDE
 10
-35.671703
 20
-20.64757
 30
0.0
  0
VERTEX
  5
55E
  8
GUIDE
 10
-35.671703
 20
-20.34757
 30
0.0
  0
VERTEX
  5
55F
  8
GUIDE
 10
-27.671703
 20
-20.34757
 30
0.0
  0
VERTEX
  5
560
  8
GUIDE
 10
-27.671703
 20
-20.64757
 30
0.0
  0
SEQEND
  5
6E0
  8
GUIDE
  0
LINE
  5
2D5
  8
GUIDE
 10
-23.571703
 20
-20.64757
 30
0.0
 11
-15.571703
 21
-20.64757
 31
0.0
  0
POLYLINE
  5
2D6
  8
GUIDE
 66
     1
 10
0.0
 20
0.0
 30
0.0
 70
     1
  0
VERTEX
  5
562
  8
GUIDE
 10
12.728297
 20
-20.64757
 30
0.0
  0
VERTEX
  5
563
  8
GUIDE
 10
12.728297
 20
-20.34757
 30
0.0
  0
VERTEX
  5
564
  8
GUIDE
 10
20.728297
 20
-20.34757
 30
0.0
  0
VERTEX
  5
565
  8
GUIDE
 10
20.728297
 20
-20.64757
 30
0.0
  0
SEQEND
  5
6E1
  8
GUIDE
  0
LINE
  5
2DC
  8
GUIDE
 10
0.628297
 20
-20.64757
 30
0.0
 11
8.628297
 21
-20.64757
 31
0.0
  0
POLYLINE
  5
2DD
  8
GUIDE
 66
     1
 10
0.0
 20
0.0
 30
0.0
 70
     1
  0
VERTEX
  5
567
  8
GUIDE
 10
-11.471703
 20
-20.64757
 30
0.0
  0
VERTEX
  5
568
  8
GUIDE
 10
-11.471703
 20
-20.34757
 30
0.0
  0
VERTEX
  5
569
  8
GUIDE
 10
-3.471703
 20
-20.34757
 30
0.0
  0
VERTEX
  5
56A
  8
GUIDE
 10
-3.471703
 20
-20.64757
 30
0.0
  0
SEQEND
  5
6E2
  8
GUIDE
  0
LINE
  5
2E3
  8
GUIDE
 10
24.828297
 20
-20.64757
 30
0.0
 11
32.828297
 21
-20.64757
 31
0.0
  0
LINE
  5
2E4
  8
GUIDE
 10
-46.171703
 20
11.55243
 30
0.0
 11
-41.171703
 21
11.55243
 31
0.0
  0
LINE
  5
2E5
  8
GUIDE
 10
-39.671703
 20
11.55243
 30
0.0
 11
-47.671703
 21
11.55243
 31
0.0
  0
LINE
  5
2E6
  8
GUIDE
 10
-47.671703
 20
11.25243
 30
0.0
 11
-39.671703
 21
11.25243
 31
0.0
  0
LINE
  5
2E7
  8
GUIDE
 10
-36.871703
 20
11.25243
 30
0.0
 11
-50.471703
 21
11.25243
 31
0.0
  0
LINE
  5
2E8
  8
GUIDE
 10
-47.671703
 20
11.55243
 30
0.0
 11
-47.671703
 21
11.25243
 31
0.0
  0
LINE
  5
2E9
  8
GUIDE
 10
-39.671703
 20
11.25243
 30
0.0
 11
-39.671703
 21
11.55243
 31
0.0
  0
LINE
  5
2EA
  8
GUIDE
 10
-22.071703
 20
11.55243
 30
0.0
 11
-17.071703
 21
11.55243
 31
0.0
  0
LINE
  5
2EB
  8
GUIDE
 10
-15.571703
 20
11.55243
 30
0.0
 11
-23.571703
 21
11.55243
 31
0.0
  0
LINE
  5
2EC
  8
GUIDE
 10
-23.571703
 20
11.25243
 30
0.0
 11
-15.571703
 21
11.25243
 31
0.0
  0
LINE
  5
2ED
  8
GUIDE
 10
-12.771703
 20
11.25243
 30
0.0
 11
-26.371703
 21
11.25243
 31
0.0
  0
LINE
  5
2EE
  8
GUIDE
 10
-23.571703
 20
11.55243
 30
0.0
 11
-23.571703
 21
11.25243
 31
0.0
  0
LINE
  5
2EF
  8
GUIDE
 10
-15.571703
 20
11.25243
 30
0.0
 11
-15.571703
 21
11.55243
 31
0.0
  0
LINE
  5
2F0
  8
GUIDE
 10
2.128297
 20
11.55243
 30
0.0
 11
7.128297
 21
11.55243
 31
0.0
  0
LINE
  5
2F1
  8
GUIDE
 10
8.628297
 20
11.55243
 30
0.0
 11
0.628297
 21
11.55243
 31
0.0
  0
LINE
  5
2F2
  8
GUIDE
 10
0.628297
 20
11.25243
 30
0.0
 11
8.628297
 21
11.25243
 31
0.0
  0
LINE
  5
2F3
  8
GUIDE
 10
11.428297
 20
11.25243
 30
0.0
 11
-2.171703
 21
11.25243
 31
0.0
  0
LINE
  5
2F4
  8
GUIDE
 10
0.628297
 20
11.55243
 30
0.0
 11
0.628297
 21
11.25243
 31
0.0
  0
LINE
  5
2F5
  8
GUIDE
 10
8.628297
 20
11.25243
 30
0.0
 11
8.628297
 21
11.55243
 31
0.0
  0
LINE
  5
2F6
  8
GUIDE
 10
26.328297
 20
11.55243
 30
0.0
 11
31.328297
 21
11.55243
 31
0.0
  0
LINE
  5
2F7
  8
GUIDE
 10
32.828297
 20
11.55243
 30
0.0
 11
24.828297
 21
11.55243
 31
0.0
  0
LINE
  5
2F8
  8
GUIDE
 10
24.828297
 20
11.25243
 30
0.0
 11
32.828297
 21
11.25243
 31
0.0
  0
LINE
  5
2F9
  8
GUIDE
 10
24.828297
 20
11.55243
 30
0.0
 11
24.828297
 21
11.25243
 31
0.0
  0
LINE
  5
2FA
  8
GUIDE
 10
32.828297
 20
11.25243
 30
0.0
 11
32.828297
 21
11.55243
 31
0.0
  0
LINE
  5
2FB
  8
GUIDE
 10
35.628297
 20
11.25243
 30
0.0
 11
22.028297
 21
11.25243
 31
0.0
  0
LINE
  5
2FC
  8
GUIDE
 10
35.628297
 20
4.65243
 30
0.0
 11
35.628297
 21
11.25243
 31
0.0
  0
LINE
  5
2FD
  8
GUIDE
 10
35.628297
 20
-11.44757
 30
0.0
 11
35.628297
 21
-4.84757
 31
0.0
  0
POLYLINE
  5
2FE
  8
GUIDE
 66
     1
 10
0.0
 20
0.0
 30
0.0
 70
     1
  0
VERTEX
  5
56C
  8
GUIDE
 10
82.100657
 20
42.95243
 30
0.0
  0
VERTEX
  5
56D
  8
GUIDE
 10
82.100657
 20
36.35243
 30
0.0
  0
VERTEX
  5
56E
  8
GUIDE
 10
95.70065700000001
 20
36.35243
 30
0.0
  0
VERTEX
  5
56F
  8
GUIDE
 10
95.70065700000001
 20
42.95243
 30
0.0
  0
SEQEND
  5
6E3
  8
GUIDE
  0
POLYLINE
  5
304
  8
GUIDE
 66
     1
 10
0.0
 20
0.0
 30
0.0
 70
     1
  0
VERTEX
  5
571
  8
GUIDE
 10
86.400657
 20
43.25243
 30
0.0
  0
VERTEX
  5
572
  8
GUIDE
 10
86.400657
 20
44.05243
 30
0.0
  0
VERTEX
  5
573
  8
GUIDE
 10
91.400657
 20
44.05243
 30
0.0
  0
VERTEX
  5
574
  8
GUIDE
 10
91.400657
 20
43.25243
 30
0.0
  0
SEQEND
  5
6E4
  8
GUIDE
  0
POLYLINE
  5
30A
  8
GUIDE
 66
     1
 10
0.0
 20
0.0
 30
0.0
 70
     1
  0
VERTEX
  5
576
  8
GUIDE
 10
84.900657
 20
43.25243
 30
0.0
  0
VERTEX
  5
577
  8
GUIDE
 10
84.900657
 20
42.95243
 30
0.0
  0
VERTEX
  5
578
  8
GUIDE
 10
92.900657
 20
42.95243
 30
0.0
  0
VERTEX
  5
579
  8
GUIDE
 10
92.900657
 20
43.25243
 30
0.0
  0
SEQEND
  5
6E5
  8
GUIDE
  0
POLYLINE
  5
310
  8
GUIDE
 66
     1
 10
0.0
 20
0.0
 30
0.0
 70
     1
  0
VERTEX
  5
57B
  8
GUIDE
 10
86.400657
 20
-21.44757
 30
0.0
  0
VERTEX
  5
57C
  8
GUIDE
 10
86.400657
 20
-21.14757
 30
0.0
  0
VERTEX
  5
57D
  8
GUIDE
 10
91.400657
 20
-21.14757
 30
0.0
  0
VERTEX
  5
57E
  8
GUIDE
 10
91.400657
 20
-21.44757
 30
0.0
  0
SEQEND
  5
6E6
  8
GUIDE
  0
POLYLINE
  5
316
  8
GUIDE
 66
     1
 10
0.0
 20
0.0
 30
0.0
 70
     1
  0
VERTEX
  5
580
  8
GUIDE
 10
82.100657
 20
26.85243
 30
0.0
  0
VERTEX
  5
581
  8
GUIDE
 10
82.100657
 20
20.25243
 30
0.0
  0
VERTEX
  5
582
  8
GUIDE
 10
95.70065700000001
 20
20.25243
 30
0.0
  0
VERTEX
  5
583
  8
GUIDE
 10
95.70065700000001
 20
26.85243
 30
0.0
  0
SEQEND
  5
6E7
  8
GUIDE
  0
POLYLINE
  5
31C
  8
GUIDE
 66
     1
 10
0.0
 20
0.0
 30
0.0
 70
     1
  0
VERTEX
  5
585
  8
GUIDE
 10
84.900657
 20
27.15243
 30
0.0
  0
VERTEX
  5
586
  8
GUIDE
 10
84.900657
 20
26.85243
 30
0.0
  0
VERTEX
  5
587
  8
GUIDE
 10
92.900657
 20
26.85243
 30
0.0
  0
VERTEX
  5
588
  8
GUIDE
 10
92.900657
 20
27.15243
 30
0.0
  0
SEQEND
  5
6E8
  8
GUIDE
  0
POLYLINE
  5
322
  8
GUIDE
 66
     1
 10
0.0
 20
0.0
 30
0.0
 70
     1
  0
VERTEX
  5
58A
  8
GUIDE
 10
84.900657
 20
20.25243
 30
0.0
  0
VERTEX
  5
58B
  8
GUIDE
 10
84.900657
 20
11.05243
 30
0.0
  0
VERTEX
  5
58C
  8
GUIDE
 10
92.900657
 20
11.05243
 30
0.0
  0
VERTEX
  5
58D
  8
GUIDE
 10
92.900657
 20
20.25243
 30
0.0
  0
SEQEND
  5
6E9
  8
GUIDE
  0
POLYLINE
  5
328
  8
GUIDE
 66
     1
 10
0.0
 20
0.0
 30
0.0
 70
     1
  0
VERTEX
  5
58F
  8
GUIDE
 10
84.900657
 20
36.35243
 30
0.0
  0
VERTEX
  5
590
  8
GUIDE
 10
84.900657
 20
27.15243
 30
0.0
  0
VERTEX
  5
591
  8
GUIDE
 10
92.900657
 20
27.15243
 30
0.0
  0
VERTEX
  5
592
  8
GUIDE
 10
92.900657
 20
36.35243
 30
0.0
  0
SEQEND
  5
6EA
  8
GUIDE
  0
LINE
  5
32E
  8
GUIDE
 10
79.100657
 20
-25.69757
 30
0.0
 11
92.70065700000001
 21
-25.69757
 31
0.0
  0
POLYLINE
  5
32F
  8
GUIDE
 66
     1
 10
0.0
 20
0.0
 30
0.0
 70
     1
  0
VERTEX
  5
594
  8
GUIDE
 10
84.900657
 20
-11.94757
 30
0.0
  0
VERTEX
  5
595
  8
GUIDE
 10
84.900657
 20
-21.14757
 30
0.0
  0
VERTEX
  5
596
  8
GUIDE
 10
92.900657
 20
-21.14757
 30
0.0
  0
VERTEX
  5
597
  8
GUIDE
 10
92.900657
 20
-11.94757
 30
0.0
  0
SEQEND
  5
6EB
  8
GUIDE
  0
POLYLINE
  5
335
  8
GUIDE
 66
     1
 10
0.0
 20
0.0
 30
0.0
 70
     1
  0
VERTEX
  5
599
  8
GUIDE
 10
84.900657
 20
-5.04757
 30
0.0
  0
VERTEX
  5
59A
  8
GUIDE
 10
84.900657
 20
-5.34757
 30
0.0
  0
VERTEX
  5
59B
  8
GUIDE
 10
92.900657
 20
-5.34757
 30
0.0
  0
VERTEX
  5
59C
  8
GUIDE
 10
92.900657
 20
-5.04757
 30
0.0
  0
SEQEND
  5
6EC
  8
GUIDE
  0
POLYLINE
  5
33B
  8
GUIDE
 66
     1
 10
0.0
 20
0.0
 30
0.0
 70
     1
  0
VERTEX
  5
59E
  8
GUIDE
 10
82.100657
 20
-5.34757
 30
0.0
  0
VERTEX
  5
59F
  8
GUIDE
 10
82.100657
 20
-11.94757
 30
0.0
  0
VERTEX
  5
5A0
  8
GUIDE
 10
95.70065700000001
 20
-11.94757
 30
0.0
  0
VERTEX
  5
5A1
  8
GUIDE
 10
95.70065700000001
 20
-5.34757
 30
0.0
  0
SEQEND
  5
6ED
  8
GUIDE
  0
POLYLINE
  5
341
  8
GUIDE
 66
     1
 10
0.0
 20
0.0
 30
0.0
 70
     1
  0
VERTEX
  5
5A3
  8
GUIDE
 10
84.900657
 20
4.15243
 30
0.0
  0
VERTEX
  5
5A4
  8
GUIDE
 10
84.900657
 20
-5.04757
 30
0.0
  0
VERTEX
  5
5A5
  8
GUIDE
 10
92.900657
 20
-5.04757
 30
0.0
  0
VERTEX
  5
5A6
  8
GUIDE
 10
92.900657
 20
4.15243
 30
0.0
  0
SEQEND
  5
6EE
  8
GUIDE
  0
POLYLINE
  5
347
  8
GUIDE
 66
     1
 10
0.0
 20
0.0
 30
0.0
 70
     1
  0
VERTEX
  5
5A8
  8
GUIDE
 10
82.100657
 20
10.75243
 30
0.0
  0
VERTEX
  5
5A9
  8
GUIDE
 10
82.100657
 20
4.15243
 30
0.0
  0
VERTEX
  5
5AA
  8
GUIDE
 10
95.70065700000001
 20
4.15243
 30
0.0
  0
VERTEX
  5
5AB
  8
GUIDE
 10
95.70065700000001
 20
10.75243
 30
0.0
  0
SEQEND
  5
6EF
  8
GUIDE
  0
POLYLINE
  5
34D
  8
GUIDE
 66
     1
 10
0.0
 20
0.0
 30
0.0
 70
     1
  0
VERTEX
  5
5AD
  8
GUIDE
 10
84.900657
 20
11.05243
 30
0.0
  0
VERTEX
  5
5AE
  8
GUIDE
 10
84.900657
 20
10.75243
 30
0.0
  0
VERTEX
  5
5AF
  8
GUIDE
 10
92.900657
 20
10.75243
 30
0.0
  0
VERTEX
  5
5B0
  8
GUIDE
 10
92.900657
 20
11.05243
 30
0.0
  0
SEQEND
  5
6F0
  8
GUIDE
  0
ARC
  5
353
  8
GUIDE
 10
91.46103700000001
 20
-22.66426
 30
0.0
 40
1.24006
 50
358.460831
 51
78.85878000000001
  0
LINE
  5
354
  8
GUIDE
 10
92.70065700000001
 20
-22.69757
 30
0.0
 11
92.70065700000001
 21
-25.69757
 31
0.0
  0
LINE
  5
355
  8
GUIDE
 10
92.70065700000001
 20
48.30243
 30
0.0
 11
92.70065700000001
 21
45.05243
 31
0.0
  0
ARC
  5
356
  8
GUIDE
 10
91.70065700000001
 20
45.05243
 30
0.0
 40
1.0
 50
270.0
 51
0.0
  0
LINE
  5
357
  8
GUIDE
 10
91.70065700000001
 20
44.05243
 30
0.0
 11
82.100657
 21
44.05243
 31
0.0
  0
ARC
  5
358
  8
GUIDE
 10
82.100657
 20
43.05243
 30
0.0
 40
1.0
 50
90.0
 51
180.0
  0
LINE
  5
359
  8
GUIDE
 10
81.100657
 20
43.05243
 30
0.0
 11
81.100657
 21
-20.44757
 31
0.0
  0
ARC
  5
35A
  8
GUIDE
 10
82.100657
 20
-20.44757
 30
0.0
 40
1.0
 50
180.0
 51
270.0
  0
LINE
  5
35B
  8
GUIDE
 10
82.100657
 20
-21.44757
 30
0.0
 11
91.70065700000001
 21
-21.44757
 31
0.0
  0
LINE
  5
35C
  8
GUIDE
 10
84.900657
 20
-20.34757
 30
0.0
 11
82.100657
 21
-20.34757
 31
0.0
  0
POLYLINE
  5
35D
  8
GUIDE
 66
     1
 10
0.0
 20
0.0
 30
0.0
  0
VERTEX
  5
5B2
  8
GUIDE
 10
82.100657
 20
-20.34757
 30
0.0
  0
VERTEX
  5
5B3
  8
GUIDE
 10
82.100657
 20
-13.74757
 30
0.0
  0
VERTEX
  5
5B4
  8
GUIDE
 10
84.900657
 20
-13.74757
 30
0.0
  0
SEQEND
  5
6F1
  8
GUIDE
  0
POLYLINE
  5
362
  8
GUIDE
 66
     1
 10
0.0
 20
0.0
 30
0.0
  0
VERTEX
  5
5B6
  8
GUIDE
 10
92.900657
 20
-13.74757
 30
0.0
  0
VERTEX
  5
5B7
  8
GUIDE
 10
95.70065700000001
 20
-13.74757
 30
0.0
  0
VERTEX
  5
5B8
  8
GUIDE
 10
95.70065700000001
 20
-20.34757
 30
0.0
  0
VERTEX
  5
5B9
  8
GUIDE
 10
92.900657
 20
-20.34757
 30
0.0
  0
SEQEND
  5
6F2
  8
GUIDE
  0
LINE
  5
368
  8
GUIDE
 10
84.900657
 20
-4.24757
 30
0.0
 11
82.100657
 21
-4.24757
 31
0.0
  0
POLYLINE
  5
369
  8
GUIDE
 66
     1
 10
0.0
 20
0.0
 30
0.0
  0
VERTEX
  5
5BB
  8
GUIDE
 10
82.100657
 20
-4.24757
 30
0.0
  0
VERTEX
  5
5BC
  8
GUIDE
 10
82.100657
 20
2.35243
 30
0.0
  0
VERTEX
  5
5BD
  8
GUIDE
 10
84.900657
 20
2.35243
 30
0.0
  0
SEQEND
  5
6F3
  8
GUIDE
  0
POLYLINE
  5
36E
  8
GUIDE
 66
     1
 10
0.0
 20
0.0
 30
0.0
  0
VERTEX
  5
5BF
  8
GUIDE
 10
92.900657
 20
2.35243
 30
0.0
  0
VERTEX
  5
5C0
  8
GUIDE
 10
95.70065700000001
 20
2.35243
 30
0.0
  0
VERTEX
  5
5C1
  8
GUIDE
 10
95.70065700000001
 20
-4.24757
 30
0.0
  0
VERTEX
  5
5C2
  8
GUIDE
 10
92.900657
 20
-4.24757
 30
0.0
  0
SEQEND
  5
6F4
  8
GUIDE
  0
LINE
  5
374
  8
GUIDE
 10
84.900657
 20
11.85243
 30
0.0
 11
82.100657
 21
11.85243
 31
0.0
  0
POLYLINE
  5
375
  8
GUIDE
 66
     1
 10
0.0
 20
0.0
 30
0.0
  0
VERTEX
  5
5C4
  8
GUIDE
 10
82.100657
 20
11.85243
 30
0.0
  0
VERTEX
  5
5C5
  8
GUIDE
 10
82.100657
 20
18.45243
 30
0.0
  0
VERTEX
  5
5C6
  8
GUIDE
 10
84.900657
 20
18.45243
 30
0.0
  0
SEQEND
  5
6F5
  8
GUIDE
  0
POLYLINE
  5
37A
  8
GUIDE
 66
     1
 10
0.0
 20
0.0
 30
0.0
  0
VERTEX
  5
5C8
  8
GUIDE
 10
92.900657
 20
18.45243
 30
0.0
  0
VERTEX
  5
5C9
  8
GUIDE
 10
95.70065700000001
 20
18.45243
 30
0.0
  0
VERTEX
  5
5CA
  8
GUIDE
 10
95.70065700000001
 20
11.85243
 30
0.0
  0
VERTEX
  5
5CB
  8
GUIDE
 10
92.900657
 20
11.85243
 30
0.0
  0
SEQEND
  5
6F6
  8
GUIDE
  0
LINE
  5
380
  8
GUIDE
 10
84.900657
 20
27.95243
 30
0.0
 11
82.100657
 21
27.95243
 31
0.0
  0
POLYLINE
  5
381
  8
GUIDE
 66
     1
 10
0.0
 20
0.0
 30
0.0
  0
VERTEX
  5
5CD
  8
GUIDE
 10
82.100657
 20
27.95243
 30
0.0
  0
VERTEX
  5
5CE
  8
GUIDE
 10
82.100657
 20
34.55243
 30
0.0
  0
VERTEX
  5
5CF
  8
GUIDE
 10
84.900657
 20
34.55243
 30
0.0
  0
SEQEND
  5
6F7
  8
GUIDE
  0
POLYLINE
  5
386
  8
GUIDE
 66
     1
 10
0.0
 20
0.0
 30
0.0
  0
VERTEX
  5
5D1
  8
GUIDE
 10
92.900657
 20
34.55243
 30
0.0
  0
VERTEX
  5
5D2
  8
GUIDE
 10
95.70065700000001
 20
34.55243
 30
0.0
  0
VERTEX
  5
5D3
  8
GUIDE
 10
95.70065700000001
 20
27.95243
 30
0.0
  0
VERTEX
  5
5D4
  8
GUIDE
 10
92.900657
 20
27.95243
 30
0.0
  0
SEQEND
  5
6F8
  8
GUIDE
  0
LINE
  5
38C
  8
GUIDE
 10
79.100657
 20
-25.69757
 30
0.0
 11
65.500657
 21
-25.69757
 31
0.0
  0
LINE
  5
38D
  8
GUIDE
 10
77.100657
 20
43.05243
 30
0.0
 11
77.100657
 21
-20.44757
 31
0.0
  0
POLYLINE
  5
38E
  8
GUIDE
 66
     1
 10
0.0
 20
0.0
 30
0.0
 70
     1
  0
VERTEX
  5
5D6
  8
GUIDE
 10
73.300657
 20
20.25243
 30
0.0
  0
VERTEX
  5
5D7
  8
GUIDE
 10
73.300657
 20
11.05243
 30
0.0
  0
VERTEX
  5
5D8
  8
GUIDE
 10
65.300657
 20
11.05243
 30
0.0
  0
VERTEX
  5
5D9
  8
GUIDE
 10
65.300657
 20
20.25243
 30
0.0
  0
SEQEND
  5
6F9
  8
GUIDE
  0
LINE
  5
394
  8
GUIDE
 10
76.100657
 20
-21.44757
 30
0.0
 11
66.500657
 21
-21.44757
 31
0.0
  0
POLYLINE
  5
395
  8
GUIDE
 66
     1
 10
0.0
 20
0.0
 30
0.0
 70
     1
  0
VERTEX
  5
5DB
  8
GUIDE
 10
73.300657
 20
11.05243
 30
0.0
  0
VERTEX
  5
5DC
  8
GUIDE
 10
73.300657
 20
10.75243
 30
0.0
  0
VERTEX
  5
5DD
  8
GUIDE
 10
65.300657
 20
10.75243
 30
0.0
  0
VERTEX
  5
5DE
  8
GUIDE
 10
65.300657
 20
11.05243
 30
0.0
  0
SEQEND
  5
6FA
  8
GUIDE
  0
POLYLINE
  5
39B
  8
GUIDE
 66
     1
 10
0.0
 20
0.0
 30
0.0
 70
     1
  0
VERTEX
  5
5E0
  8
GUIDE
 10
76.100657
 20
10.75243
 30
0.0
  0
VERTEX
  5
5E1
  8
GUIDE
 10
76.100657
 20
4.15243
 30
0.0
  0
VERTEX
  5
5E2
  8
GUIDE
 10
62.500657
 20
4.15243
 30
0.0
  0
VERTEX
  5
5E3
  8
GUIDE
 10
62.500657
 20
10.75243
 30
0.0
  0
SEQEND
  5
6FB
  8
GUIDE
  0
POLYLINE
  5
3A1
  8
GUIDE
 66
     1
 10
0.0
 20
0.0
 30
0.0
 70
     1
  0
VERTEX
  5
5E5
  8
GUIDE
 10
73.300657
 20
4.15243
 30
0.0
  0
VERTEX
  5
5E6
  8
GUIDE
 10
73.300657
 20
-5.04757
 30
0.0
  0
VERTEX
  5
5E7
  8
GUIDE
 10
65.300657
 20
-5.04757
 30
0.0
  0
VERTEX
  5
5E8
  8
GUIDE
 10
65.300657
 20
4.15243
 30
0.0
  0
SEQEND
  5
6FC
  8
GUIDE
  0
POLYLINE
  5
3A7
  8
GUIDE
 66
     1
 10
0.0
 20
0.0
 30
0.0
 70
     1
  0
VERTEX
  5
5EA
  8
GUIDE
 10
76.100657
 20
-5.34757
 30
0.0
  0
VERTEX
  5
5EB
  8
GUIDE
 10
76.100657
 20
-11.94757
 30
0.0
  0
VERTEX
  5
5EC
  8
GUIDE
 10
62.500657
 20
-11.94757
 30
0.0
  0
VERTEX
  5
5ED
  8
GUIDE
 10
62.500657
 20
-5.34757
 30
0.0
  0
SEQEND
  5
6FD
  8
GUIDE
  0
POLYLINE
  5
3AD
  8
GUIDE
 66
     1
 10
0.0
 20
0.0
 30
0.0
 70
     1
  0
VERTEX
  5
5EF
  8
GUIDE
 10
73.300657
 20
-5.04757
 30
0.0
  0
VERTEX
  5
5F0
  8
GUIDE
 10
73.300657
 20
-5.34757
 30
0.0
  0
VERTEX
  5
5F1
  8
GUIDE
 10
65.300657
 20
-5.34757
 30
0.0
  0
VERTEX
  5
5F2
  8
GUIDE
 10
65.300657
 20
-5.04757
 30
0.0
  0
SEQEND
  5
6FE
  8
GUIDE
  0
POLYLINE
  5
3B3
  8
GUIDE
 66
     1
 10
0.0
 20
0.0
 30
0.0
 70
     1
  0
VERTEX
  5
5F4
  8
GUIDE
 10
73.300657
 20
-11.94757
 30
0.0
  0
VERTEX
  5
5F5
  8
GUIDE
 10
73.300657
 20
-21.14757
 30
0.0
  0
VERTEX
  5
5F6
  8
GUIDE
 10
65.300657
 20
-21.14757
 30
0.0
  0
VERTEX
  5
5F7
  8
GUIDE
 10
65.300657
 20
-11.94757
 30
0.0
  0
SEQEND
  5
6FF
  8
GUIDE
  0
POLYLINE
  5
3B9
  8
GUIDE
 66
     1
 10
0.0
 20
0.0
 30
0.0
 70
     1
  0
VERTEX
  5
5F9
  8
GUIDE
 10
71.800657
 20
-21.44757
 30
0.0
  0
VERTEX
  5
5FA
  8
GUIDE
 10
71.800657
 20
-21.14757
 30
0.0
  0
VERTEX
  5
5FB
  8
GUIDE
 10
66.800657
 20
-21.14757
 30
0.0
  0
VERTEX
  5
5FC
  8
GUIDE
 10
66.800657
 20
-21.44757
 30
0.0
  0
SEQEND
  5
700
  8
GUIDE
  0
POLYLINE
  5
3BF
  8
GUIDE
 66
     1
 10
0.0
 20
0.0
 30
0.0
  0
VERTEX
  5
5FE
  8
GUIDE
 10
76.100657
 20
-20.34757
 30
0.0
  0
VERTEX
  5
5FF
  8
GUIDE
 10
76.100657
 20
-13.74757
 30
0.0
  0
VERTEX
  5
600
  8
GUIDE
 10
73.300657
 20
-13.74757
 30
0.0
  0
SEQEND
  5
701
  8
GUIDE
  0
LINE
  5
3C4
  8
GUIDE
 10
73.300657
 20
-20.34757
 30
0.0
 11
76.100657
 21
-20.34757
 31
0.0
  0
ARC
  5
3C5
  8
GUIDE
 10
76.100657
 20
-20.44757
 30
0.0
 40
1.0
 50
270.0
 51
0.0
  0
POLYLINE
  5
3C6
  8
GUIDE
 66
     1
 10
0.0
 20
0.0
 30
0.0
  0
VERTEX
  5
602
  8
GUIDE
 10
76.100657
 20
-4.24757
 30
0.0
  0
VERTEX
  5
603
  8
GUIDE
 10
76.100657
 20
2.35243
 30
0.0
  0
VERTEX
  5
604
  8
GUIDE
 10
73.300657
 20
2.35243
 30
0.0
  0
SEQEND
  5
702
  8
GUIDE
  0
LINE
  5
3CB
  8
GUIDE
 10
73.300657
 20
-4.24757
 30
0.0
 11
76.100657
 21
-4.24757
 31
0.0
  0
POLYLINE
  5
3CC
  8
GUIDE
 66
     1
 10
0.0
 20
0.0
 30
0.0
  0
VERTEX
  5
606
  8
GUIDE
 10
65.300657
 20
-13.74757
 30
0.0
  0
VERTEX
  5
607
  8
GUIDE
 10
62.500657
 20
-13.74757
 30
0.0
  0
VERTEX
  5
608
  8
GUIDE
 10
62.500657
 20
-20.34757
 30
0.0
  0
VERTEX
  5
609
  8
GUIDE
 10
65.300657
 20
-20.34757
 30
0.0
  0
SEQEND
  5
703
  8
GUIDE
  0
LINE
  5
3D2
  8
GUIDE
 10
65.500657
 20
-22.69757
 30
0.0
 11
65.500657
 21
-25.69757
 31
0.0
  0
ARC
  5
3D3
  8
GUIDE
 10
66.740267
 20
-22.66426
 30
0.0
 40
1.24006
 50
101.14122
 51
181.539169
  0
POLYLINE
  5
3D4
  8
GUIDE
 66
     1
 10
0.0
 20
0.0
 30
0.0
  0
VERTEX
  5
60B
  8
GUIDE
 10
65.300657
 20
2.35243
 30
0.0
  0
VERTEX
  5
60C
  8
GUIDE
 10
62.500657
 20
2.35243
 30
0.0
  0
VERTEX
  5
60D
  8
GUIDE
 10
62.500657
 20
-4.24757
 30
0.0
  0
VERTEX
  5
60E
  8
GUIDE
 10
65.300657
 20
-4.24757
 30
0.0
  0
SEQEND
  5
704
  8
GUIDE
  0
LINE
  5
3DA
  8
GUIDE
 10
66.500657
 20
44.05243
 30
0.0
 11
76.100657
 21
44.05243
 31
0.0
  0
POLYLINE
  5
3DB
  8
GUIDE
 66
     1
 10
0.0
 20
0.0
 30
0.0
 70
     1
  0
VERTEX
  5
610
  8
GUIDE
 10
73.300657
 20
36.35243
 30
0.0
  0
VERTEX
  5
611
  8
GUIDE
 10
73.300657
 20
27.15243
 30
0.0
  0
VERTEX
  5
612
  8
GUIDE
 10
65.300657
 20
27.15243
 30
0.0
  0
VERTEX
  5
613
  8
GUIDE
 10
65.300657
 20
36.35243
 30
0.0
  0
SEQEND
  5
705
  8
GUIDE
  0
POLYLINE
  5
3E1
  8
GUIDE
 66
     1
 10
0.0
 20
0.0
 30
0.0
 70
     1
  0
VERTEX
  5
615
  8
GUIDE
 10
73.300657
 20
27.15243
 30
0.0
  0
VERTEX
  5
616
  8
GUIDE
 10
73.300657
 20
26.85243
 30
0.0
  0
VERTEX
  5
617
  8
GUIDE
 10
65.300657
 20
26.85243
 30
0.0
  0
VERTEX
  5
618
  8
GUIDE
 10
65.300657
 20
27.15243
 30
0.0
  0
SEQEND
  5
706
  8
GUIDE
  0
POLYLINE
  5
3E7
  8
GUIDE
 66
     1
 10
0.0
 20
0.0
 30
0.0
 70
     1
  0
VERTEX
  5
61A
  8
GUIDE
 10
76.100657
 20
26.85243
 30
0.0
  0
VERTEX
  5
61B
  8
GUIDE
 10
76.100657
 20
20.25243
 30
0.0
  0
VERTEX
  5
61C
  8
GUIDE
 10
62.500657
 20
20.25243
 30
0.0
  0
VERTEX
  5
61D
  8
GUIDE
 10
62.500657
 20
26.85243
 30
0.0
  0
SEQEND
  5
707
  8
GUIDE
  0
POLYLINE
  5
3ED
  8
GUIDE
 66
     1
 10
0.0
 20
0.0
 30
0.0
 70
     1
  0
VERTEX
  5
61F
  8
GUIDE
 10
73.300657
 20
43.25243
 30
0.0
  0
VERTEX
  5
620
  8
GUIDE
 10
73.300657
 20
42.95243
 30
0.0
  0
VERTEX
  5
621
  8
GUIDE
 10
65.300657
 20
42.95243
 30
0.0
  0
VERTEX
  5
622
  8
GUIDE
 10
65.300657
 20
43.25243
 30
0.0
  0
SEQEND
  5
708
  8
GUIDE
  0
POLYLINE
  5
3F3
  8
GUIDE
 66
     1
 10
0.0
 20
0.0
 30
0.0
 70
     1
  0
VERTEX
  5
624
  8
GUIDE
 10
71.800657
 20
43.25243
 30
0.0
  0
VERTEX
  5
625
  8
GUIDE
 10
71.800657
 20
44.05243
 30
0.0
  0
VERTEX
  5
626
  8
GUIDE
 10
66.800657
 20
44.05243
 30
0.0
  0
VERTEX
  5
627
  8
GUIDE
 10
66.800657
 20
43.25243
 30
0.0
  0
SEQEND
  5
709
  8
GUIDE
  0
POLYLINE
  5
3F9
  8
GUIDE
 66
     1
 10
0.0
 20
0.0
 30
0.0
 70
     1
  0
VERTEX
  5
629
  8
GUIDE
 10
76.100657
 20
42.95243
 30
0.0
  0
VERTEX
  5
62A
  8
GUIDE
 10
76.100657
 20
36.35243
 30
0.0
  0
VERTEX
  5
62B
  8
GUIDE
 10
62.500657
 20
36.35243
 30
0.0
  0
VERTEX
  5
62C
  8
GUIDE
 10
62.500657
 20
42.95243
 30
0.0
  0
SEQEND
  5
70A
  8
GUIDE
  0
POLYLINE
  5
3FF
  8
GUIDE
 66
     1
 10
0.0
 20
0.0
 30
0.0
  0
VERTEX
  5
62E
  8
GUIDE
 10
76.100657
 20
27.95243
 30
0.0
  0
VERTEX
  5
62F
  8
GUIDE
 10
76.100657
 20
34.55243
 30
0.0
  0
VERTEX
  5
630
  8
GUIDE
 10
73.300657
 20
34.55243
 30
0.0
  0
SEQEND
  5
70B
  8
GUIDE
  0
LINE
  5
404
  8
GUIDE
 10
73.300657
 20
27.95243
 30
0.0
 11
76.100657
 21
27.95243
 31
0.0
  0
POLYLINE
  5
405
  8
GUIDE
 66
     1
 10
0.0
 20
0.0
 30
0.0
  0
VERTEX
  5
632
  8
GUIDE
 10
76.100657
 20
11.85243
 30
0.0
  0
VERTEX
  5
633
  8
GUIDE
 10
76.100657
 20
18.45243
 30
0.0
  0
VERTEX
  5
634
  8
GUIDE
 10
73.300657
 20
18.45243
 30
0.0
  0
SEQEND
  5
70C
  8
GUIDE
  0
LINE
  5
40A
  8
GUIDE
 10
73.300657
 20
11.85243
 30
0.0
 11
76.100657
 21
11.85243
 31
0.0
  0
ARC
  5
40B
  8
GUIDE
 10
76.100657
 20
43.05243
 30
0.0
 40
1.0
 50
0.0
 51
90.0
  0
POLYLINE
  5
40C
  8
GUIDE
 66
     1
 10
0.0
 20
0.0
 30
0.0
  0
VERTEX
  5
636
  8
GUIDE
 10
65.300657
 20
34.55243
 30
0.0
  0
VERTEX
  5
637
  8
GUIDE
 10
62.500657
 20
34.55243
 30
0.0
  0
VERTEX
  5
638
  8
GUIDE
 10
62.500657
 20
27.95243
 30
0.0
  0
VERTEX
  5
639
  8
GUIDE
 10
65.300657
 20
27.95243
 30
0.0
  0
SEQEND
  5
70D
  8
GUIDE
  0
POLYLINE
  5
412
  8
GUIDE
 66
     1
 10
0.0
 20
0.0
 30
0.0
  0
VERTEX
  5
63B
  8
GUIDE
 10
65.300657
 20
18.45243
 30
0.0
  0
VERTEX
  5
63C
  8
GUIDE
 10
62.500657
 20
18.45243
 30
0.0
  0
VERTEX
  5
63D
  8
GUIDE
 10
62.500657
 20
11.85243
 30
0.0
  0
VERTEX
  5
63E
  8
GUIDE
 10
65.300657
 20
11.85243
 30
0.0
  0
SEQEND
  5
70E
  8
GUIDE
  0
LINE
  5
418
  8
GUIDE
 10
65.500657
 20
48.30243
 30
0.0
 11
65.500657
 21
45.05243
 31
0.0
  0
ARC
  5
419
  8
GUIDE
 10
66.500657
 20
45.05243
 30
0.0
 40
1.0
 50
180.0
 51
270.0
  0
LINE
  5
41A
  8
GUIDE
 10
75.42244700000001
 20
99.91925999999999
 30
0.0
 11
73.42244700000001
 21
99.91925999999999
 31
0.0
  0
LINE
  5
41B
  8
GUIDE
 10
73.42244700000001
 20
99.91925999999999
 30
0.0
 11
73.42244700000001
 21
89.91925999999999
 31
0.0
  0
ARC
  5
41C
  8
GUIDE
 10
75.01100700000001
 20
94.91925999999999
 30
0.0
 40
3.5
 50
116.992554
 51
243.007431
  0
LINE
  5
41D
  8
GUIDE
 10
85.42244700000001
 20
99.91925999999999
 30
0.0
 11
83.42244700000001
 21
99.91925999999999
 31
0.0
  0
LINE
  5
41E
  8
GUIDE
 10
83.42244700000001
 20
99.91925999999999
 30
0.0
 11
83.42244700000001
 21
89.91925999999999
 31
0.0
  0
LINE
  5
41F
  8
GUIDE
 10
75.42244700000001
 20
99.91925999999999
 30
0.0
 11
75.42244700000001
 21
89.91925999999999
 31
0.0
  0
LINE
  5
420
  8
GUIDE
 10
83.42244700000001
 20
97.91925999999999
 30
0.0
 11
75.42244700000001
 21
97.91925999999999
 31
0.0
  0
ARC
  5
421
  8
GUIDE
 10
77.56651700000001
 20
94.91925999999999
 30
0.0
 40
9.095050000000001
 50
329.741226
 51
30.258774
  0
LINE
  5
422
  8
GUIDE
 10
85.42244700000001
 20
99.91925999999999
 30
0.0
 11
85.42244700000001
 21
89.91925999999999
 31
0.0
  0
LINE
  5
423
  8
GUIDE
 10
73.42244700000001
 20
89.91925999999999
 30
0.0
 11
73.42244700000001
 21
48.41926
 31
0.0
  0
LINE
  5
424
  8
GUIDE
 10
73.42244700000001
 20
89.91925999999999
 30
0.0
 11
66.822447
 21
48.41926
 31
0.0
  0
LINE
  5
425
  8
GUIDE
 10
83.42244700000001
 20
89.91925999999999
 30
0.0
 11
83.42244700000001
 21
48.41926
 31
0.0
  0
LINE
  5
426
  8
GUIDE
 10
75.42244700000001
 20
89.91925999999999
 30
0.0
 11
75.42244700000001
 21
48.41926
 31
0.0
  0
LINE
  5
427
  8
GUIDE
 10
85.42244700000001
 20
89.91925999999999
 30
0.0
 11
85.42244700000001
 21
48.41926
 31
0.0
  0
LINE
  5
428
  8
GUIDE
 10
85.42244700000001
 20
89.91925999999999
 30
0.0
 11
92.022447
 21
48.41926
 31
0.0
  0
LINE
  5
429
  8
GUIDE
 10
65.500657
 20
48.30243
 30
0.0
 11
92.70065700000001
 21
48.30243
 31
0.0
  0
LINE
  5
42A
  8
GUIDE
 10
-63.771703
 20
-83.20243000000001
 30
0.0
 11
-63.771703
 21
-86.20243000000001
 31
0.0
  0
LINE
  5
42B
  8
GUIDE
 10
-60.671703
 20
-71.10243
 30
0.0
 11
-60.671703
 21
-83.20243000000001
 31
0.0
  0
LINE
  5
42C
  8
GUIDE
 10
-63.771703
 20
-83.20243000000001
 30
0.0
 11
-60.671703
 21
-83.20243000000001
 31
0.0
  0
LINE
  5
42D
  8
GUIDE
 10
-63.771703
 20
-86.20243000000001
 30
0.0
 11
-60.671703
 21
-86.20243000000001
 31
0.0
  0
LINE
  5
42E
  8
GUIDE
 10
-60.671703
 20
-86.20243000000001
 30
0.0
 11
-60.671703
 21
-98.30243
 31
0.0
  0
LINE
  5
42F
  8
GUIDE
 10
-94.771703
 20
-83.20243000000001
 30
0.0
 11
-94.771703
 21
-86.20243000000001
 31
0.0
  0
ARC
  5
430
  8
GUIDE
 10
-63.394963
 20
-117.52778
 30
0.0
 40
46.50516
 50
86.64308200000001
 51
132.430908
  0
ARC
  5
431
  8
GUIDE
 10
-63.394963
 20
-51.87708
 30
0.0
 40
46.50516
 50
227.569092
 51
273.356918
  0
LINE
  5
432
  8
GUIDE
 10
-94.771703
 20
-25.69757
 30
0.0
 11
-94.771703
 21
48.80243
 31
0.0
  0
LINE
  5
433
  8
GUIDE
 10
-63.771703
 20
48.80243
 30
0.0
 11
-94.771703
 21
48.80243
 31
0.0
  0
LINE
  5
434
  8
GUIDE
 10
-63.771703
 20
-25.69757
 30
0.0
 11
-94.771703
 21
-25.69757
 31
0.0
  0
LINE
  5
435
  8
GUIDE
 10
-39.471703
 20
-25.69757
 30
0.0
 11
-39.471703
 21
-34.19757
 31
0.0
  0
LINE
  5
436
  8
GUIDE
 10
11.528297
 20
-25.69757
 30
0.0
 11
11.528297
 21
-34.19757
 31
0.0
  0
LINE
  5
437
  8
GUIDE
 10
-39.471703
 20
-34.19757
 30
0.0
 11
11.528297
 21
-34.19757
 31
0.0
  0
LINE
  5
438
  8
GUIDE
 10
-39.471703
 20
-27.89757
 30
0.0
 11
11.528297
 21
-27.89757
 31
0.0
  0
LINE
  5
439
  8
GUIDE
 10
-39.471703
 20
-25.69757
 30
0.0
 11
11.528297
 21
-25.69757
 31
0.0
  0
LINE
  5
43A
  8
GUIDE
 10
71.100657
 20
-34.19757
 30
0.0
 11
87.100657
 21
-34.19757
 31
0.0
  0
LINE
  5
43B
  8
GUIDE
 10
71.100657
 20
-27.89757
 30
0.0
 11
71.100657
 21
-34.19757
 31
0.0
  0
LINE
  5
43C
  8
GUIDE
 10
74.45065700000001
 20
-25.69757
 30
0.0
 11
74.45065700000001
 21
-27.89757
 31
0.0
  0
LINE
  5
43D
  8
GUIDE
 10
87.100657
 20
-27.89757
 30
0.0
 11
87.100657
 21
-34.19757
 31
0.0
  0
LINE
  5
43E
  8
GUIDE
 10
83.750657
 20
-25.69757
 30
0.0
 11
83.750657
 21
-27.89757
 31
0.0
  0
LINE
  5
43F
  8
GUIDE
 10
71.100657
 20
-27.89757
 30
0.0
 11
74.45065700000001
 21
-27.89757
 31
0.0
  0
LINE
  5
440
  8
GUIDE
 10
83.750657
 20
-27.89757
 30
0.0
 11
87.100657
 21
-27.89757
 31
0.0
  0
LINE
  5
441
  8
GUIDE
 10
74.45065700000001
 20
-25.69757
 30
0.0
 11
83.750657
 21
-25.69757
 31
0.0
  0
LINE
  5
442
  8
AXIS
 62
     1
 10
-13.971703
 20
-78.70243000000001
 30
0.0
 11
-13.971703
 21
-90.70243000000001
 31
0.0
  0
ENDSEC
  0
EOF
