  0
SECTION
  2
HEADER
  9
$ACADVER
  1
AC1009
  9
$DWGCODEPAGE
  3
ansi_1252
  9
$INSBASE
 10
0.0
 20
0.0
 30
0.0
  9
$EXTMIN
 10
-77.58975
 20
-112.63494
 30
0.0
  9
$EXTMAX
 10
77.58975
 20
112.63494
 30
0.0
  9
$LIMMIN
 10
0.0
 20
0.0
  9
$LIMMAX
 10
12.0
 20
9.0
  9
$ORTHOMODE
 70
     0
  9
$REGENMODE
 70
     1
  9
$FILLMODE
 70
     1
  9
$QTEXTMODE
 70
     0
  9
$MIRRTEXT
 70
     1
  9
$DRAGMODE
 70
     2
  9
$LTSCALE
 40
0.817619
  9
$OSMODE
 70
    37
  9
$ATTMODE
 70
     1
  9
$TEXTSIZE
 40
0.2
  9
$TRACEWID
 40
0.05
  9
$TEXTSTYLE
  7
STANDARD
  9
$CLAYER
  8
0
  9
$CELTYPE
  6
BYBLOCK
  9
$CECOLOR
 62
   256
  9
$DIMSCALE
 40
1.0
  9
$DIMASZ
 40
0.18
  9
$DIMEXO
 40
0.0625
  9
$DIMDLI
 40
0.38
  9
$DIMRND
 40
0.0
  9
$DIMDLE
 40
0.0
  9
$DIMEXE
 40
0.18
  9
$DIMTP
 40
0.0
  9
$DIMTM
 40
0.0
  9
$DIMTXT
 40
0.18
  9
$DIMCEN
 40
0.09
  9
$DIMTSZ
 40
0.0
  9
$DIMTOL
 70
     0
  9
$DIMLIM
 70
     0
  9
$DIMTIH
 70
     1
  9
$DIMTOH
 70
     1
  9
$DIMSE1
 70
     0
  9
$DIMSE2
 70
     0
  9
$DIMTAD
 70
     0
  9
$DIMZIN
 70
     0
  9
$DIMBLK
  1

  9
$DIMASO
 70
     1
  9
$DIMSHO
 70
     1
  9
$DIMPOST
  1

  9
$DIMAPOST
  1

  9
$DIMALT
 70
     0
  9
$DIMALTD
 70
     2
  9
$DIMALTF
 40
25.4
  9
$DIMLFAC
 40
1.0
  9
$DIMTOFL
 70
     0
  9
$DIMTVP
 40
0.0
  9
$DIMTIX
 70
     0
  9
$DIMSOXD
 70
     0
  9
$DIMSAH
 70
     0
  9
$DIMBLK1
  1

  9
$DIMBLK2
  1

  9
$DIMSTYLE
  2
STANDARD
  9
$DIMCLRD
 70
     0
  9
$DIMCLRE
 70
     0
  9
$DIMCLRT
 70
     0
  9
$DIMTFAC
 40
1.0
  9
$DIMGAP
 40
0.09
  9
$LUNITS
 70
     2
  9
$LUPREC
 70
     4
  9
$SKETCHINC
 40
0.1
  9
$FILLETRAD
 40
0.5
  9
$AUNITS
 70
     0
  9
$AUPREC
 70
     0
  9
$MENU
  1
.
  9
$ELEVATION
 40
0.0
  9
$PELEVATION
 40
0.0
  9
$THICKNESS
 40
0.0
  9
$LIMCHECK
 70
     0
  9
$CHAMFERA
 40
0.5
  9
$CHAMFERB
 40
0.5
  9
$SKPOLY
 70
     0
  9
$TDCREATE
 40
2453619.496134097
  9
$TDUPDATE
 40
2453619.496134109
  9
$TDINDWG
 40
0.0000000116
  9
$TDUSRTIMER
 40
0.0000000116
  9
$USRTIMER
 70
     1
  9
$ANGBASE
 50
0.0
  9
$ANGDIR
 70
     0
  9
$PDMODE
 70
     0
  9
$PDSIZE
 40
0.0
  9
$PLINEWID
 40
0.0
  9
$COORDS
 70
     1
  9
$SPLFRAME
 70
     0
  9
$SPLINETYPE
 70
     6
  9
$SPLINESEGS
 70
     8
  9
$ATTDIA
 70
     0
  9
$ATTREQ
 70
     1
  9
$HANDLING
 70
     1
  9
$HANDSEED
  5
6B7
  9
$SURFTAB1
 70
     6
  9
$SURFTAB2
 70
     6
  9
$SURFTYPE
 70
     6
  9
$SURFU
 70
     6
  9
$SURFV
 70
     6
  9
$UCSNAME
  2

  9
$UCSORG
 10
0.0
 20
0.0
 30
0.0
  9
$UCSXDIR
 10
1.0
 20
0.0
 30
0.0
  9
$UCSYDIR
 10
0.0
 20
1.0
 30
0.0
  9
$PUCSNAME
  2

  9
$PUCSORG
 10
0.0
 20
0.0
 30
0.0
  9
$PUCSXDIR
 10
1.0
 20
0.0
 30
0.0
  9
$PUCSYDIR
 10
0.0
 20
1.0
 30
0.0
  9
$USERI1
 70
     0
  9
$USERI2
 70
     0
  9
$USERI3
 70
     0
  9
$USERI4
 70
     0
  9
$USERI5
 70
     0
  9
$USERR1
 40
0.0
  9
$USERR2
 40
0.0
  9
$USERR3
 40
0.0
  9
$USERR4
 40
0.0
  9
$USERR5
 40
0.0
  9
$WORLDVIEW
 70
     1
  9
$SHADEDGE
 70
     3
  9
$SHADEDIF
 70
    70
  9
$TILEMODE
 70
     1
  9
$MAXACTVP
 70
    64
  9
$PLIMCHECK
 70
     0
  9
$PEXTMIN
 10
1.000000000000000E+20
 20
1.000000000000000E+20
 30
1.000000000000000E+20
  9
$PEXTMAX
 10
-1.000000000000000E+20
 20
-1.000000000000000E+20
 30
-1.000000000000000E+20
  9
$PLIMMIN
 10
0.0
 20
0.0
  9
$PLIMMAX
 10
12.0
 20
9.0
  9
$UNITMODE
 70
     0
  9
$VISRETAIN
 70
     1
  9
$PLINEGEN
 70
     0
  9
$PSLTSCALE
 70
     1
  0
ENDSEC
  0
SECTION
  2
TABLES
  0
TABLE
  2
VPORT
 70
     1
  0
VPORT
  2
*ACTIVE
 70
     0
 10
0.0
 20
0.0
 11
1.0
 21
1.0
 12
10.42990654205607
 22
4.5
 13
0.0
 23
0.0
 14
0.5
 24
0.5
 15
0.5
 25
0.5
 16
0.0
 26
0.0
 36
1.0
 17
0.0
 27
0.0
 37
0.0
 40
9.0
 41
1.972972972850329
 42
50.0
 43
0.0
 44
0.0
 50
0.0
 51
0.0
 71
     0
 72
   100
 73
     1
 74
     3
 75
     0
 76
     0
 77
     0
 78
     0
  0
ENDTAB
  0
TABLE
  2
LTYPE
 70
     9
  0
LTYPE
  2
CONTINUOUS
 70
     0
  3
Solid Line
 72
    65
 73
     0
 40
0.0
  0
LTYPE
  2
MCDASH1
 70
     0
  3
MiniCad+ Generated
 72
    65
 73
     4
 40
1.223181
 49
0.611591
 49
-0.305795
 49
0.0
 49
-0.305795
  0
LTYPE
  2
MCDASH2
 70
     0
  3
MiniCad+ Generated
 72
    65
 73
     2
 40
3.527692
 49
2.469229
 49
-1.058463
  0
LTYPE
  2
MCDASH3
 70
     0
  3
MiniCad+ Generated
 72
    65
 73
     2
 40
6.35
 49
5.291537
 49
-1.058463
  0
LTYPE
  2
MCDASH4
 70
     0
  3
MiniCad+ Generated
 72
    65
 73
     2
 40
7.760767
 49
6.702692
 49
-1.058075
  0
LTYPE
  2
MCDASH5
 70
     0
  3
MiniCad+ Generated
 72
    65
 73
     2
 40
1.058075
 49
0.352692
 49
-0.705383
  0
LTYPE
  2
MCDASH6
 70
     0
  3
MiniCad+ Generated
 72
    65
 73
     4
 40
5.291538
 49
3.175
 49
-1.058075
 49
0.352692
 49
-0.705771
  0
LTYPE
  2
MCDASH7
 70
     0
  3
MiniCad+ Generated
 72
    65
 73
     6
 40
9.525001
 49
3.175
 49
-1.058075
 49
3.175
 49
-1.058463
 49
0.352692
 49
-0.705771
  0
LTYPE
  2
MCDASH8
 70
     0
  3
MiniCad+ Generated
 72
    65
 73
     6
 40
6.350001000000001
 49
3.175
 49
-1.058075
 49
0.352692
 49
-0.705771
 49
0.352692
 49
-0.705771
  0
ENDTAB
  0
TABLE
  2
LAYER
 70
     3
  0
LAYER
  2
0
 70
     0
 62
     7
  6
CONTINUOUS
  0
LAYER
  2
GUIDE
 70
     0
 62
     7
  6
CONTINUOUS
  0
LAYER
  2
AXIS
 70
     0
 62
     1
  6
CONTINUOUS
  0
ENDTAB
  0
TABLE
  2
STYLE
 70
     1
  0
STYLE
  2
STANDARD
 70
     0
 40
0.0
 41
1.0
 50
0.0
 71
     0
 42
0.2
  3
txt
  4

  0
ENDTAB
  0
TABLE
  2
VIEW
 70
     0
  0
ENDTAB
  0
TABLE
  2
UCS
 70
     0
  0
ENDTAB
  0
TABLE
  2
APPID
 70
     1
  0
APPID
  2
ACAD
 70
     0
  0
ENDTAB
  0
TABLE
  2
DIMSTYLE
 70
     1
  0
DIMSTYLE
  2
STANDARD
 70
     0
  3

  4

  5

  6

  7

 40
1.0
 41
0.18
 42
0.0625
 43
0.38
 44
0.18
 45
0.0
 46
0.0
 47
0.0
 48
0.0
140
0.18
141
0.09
142
0.0
143
25.4
144
1.0
145
0.0
146
1.0
147
0.09
 71
     0
 72
     0
 73
     1
 74
     1
 75
     0
 76
     0
 77
     0
 78
     0
170
     0
171
     2
172
     0
173
     0
174
     0
175
     0
176
     0
177
     0
178
     0
  0
ENDTAB
  0
ENDSEC
  0
SECTION
  2
BLOCKS
  0
BLOCK
  8
0
  2
$MODEL_SPACE
 70
     0
 10
0.0
 20
0.0
 30
0.0
  3
$MODEL_SPACE
  1

  0
ENDBLK
  5
6B2
  8
0
  0
BLOCK
 67
     1
  8
0
  2
$PAPER_SPACE
 70
     0
 10
0.0
 20
0.0
 30
0.0
  3
$PAPER_SPACE
  1

  0
ENDBLK
  5
6B0
 67
     1
  8
0
  0
BLOCK
  8
0
  2
$ARROW1$
 70
     0
 10
0.0
 20
0.0
 30
0.0
  3
$ARROW1$
  1

  0
SOLID
  5
2F
  8
0
 62
     0
 10
-25.4
 20
4.318
 30
0.0
 11
-25.4
 21
-4.318
 31
0.0
 12
0.0
 22
0.0
 32
0.0
 13
0.0
 23
0.0
 33
0.0
  0
ENDBLK
  5
641
  8
0
  0
BLOCK
  8
0
  2
$ARROW2$
 70
     0
 10
0.0
 20
0.0
 30
0.0
  3
$ARROW2$
  1

  0
SOLID
  5
33
  8
0
 62
     0
 10
-25.4
 20
12.7
 30
0.0
 11
-25.4
 21
-12.7
 31
0.0
 12
0.0
 22
0.0
 32
0.0
 13
0.0
 23
0.0
 33
0.0
  0
ENDBLK
  5
643
  8
0
  0
BLOCK
  8
0
  2
$ARROW3$
 70
     0
 10
0.0
 20
0.0
 30
0.0
  3
$ARROW3$
  1

  0
POLYLINE
  5
37
  8
0
  6
BYBLOCK
 62
     0
 66
     1
 10
0.0
 20
0.0
 30
0.0
 70
     1
 40
0.5
 41
0.5
  0
VERTEX
  5
60E
  8
0
  6
BYBLOCK
 62
     0
 10
-6.35
 20
0.0
 30
0.0
 42
1.0
  0
VERTEX
  5
60F
  8
0
  6
BYBLOCK
 62
     0
 10
6.35
 20
0.0
 30
0.0
 42
1.0
  0
SEQEND
  5
644
  8
0
  6
BYBLOCK
 62
     0
  0
ENDBLK
  5
646
  8
0
  0
BLOCK
  8
0
  2
$ARROW4$
 70
     0
 10
0.0
 20
0.0
 30
0.0
  3
$ARROW4$
  1

  0
LINE
  5
3E
  8
0
  6
BYBLOCK
 62
     0
 10
12.7
 20
12.7
 30
0.0
 11
-12.7
 21
-12.7
 31
0.0
  0
ENDBLK
  5
648
  8
0
  0
BLOCK
  8
0
  2
$ARROW5$
 70
     0
 10
0.0
 20
0.0
 30
0.0
  3
$ARROW5$
  1

  0
LINE
  5
42
  8
0
  6
BYBLOCK
 62
     0
 10
12.7
 20
12.7
 30
0.0
 11
-12.7
 21
-12.7
 31
0.0
  0
LINE
  5
43
  8
0
  6
BYBLOCK
 62
     0
 10
-12.7
 20
12.7
 30
0.0
 11
12.7
 21
-12.7
 31
0.0
  0
ENDBLK
  5
64A
  8
0
  0
ENDSEC
  0
SECTION
  2
ENTITIES
  0
LINE
  5
45
  8
GUIDE
 10
-77.58975
 20
-70.86221000000001
 30
0.0
 11
-77.58975
 21
-73.86221000000001
 31
0.0
  0
LINE
  5
46
  8
GUIDE
 10
22.01025
 20
-58.76221
 30
0.0
 11
22.01025
 21
-85.96221
 31
0.0
  0
LINE
  5
47
  8
GUIDE
 10
25.01025
 20
-70.86221000000001
 30
0.0
 11
25.01025
 21
-73.86221000000001
 31
0.0
  0
LINE
  5
48
  8
GUIDE
 10
-51.1297
 20
-66.36221000000001
 30
0.0
 11
-51.1297
 21
-69.36221000000001
 31
0.0
  0
LINE
  5
49
  8
GUIDE
 10
-4.4498
 20
-66.36221000000001
 30
0.0
 11
-4.4498
 21
-69.36221000000001
 31
0.0
  0
LINE
  5
4A
  8
GUIDE
 10
-74.48975
 20
-85.96221
 30
0.0
 11
22.01025
 21
-85.96221
 31
0.0
  0
LINE
  5
4B
  8
GUIDE
 10
-74.48975
 20
-58.76221
 30
0.0
 11
22.01025
 21
-58.76221
 31
0.0
  0
LINE
  5
4C
  8
GUIDE
 10
-51.1297
 20
-66.36221000000001
 30
0.0
 11
-4.4498
 21
-66.36221000000001
 31
0.0
  0
LINE
  5
4D
  8
GUIDE
 10
-51.1297
 20
-78.36221000000001
 30
0.0
 11
-4.4498
 21
-78.36221000000001
 31
0.0
  0
LINE
  5
4E
  8
GUIDE
 10
-51.1297
 20
-69.36221000000001
 30
0.0
 11
-4.4498
 21
-69.36221000000001
 31
0.0
  0
LINE
  5
4F
  8
GUIDE
 10
-51.1297
 20
-75.36221000000001
 30
0.0
 11
-4.4498
 21
-75.36221000000001
 31
0.0
  0
LINE
  5
50
  8
GUIDE
 10
-51.1297
 20
-75.36221000000001
 30
0.0
 11
-51.1297
 21
-78.36221000000001
 31
0.0
  0
LINE
  5
51
  8
GUIDE
 10
-4.4498
 20
-75.36221000000001
 30
0.0
 11
-4.4498
 21
-78.36221000000001
 31
0.0
  0
LINE
  5
52
  8
GUIDE
 10
-31.28975
 20
-69.36221000000001
 30
0.0
 11
-31.28975
 21
-75.36221000000001
 31
0.0
  0
LINE
  5
53
  8
GUIDE
 10
-24.28975
 20
-69.36221000000001
 30
0.0
 11
-24.28975
 21
-75.36221000000001
 31
0.0
  0
LINE
  5
54
  8
GUIDE
 10
22.01025
 20
-73.86221000000001
 30
0.0
 11
25.01025
 21
-73.86221000000001
 31
0.0
  0
LINE
  5
55
  8
GUIDE
 10
22.01025
 20
-70.86221000000001
 30
0.0
 11
25.01025
 21
-70.86221000000001
 31
0.0
  0
ARC
  5
56
  8
GUIDE
 10
15.01025
 20
-62.56221
 30
0.0
 40
6.8
 50
33.974487
 51
146.025528
  0
ARC
  5
57
  8
GUIDE
 10
15.01025
 20
-82.16221
 30
0.0
 40
6.8
 50
213.974487
 51
326.025528
  0
ARC
  5
58
  8
GUIDE
 10
-57.48975
 20
-62.56221
 30
0.0
 40
6.8
 50
33.974487
 51
146.025528
  0
ARC
  5
59
  8
GUIDE
 10
-45.48975
 20
-62.56221
 30
0.0
 40
6.8
 50
33.974487
 51
146.025528
  0
ARC
  5
5A
  8
GUIDE
 10
-33.38975
 20
-62.56221
 30
0.0
 40
6.8
 50
33.974487
 51
146.025528
  0
ARC
  5
5B
  8
GUIDE
 10
-21.28975
 20
-62.56221
 30
0.0
 40
6.8
 50
33.974487
 51
146.025528
  0
ARC
  5
5C
  8
GUIDE
 10
-9.18975
 20
-62.56221
 30
0.0
 40
6.8
 50
33.974487
 51
146.025528
  0
ARC
  5
5D
  8
GUIDE
 10
2.91025
 20
-62.56221
 30
0.0
 40
6.8
 50
33.974487
 51
146.025528
  0
ARC
  5
5E
  8
GUIDE
 10
2.91025
 20
-82.16221
 30
0.0
 40
6.8
 50
213.974487
 51
326.025528
  0
ARC
  5
5F
  8
GUIDE
 10
-9.18975
 20
-82.16221
 30
0.0
 40
6.8
 50
213.974487
 51
326.025528
  0
ARC
  5
60
  8
GUIDE
 10
-21.28975
 20
-82.16221
 30
0.0
 40
6.8
 50
213.974487
 51
326.025528
  0
ARC
  5
61
  8
GUIDE
 10
-33.38975
 20
-82.16221
 30
0.0
 40
6.8
 50
213.974487
 51
326.025528
  0
ARC
  5
62
  8
GUIDE
 10
-45.48975
 20
-82.16221
 30
0.0
 40
6.8
 50
213.974487
 51
326.025528
  0
ARC
  5
63
  8
GUIDE
 10
-57.48975
 20
-82.16221
 30
0.0
 40
6.8
 50
213.974487
 51
326.025528
  0
LINE
  5
64
  8
GUIDE
 10
-74.48975
 20
-58.76221
 30
0.0
 11
-74.48975
 21
-70.86221000000001
 31
0.0
  0
LINE
  5
65
  8
GUIDE
 10
-77.58975
 20
-70.86221000000001
 30
0.0
 11
-74.48975
 21
-70.86221000000001
 31
0.0
  0
LINE
  5
66
  8
GUIDE
 10
-77.58975
 20
-73.86221000000001
 30
0.0
 11
-74.48975
 21
-73.86221000000001
 31
0.0
  0
LINE
  5
67
  8
GUIDE
 10
-74.48975
 20
-73.86221000000001
 30
0.0
 11
-74.48975
 21
-85.96221
 31
0.0
  0
ARC
  5
68
  8
GUIDE
 10
-69.58975
 20
-62.56221
 30
0.0
 40
6.8
 50
33.974472
 51
223.896927
  0
ARC
  5
69
  8
GUIDE
 10
-69.58975
 20
-82.16221
 30
0.0
 40
6.8
 50
136.103073
 51
326.025528
  0
LINE
  5
6A
  8
GUIDE
 10
-32.78975
 20
-66.36221000000001
 30
0.0
 11
-22.78975
 21
-66.36221000000001
 31
0.0
  0
ARC
  5
6B
  8
GUIDE
 10
-27.78975
 20
-76.77365
 30
0.0
 40
3.5
 50
206.992554
 51
333.007431
  0
ARC
  5
6C
  8
GUIDE
 10
-27.78975
 20
-74.21813
 30
0.0
 40
9.095050000000001
 50
59.741226
 51
120.258774
  0
LINE
  5
6D
  8
GUIDE
 10
-74.48975
 20
42.21221
 30
0.0
 11
22.01025
 21
42.21221
 31
0.0
  0
LINE
  5
6E
  8
GUIDE
 10
-74.48975
 20
-23.78779
 30
0.0
 11
22.01025
 21
-23.78779
 31
0.0
  0
LINE
  5
6F
  8
GUIDE
 10
-77.58975
 20
46.46221
 30
0.0
 11
22.01025
 21
46.46221
 31
0.0
  0
LINE
  5
70
  8
GUIDE
 10
-77.58975
 20
-28.03779
 30
0.0
 11
22.01025
 21
-28.03779
 31
0.0
  0
LINE
  5
71
  8
GUIDE
 10
22.01025
 20
46.46221
 30
0.0
 11
22.01025
 21
42.21221
 31
0.0
  0
LINE
  5
72
  8
GUIDE
 10
-77.58975
 20
-28.03779
 30
0.0
 11
-77.58975
 21
46.46221
 31
0.0
  0
LINE
  5
73
  8
GUIDE
 10
22.01025
 20
-23.78779
 30
0.0
 11
22.01025
 21
-28.03779
 31
0.0
  0
LINE
  5
74
  8
GUIDE
 10
-68.58975
 20
42.21221
 30
0.0
 11
-68.58975
 21
46.46221
 31
0.0
  0
LINE
  5
75
  8
GUIDE
 10
-70.58975
 20
42.21221
 30
0.0
 11
-70.58975
 21
46.46221
 31
0.0
  0
LINE
  5
76
  8
GUIDE
 10
-58.48975
 20
42.21221
 30
0.0
 11
-58.48975
 21
46.46221
 31
0.0
  0
LINE
  5
77
  8
GUIDE
 10
-56.48975
 20
42.21221
 30
0.0
 11
-56.48975
 21
46.46221
 31
0.0
  0
LINE
  5
78
  8
GUIDE
 10
-46.48975
 20
42.21221
 30
0.0
 11
-46.48975
 21
46.46221
 31
0.0
  0
LINE
  5
79
  8
GUIDE
 10
-44.48975
 20
42.21221
 30
0.0
 11
-44.48975
 21
46.46221
 31
0.0
  0
LINE
  5
7A
  8
GUIDE
 10
-34.38975
 20
42.21221
 30
0.0
 11
-34.38975
 21
46.46221
 31
0.0
  0
LINE
  5
7B
  8
GUIDE
 10
-32.38975
 20
42.21221
 30
0.0
 11
-32.38975
 21
46.46221
 31
0.0
  0
LINE
  5
7C
  8
GUIDE
 10
-22.28975
 20
42.21221
 30
0.0
 11
-22.28975
 21
46.46221
 31
0.0
  0
LINE
  5
7D
  8
GUIDE
 10
-20.28975
 20
42.21221
 30
0.0
 11
-20.28975
 21
46.46221
 31
0.0
  0
LINE
  5
7E
  8
GUIDE
 10
-10.18975
 20
42.21221
 30
0.0
 11
-10.18975
 21
46.46221
 31
0.0
  0
LINE
  5
7F
  8
GUIDE
 10
-8.18975
 20
42.21221
 30
0.0
 11
-8.18975
 21
46.46221
 31
0.0
  0
LINE
  5
80
  8
GUIDE
 10
-10.18975
 20
-28.03779
 30
0.0
 11
-10.18975
 21
-23.78779
 31
0.0
  0
LINE
  5
81
  8
GUIDE
 10
-8.18975
 20
-28.03779
 30
0.0
 11
-8.18975
 21
-23.78779
 31
0.0
  0
LINE
  5
82
  8
GUIDE
 10
-22.28975
 20
-23.78779
 30
0.0
 11
-22.28975
 21
-28.03779
 31
0.0
  0
LINE
  5
83
  8
GUIDE
 10
-20.28975
 20
-23.78779
 30
0.0
 11
-20.28975
 21
-28.03779
 31
0.0
  0
LINE
  5
84
  8
GUIDE
 10
-32.38975
 20
-23.78779
 30
0.0
 11
-32.38975
 21
-28.03779
 31
0.0
  0
LINE
  5
85
  8
GUIDE
 10
-34.38975
 20
-23.78779
 30
0.0
 11
-34.38975
 21
-28.03779
 31
0.0
  0
LINE
  5
86
  8
GUIDE
 10
-46.48975
 20
-28.03779
 30
0.0
 11
-46.48975
 21
-23.78779
 31
0.0
  0
LINE
  5
87
  8
GUIDE
 10
-44.48975
 20
-28.03779
 30
0.0
 11
-44.48975
 21
-23.78779
 31
0.0
  0
LINE
  5
88
  8
GUIDE
 10
-56.48975
 20
-23.78779
 30
0.0
 11
-56.48975
 21
-28.03779
 31
0.0
  0
LINE
  5
89
  8
GUIDE
 10
-58.48975
 20
-23.78779
 30
0.0
 11
-58.48975
 21
-28.03779
 31
0.0
  0
LINE
  5
8A
  8
GUIDE
 10
-68.58975
 20
-23.78779
 30
0.0
 11
-68.58975
 21
-28.03779
 31
0.0
  0
LINE
  5
8B
  8
GUIDE
 10
-70.58975
 20
-23.78779
 30
0.0
 11
-70.58975
 21
-28.03779
 31
0.0
  0
LINE
  5
8C
  8
GUIDE
 10
-74.48975
 20
42.21221
 30
0.0
 11
-74.48975
 21
46.46221
 31
0.0
  0
LINE
  5
8D
  8
GUIDE
 10
-74.48975
 20
-23.78779
 30
0.0
 11
-74.48975
 21
-28.03779
 31
0.0
  0
LINE
  5
8E
  8
GUIDE
 10
21.51025
 20
41.71221
 30
0.0
 11
25.01025
 21
41.71221
 31
0.0
  0
LINE
  5
8F
  8
GUIDE
 10
25.01025
 20
41.71221
 30
0.0
 11
25.01025
 21
-23.28779
 31
0.0
  0
ARC
  5
90
  8
GUIDE
 10
21.4079
 20
42.34226
 30
0.0
 40
0.63831
 50
191.755997
 51
279.227081
  0
LINE
  5
91
  8
GUIDE
 10
21.51025
 20
-23.28779
 30
0.0
 11
25.01025
 21
-23.28779
 31
0.0
  0
ARC
  5
92
  8
GUIDE
 10
21.4079
 20
-23.91784
 30
0.0
 40
0.63831
 50
80.772919
 51
168.244003
  0
LINE
  5
93
  8
GUIDE
 10
3.91025
 20
42.21221
 30
0.0
 11
3.91025
 21
46.46221
 31
0.0
  0
LINE
  5
94
  8
GUIDE
 10
1.91025
 20
42.21221
 30
0.0
 11
1.91025
 21
46.46221
 31
0.0
  0
LINE
  5
95
  8
GUIDE
 10
16.01025
 20
42.21221
 30
0.0
 11
16.01025
 21
46.46221
 31
0.0
  0
LINE
  5
96
  8
GUIDE
 10
14.01025
 20
42.21221
 30
0.0
 11
14.01025
 21
46.46221
 31
0.0
  0
LINE
  5
97
  8
GUIDE
 10
3.91025
 20
-23.78779
 30
0.0
 11
3.91025
 21
-28.03779
 31
0.0
  0
LINE
  5
98
  8
GUIDE
 10
1.91025
 20
-23.78779
 30
0.0
 11
1.91025
 21
-28.03779
 31
0.0
  0
LINE
  5
99
  8
GUIDE
 10
16.01025
 20
-28.03779
 30
0.0
 11
16.01025
 21
-23.78779
 31
0.0
  0
LINE
  5
9A
  8
GUIDE
 10
14.01025
 20
-28.03779
 30
0.0
 11
14.01025
 21
-23.78779
 31
0.0
  0
CIRCLE
  5
9B
  8
GUIDE
 10
-27.78975
 20
82.96221
 30
0.0
 40
3.5
  0
LINE
  5
9C
  8
GUIDE
 10
-48.3932
 20
48.23274
 30
0.0
 11
-33.56899
 21
84.5748
 31
0.0
  0
ARC
  5
9D
  8
GUIDE
 10
-51.1297
 20
49.46221
 30
0.0
 40
3.0
 50
270.0
 51
335.806305
  0
ARC
  5
9E
  8
GUIDE
 10
-4.4498
 20
49.46221
 30
0.0
 40
3.0
 50
204.193695
 51
270.0
  0
ARC
  5
9F
  8
GUIDE
 10
-27.78975
 20
82.96221
 30
0.0
 40
6.0
 50
15.59079
 51
164.40921
  0
LINE
  5
A0
  8
GUIDE
 10
-7.1863
 20
48.23274
 30
0.0
 11
-22.01052
 21
84.5748
 31
0.0
  0
LINE
  5
A1
  8
GUIDE
 10
-31.25385
 20
83.46221
 30
0.0
 11
-24.32565
 21
83.46221
 31
0.0
  0
LINE
  5
A2
  8
GUIDE
 10
-31.25385
 20
82.46221
 30
0.0
 11
-24.28975
 21
82.46221
 31
0.0
  0
POLYLINE
  5
A3
  8
GUIDE
 66
     1
 10
0.0
 20
0.0
 30
0.0
 70
     1
  0
VERTEX
  5
422
  8
GUIDE
 10
-25.28975
 20
25.31221
 30
0.0
  0
VERTEX
  5
423
  8
GUIDE
 10
-25.28975
 20
25.61221
 30
0.0
  0
VERTEX
  5
424
  8
GUIDE
 10
-17.28975
 20
25.61221
 30
0.0
  0
VERTEX
  5
425
  8
GUIDE
 10
-17.28975
 20
25.31221
 30
0.0
  0
SEQEND
  5
64B
  8
GUIDE
  0
POLYLINE
  5
A9
  8
GUIDE
 66
     1
 10
0.0
 20
0.0
 30
0.0
 70
     1
  0
VERTEX
  5
427
  8
GUIDE
 10
-28.08975
 20
9.51221
 30
0.0
  0
VERTEX
  5
428
  8
GUIDE
 10
-28.08975
 20
16.11221
 30
0.0
  0
VERTEX
  5
429
  8
GUIDE
 10
-14.48975
 20
16.11221
 30
0.0
  0
VERTEX
  5
42A
  8
GUIDE
 10
-14.48975
 20
9.51221
 30
0.0
  0
SEQEND
  5
64C
  8
GUIDE
  0
POLYLINE
  5
AF
  8
GUIDE
 66
     1
 10
0.0
 20
0.0
 30
0.0
 70
     1
  0
VERTEX
  5
42C
  8
GUIDE
 10
-25.28975
 20
9.212210000000001
 30
0.0
  0
VERTEX
  5
42D
  8
GUIDE
 10
-25.28975
 20
9.51221
 30
0.0
  0
VERTEX
  5
42E
  8
GUIDE
 10
-17.28975
 20
9.51221
 30
0.0
  0
VERTEX
  5
42F
  8
GUIDE
 10
-17.28975
 20
9.212210000000001
 30
0.0
  0
SEQEND
  5
64D
  8
GUIDE
  0
POLYLINE
  5
B5
  8
GUIDE
 66
     1
 10
0.0
 20
0.0
 30
0.0
 70
     1
  0
VERTEX
  5
431
  8
GUIDE
 10
-23.78975
 20
-23.78779
 30
0.0
  0
VERTEX
  5
432
  8
GUIDE
 10
-23.78975
 20
-22.98779
 30
0.0
  0
VERTEX
  5
433
  8
GUIDE
 10
-18.78975
 20
-22.98779
 30
0.0
  0
VERTEX
  5
434
  8
GUIDE
 10
-18.78975
 20
-23.78779
 30
0.0
  0
SEQEND
  5
64E
  8
GUIDE
  0
POLYLINE
  5
BB
  8
GUIDE
 66
     1
 10
0.0
 20
0.0
 30
0.0
 70
     1
  0
VERTEX
  5
436
  8
GUIDE
 10
-25.28975
 20
16.11221
 30
0.0
  0
VERTEX
  5
437
  8
GUIDE
 10
-25.28975
 20
25.31221
 30
0.0
  0
VERTEX
  5
438
  8
GUIDE
 10
-17.28975
 20
25.31221
 30
0.0
  0
VERTEX
  5
439
  8
GUIDE
 10
-17.28975
 20
16.11221
 30
0.0
  0
SEQEND
  5
64F
  8
GUIDE
  0
POLYLINE
  5
C1
  8
GUIDE
 66
     1
 10
0.0
 20
0.0
 30
0.0
 70
     1
  0
VERTEX
  5
43B
  8
GUIDE
 10
-23.78975
 20
41.41221
 30
0.0
  0
VERTEX
  5
43C
  8
GUIDE
 10
-23.78975
 20
42.21221
 30
0.0
  0
VERTEX
  5
43D
  8
GUIDE
 10
-18.78975
 20
42.21221
 30
0.0
  0
VERTEX
  5
43E
  8
GUIDE
 10
-18.78975
 20
41.41221
 30
0.0
  0
SEQEND
  5
650
  8
GUIDE
  0
POLYLINE
  5
C7
  8
GUIDE
 66
     1
 10
0.0
 20
0.0
 30
0.0
 70
     1
  0
VERTEX
  5
440
  8
GUIDE
 10
-28.08975
 20
25.61221
 30
0.0
  0
VERTEX
  5
441
  8
GUIDE
 10
-28.08975
 20
32.21221
 30
0.0
  0
VERTEX
  5
442
  8
GUIDE
 10
-14.48975
 20
32.21221
 30
0.0
  0
VERTEX
  5
443
  8
GUIDE
 10
-14.48975
 20
25.61221
 30
0.0
  0
SEQEND
  5
651
  8
GUIDE
  0
POLYLINE
  5
CD
  8
GUIDE
 66
     1
 10
0.0
 20
0.0
 30
0.0
 70
     1
  0
VERTEX
  5
445
  8
GUIDE
 10
-25.28975
 20
32.21221
 30
0.0
  0
VERTEX
  5
446
  8
GUIDE
 10
-25.28975
 20
41.41221
 30
0.0
  0
VERTEX
  5
447
  8
GUIDE
 10
-17.28975
 20
41.41221
 30
0.0
  0
VERTEX
  5
448
  8
GUIDE
 10
-17.28975
 20
32.21221
 30
0.0
  0
SEQEND
  5
652
  8
GUIDE
  0
LINE
  5
D3
  8
GUIDE
 10
-61.48975
 20
25.31221
 30
0.0
 11
-61.48975
 21
25.01221
 31
0.0
  0
LINE
  5
D4
  8
GUIDE
 10
-61.48975
 20
25.01221
 30
0.0
 11
-53.48975
 21
25.01221
 31
0.0
  0
LINE
  5
D5
  8
GUIDE
 10
-53.48975
 20
25.01221
 30
0.0
 11
-53.48975
 21
25.31221
 31
0.0
  0
LINE
  5
D6
  8
GUIDE
 10
-53.48975
 20
25.31221
 30
0.0
 11
-61.48975
 21
25.31221
 31
0.0
  0
LINE
  5
D7
  8
GUIDE
 10
-64.28975
 20
41.11221
 30
0.0
 11
-64.28975
 21
34.51221
 31
0.0
  0
LINE
  5
D8
  8
GUIDE
 10
-64.28975
 20
34.51221
 30
0.0
 11
-50.68975
 21
34.51221
 31
0.0
  0
LINE
  5
D9
  8
GUIDE
 10
-50.68975
 20
34.51221
 30
0.0
 11
-50.68975
 21
41.11221
 31
0.0
  0
LINE
  5
DA
  8
GUIDE
 10
-50.68975
 20
41.11221
 30
0.0
 11
-64.28975
 21
41.11221
 31
0.0
  0
LINE
  5
DB
  8
GUIDE
 10
-61.48975
 20
41.41221
 30
0.0
 11
-61.48975
 21
41.11221
 31
0.0
  0
LINE
  5
DC
  8
GUIDE
 10
-61.48975
 20
41.11221
 30
0.0
 11
-53.48975
 21
41.11221
 31
0.0
  0
LINE
  5
DD
  8
GUIDE
 10
-53.48975
 20
41.11221
 30
0.0
 11
-53.48975
 21
41.41221
 31
0.0
  0
LINE
  5
DE
  8
GUIDE
 10
-53.48975
 20
41.41221
 30
0.0
 11
-61.48975
 21
41.41221
 31
0.0
  0
LINE
  5
DF
  8
GUIDE
 10
-59.98975
 20
42.21221
 30
0.0
 11
-59.98975
 21
41.41221
 31
0.0
  0
LINE
  5
E0
  8
GUIDE
 10
-59.98975
 20
41.41221
 30
0.0
 11
-54.98975
 21
41.41221
 31
0.0
  0
LINE
  5
E1
  8
GUIDE
 10
-54.98975
 20
41.41221
 30
0.0
 11
-54.98975
 21
42.21221
 31
0.0
  0
LINE
  5
E2
  8
GUIDE
 10
-54.98975
 20
42.21221
 30
0.0
 11
-59.98975
 21
42.21221
 31
0.0
  0
LINE
  5
E3
  8
GUIDE
 10
-61.48975
 20
34.51221
 30
0.0
 11
-61.48975
 21
25.31221
 31
0.0
  0
LINE
  5
E4
  8
GUIDE
 10
-61.48975
 20
25.31221
 30
0.0
 11
-53.48975
 21
25.31221
 31
0.0
  0
LINE
  5
E5
  8
GUIDE
 10
-53.48975
 20
25.31221
 30
0.0
 11
-53.48975
 21
34.51221
 31
0.0
  0
LINE
  5
E6
  8
GUIDE
 10
-53.48975
 20
34.51221
 30
0.0
 11
-61.48975
 21
34.51221
 31
0.0
  0
LINE
  5
E7
  8
GUIDE
 10
-59.98975
 20
-22.98779
 30
0.0
 11
-59.98975
 21
-23.78779
 31
0.0
  0
LINE
  5
E8
  8
GUIDE
 10
-59.98975
 20
-23.78779
 30
0.0
 11
-54.98975
 21
-23.78779
 31
0.0
  0
LINE
  5
E9
  8
GUIDE
 10
-54.98975
 20
-23.78779
 30
0.0
 11
-54.98975
 21
-22.98779
 31
0.0
  0
LINE
  5
EA
  8
GUIDE
 10
-54.98975
 20
-22.98779
 30
0.0
 11
-59.98975
 21
-22.98779
 31
0.0
  0
LINE
  5
EB
  8
GUIDE
 10
-64.28975
 20
25.01221
 30
0.0
 11
-64.28975
 21
18.41221
 31
0.0
  0
LINE
  5
EC
  8
GUIDE
 10
-64.28975
 20
18.41221
 30
0.0
 11
-50.68975
 21
18.41221
 31
0.0
  0
LINE
  5
ED
  8
GUIDE
 10
-50.68975
 20
18.41221
 30
0.0
 11
-50.68975
 21
25.01221
 31
0.0
  0
LINE
  5
EE
  8
GUIDE
 10
-50.68975
 20
25.01221
 30
0.0
 11
-64.28975
 21
25.01221
 31
0.0
  0
LINE
  5
EF
  8
GUIDE
 10
-61.48975
 20
18.41221
 30
0.0
 11
-61.48975
 21
9.212210000000001
 31
0.0
  0
LINE
  5
F0
  8
GUIDE
 10
-61.48975
 20
9.212210000000001
 30
0.0
 11
-53.48975
 21
9.212210000000001
 31
0.0
  0
LINE
  5
F1
  8
GUIDE
 10
-53.48975
 20
9.212210000000001
 30
0.0
 11
-53.48975
 21
18.41221
 31
0.0
  0
LINE
  5
F2
  8
GUIDE
 10
-53.48975
 20
18.41221
 30
0.0
 11
-61.48975
 21
18.41221
 31
0.0
  0
POLYLINE
  5
F3
  8
GUIDE
 66
     1
 10
0.0
 20
0.0
 30
0.0
 70
     1
  0
VERTEX
  5
44A
  8
GUIDE
 10
-73.58975
 20
25.31221
 30
0.0
  0
VERTEX
  5
44B
  8
GUIDE
 10
-73.58975
 20
25.61221
 30
0.0
  0
VERTEX
  5
44C
  8
GUIDE
 10
-65.58975
 20
25.61221
 30
0.0
  0
VERTEX
  5
44D
  8
GUIDE
 10
-65.58975
 20
25.31221
 30
0.0
  0
SEQEND
  5
653
  8
GUIDE
  0
POLYLINE
  5
F9
  8
GUIDE
 66
     1
 10
0.0
 20
0.0
 30
0.0
 70
     1
  0
VERTEX
  5
44F
  8
GUIDE
 10
-76.38975000000001
 20
9.51221
 30
0.0
  0
VERTEX
  5
450
  8
GUIDE
 10
-76.38975000000001
 20
16.11221
 30
0.0
  0
VERTEX
  5
451
  8
GUIDE
 10
-62.78975
 20
16.11221
 30
0.0
  0
VERTEX
  5
452
  8
GUIDE
 10
-62.78975
 20
9.51221
 30
0.0
  0
SEQEND
  5
654
  8
GUIDE
  0
POLYLINE
  5
FF
  8
GUIDE
 66
     1
 10
0.0
 20
0.0
 30
0.0
 70
     1
  0
VERTEX
  5
454
  8
GUIDE
 10
-73.58975
 20
9.212210000000001
 30
0.0
  0
VERTEX
  5
455
  8
GUIDE
 10
-73.58975
 20
9.51221
 30
0.0
  0
VERTEX
  5
456
  8
GUIDE
 10
-65.58975
 20
9.51221
 30
0.0
  0
VERTEX
  5
457
  8
GUIDE
 10
-65.58975
 20
9.212210000000001
 30
0.0
  0
SEQEND
  5
655
  8
GUIDE
  0
POLYLINE
  5
105
  8
GUIDE
 66
     1
 10
0.0
 20
0.0
 30
0.0
 70
     1
  0
VERTEX
  5
459
  8
GUIDE
 10
-72.08975
 20
-23.78779
 30
0.0
  0
VERTEX
  5
45A
  8
GUIDE
 10
-72.08975
 20
-22.98779
 30
0.0
  0
VERTEX
  5
45B
  8
GUIDE
 10
-67.08975
 20
-22.98779
 30
0.0
  0
VERTEX
  5
45C
  8
GUIDE
 10
-67.08975
 20
-23.78779
 30
0.0
  0
SEQEND
  5
656
  8
GUIDE
  0
POLYLINE
  5
10B
  8
GUIDE
 66
     1
 10
0.0
 20
0.0
 30
0.0
 70
     1
  0
VERTEX
  5
45E
  8
GUIDE
 10
-73.58975
 20
16.11221
 30
0.0
  0
VERTEX
  5
45F
  8
GUIDE
 10
-73.58975
 20
25.31221
 30
0.0
  0
VERTEX
  5
460
  8
GUIDE
 10
-65.58975
 20
25.31221
 30
0.0
  0
VERTEX
  5
461
  8
GUIDE
 10
-65.58975
 20
16.11221
 30
0.0
  0
SEQEND
  5
657
  8
GUIDE
  0
POLYLINE
  5
111
  8
GUIDE
 66
     1
 10
0.0
 20
0.0
 30
0.0
 70
     1
  0
VERTEX
  5
463
  8
GUIDE
 10
-72.08975
 20
41.41221
 30
0.0
  0
VERTEX
  5
464
  8
GUIDE
 10
-72.08975
 20
42.21221
 30
0.0
  0
VERTEX
  5
465
  8
GUIDE
 10
-67.08975
 20
42.21221
 30
0.0
  0
VERTEX
  5
466
  8
GUIDE
 10
-67.08975
 20
41.41221
 30
0.0
  0
SEQEND
  5
658
  8
GUIDE
  0
POLYLINE
  5
117
  8
GUIDE
 66
     1
 10
0.0
 20
0.0
 30
0.0
 70
     1
  0
VERTEX
  5
468
  8
GUIDE
 10
-76.38975000000001
 20
25.61221
 30
0.0
  0
VERTEX
  5
469
  8
GUIDE
 10
-76.38975000000001
 20
32.21221
 30
0.0
  0
VERTEX
  5
46A
  8
GUIDE
 10
-62.78975
 20
32.21221
 30
0.0
  0
VERTEX
  5
46B
  8
GUIDE
 10
-62.78975
 20
25.61221
 30
0.0
  0
SEQEND
  5
659
  8
GUIDE
  0
POLYLINE
  5
11D
  8
GUIDE
 66
     1
 10
0.0
 20
0.0
 30
0.0
 70
     1
  0
VERTEX
  5
46D
  8
GUIDE
 10
-73.58975
 20
32.21221
 30
0.0
  0
VERTEX
  5
46E
  8
GUIDE
 10
-73.58975
 20
41.41221
 30
0.0
  0
VERTEX
  5
46F
  8
GUIDE
 10
-65.58975
 20
41.41221
 30
0.0
  0
VERTEX
  5
470
  8
GUIDE
 10
-65.58975
 20
32.21221
 30
0.0
  0
SEQEND
  5
65A
  8
GUIDE
  0
LINE
  5
123
  8
GUIDE
 10
-37.38975
 20
25.31221
 30
0.0
 11
-37.38975
 21
25.01221
 31
0.0
  0
LINE
  5
124
  8
GUIDE
 10
-37.38975
 20
25.01221
 30
0.0
 11
-29.38975
 21
25.01221
 31
0.0
  0
LINE
  5
125
  8
GUIDE
 10
-29.38975
 20
25.01221
 30
0.0
 11
-29.38975
 21
25.31221
 31
0.0
  0
LINE
  5
126
  8
GUIDE
 10
-29.38975
 20
25.31221
 30
0.0
 11
-37.38975
 21
25.31221
 31
0.0
  0
LINE
  5
127
  8
GUIDE
 10
-40.18975
 20
41.11221
 30
0.0
 11
-40.18975
 21
34.51221
 31
0.0
  0
LINE
  5
128
  8
GUIDE
 10
-40.18975
 20
34.51221
 30
0.0
 11
-26.58975
 21
34.51221
 31
0.0
  0
LINE
  5
129
  8
GUIDE
 10
-26.58975
 20
34.51221
 30
0.0
 11
-26.58975
 21
41.11221
 31
0.0
  0
LINE
  5
12A
  8
GUIDE
 10
-26.58975
 20
41.11221
 30
0.0
 11
-40.18975
 21
41.11221
 31
0.0
  0
LINE
  5
12B
  8
GUIDE
 10
-37.38975
 20
41.41221
 30
0.0
 11
-37.38975
 21
41.11221
 31
0.0
  0
LINE
  5
12C
  8
GUIDE
 10
-37.38975
 20
41.11221
 30
0.0
 11
-29.38975
 21
41.11221
 31
0.0
  0
LINE
  5
12D
  8
GUIDE
 10
-29.38975
 20
41.11221
 30
0.0
 11
-29.38975
 21
41.41221
 31
0.0
  0
LINE
  5
12E
  8
GUIDE
 10
-29.38975
 20
41.41221
 30
0.0
 11
-37.38975
 21
41.41221
 31
0.0
  0
LINE
  5
12F
  8
GUIDE
 10
-35.88975
 20
42.21221
 30
0.0
 11
-35.88975
 21
41.41221
 31
0.0
  0
LINE
  5
130
  8
GUIDE
 10
-35.88975
 20
41.41221
 30
0.0
 11
-30.88975
 21
41.41221
 31
0.0
  0
LINE
  5
131
  8
GUIDE
 10
-30.88975
 20
41.41221
 30
0.0
 11
-30.88975
 21
42.21221
 31
0.0
  0
LINE
  5
132
  8
GUIDE
 10
-30.88975
 20
42.21221
 30
0.0
 11
-35.88975
 21
42.21221
 31
0.0
  0
LINE
  5
133
  8
GUIDE
 10
-37.38975
 20
34.51221
 30
0.0
 11
-37.38975
 21
25.31221
 31
0.0
  0
LINE
  5
134
  8
GUIDE
 10
-37.38975
 20
25.31221
 30
0.0
 11
-29.38975
 21
25.31221
 31
0.0
  0
LINE
  5
135
  8
GUIDE
 10
-29.38975
 20
25.31221
 30
0.0
 11
-29.38975
 21
34.51221
 31
0.0
  0
LINE
  5
136
  8
GUIDE
 10
-29.38975
 20
34.51221
 30
0.0
 11
-37.38975
 21
34.51221
 31
0.0
  0
LINE
  5
137
  8
GUIDE
 10
-35.88975
 20
-22.98779
 30
0.0
 11
-35.88975
 21
-23.78779
 31
0.0
  0
LINE
  5
138
  8
GUIDE
 10
-35.88975
 20
-23.78779
 30
0.0
 11
-30.88975
 21
-23.78779
 31
0.0
  0
LINE
  5
139
  8
GUIDE
 10
-30.88975
 20
-23.78779
 30
0.0
 11
-30.88975
 21
-22.98779
 31
0.0
  0
LINE
  5
13A
  8
GUIDE
 10
-30.88975
 20
-22.98779
 30
0.0
 11
-35.88975
 21
-22.98779
 31
0.0
  0
LINE
  5
13B
  8
GUIDE
 10
-40.18975
 20
25.01221
 30
0.0
 11
-40.18975
 21
18.41221
 31
0.0
  0
LINE
  5
13C
  8
GUIDE
 10
-40.18975
 20
18.41221
 30
0.0
 11
-26.58975
 21
18.41221
 31
0.0
  0
LINE
  5
13D
  8
GUIDE
 10
-26.58975
 20
18.41221
 30
0.0
 11
-26.58975
 21
25.01221
 31
0.0
  0
LINE
  5
13E
  8
GUIDE
 10
-26.58975
 20
25.01221
 30
0.0
 11
-40.18975
 21
25.01221
 31
0.0
  0
LINE
  5
13F
  8
GUIDE
 10
-37.38975
 20
18.41221
 30
0.0
 11
-37.38975
 21
9.212210000000001
 31
0.0
  0
LINE
  5
140
  8
GUIDE
 10
-37.38975
 20
9.212210000000001
 30
0.0
 11
-29.38975
 21
9.212210000000001
 31
0.0
  0
LINE
  5
141
  8
GUIDE
 10
-29.38975
 20
9.212210000000001
 30
0.0
 11
-29.38975
 21
18.41221
 31
0.0
  0
LINE
  5
142
  8
GUIDE
 10
-29.38975
 20
18.41221
 30
0.0
 11
-37.38975
 21
18.41221
 31
0.0
  0
POLYLINE
  5
143
  8
GUIDE
 66
     1
 10
0.0
 20
0.0
 30
0.0
 70
     1
  0
VERTEX
  5
472
  8
GUIDE
 10
-49.48975
 20
25.31221
 30
0.0
  0
VERTEX
  5
473
  8
GUIDE
 10
-49.48975
 20
25.61221
 30
0.0
  0
VERTEX
  5
474
  8
GUIDE
 10
-41.48975
 20
25.61221
 30
0.0
  0
VERTEX
  5
475
  8
GUIDE
 10
-41.48975
 20
25.31221
 30
0.0
  0
SEQEND
  5
65B
  8
GUIDE
  0
POLYLINE
  5
149
  8
GUIDE
 66
     1
 10
0.0
 20
0.0
 30
0.0
 70
     1
  0
VERTEX
  5
477
  8
GUIDE
 10
-52.28975
 20
9.51221
 30
0.0
  0
VERTEX
  5
478
  8
GUIDE
 10
-52.28975
 20
16.11221
 30
0.0
  0
VERTEX
  5
479
  8
GUIDE
 10
-38.68975
 20
16.11221
 30
0.0
  0
VERTEX
  5
47A
  8
GUIDE
 10
-38.68975
 20
9.51221
 30
0.0
  0
SEQEND
  5
65C
  8
GUIDE
  0
POLYLINE
  5
14F
  8
GUIDE
 66
     1
 10
0.0
 20
0.0
 30
0.0
 70
     1
  0
VERTEX
  5
47C
  8
GUIDE
 10
-49.48975
 20
9.212210000000001
 30
0.0
  0
VERTEX
  5
47D
  8
GUIDE
 10
-49.48975
 20
9.51221
 30
0.0
  0
VERTEX
  5
47E
  8
GUIDE
 10
-41.48975
 20
9.51221
 30
0.0
  0
VERTEX
  5
47F
  8
GUIDE
 10
-41.48975
 20
9.212210000000001
 30
0.0
  0
SEQEND
  5
65D
  8
GUIDE
  0
POLYLINE
  5
155
  8
GUIDE
 66
     1
 10
0.0
 20
0.0
 30
0.0
 70
     1
  0
VERTEX
  5
481
  8
GUIDE
 10
-47.98975
 20
-23.78779
 30
0.0
  0
VERTEX
  5
482
  8
GUIDE
 10
-47.98975
 20
-22.98779
 30
0.0
  0
VERTEX
  5
483
  8
GUIDE
 10
-42.98975
 20
-22.98779
 30
0.0
  0
VERTEX
  5
484
  8
GUIDE
 10
-42.98975
 20
-23.78779
 30
0.0
  0
SEQEND
  5
65E
  8
GUIDE
  0
POLYLINE
  5
15B
  8
GUIDE
 66
     1
 10
0.0
 20
0.0
 30
0.0
 70
     1
  0
VERTEX
  5
486
  8
GUIDE
 10
-49.48975
 20
16.11221
 30
0.0
  0
VERTEX
  5
487
  8
GUIDE
 10
-49.48975
 20
25.31221
 30
0.0
  0
VERTEX
  5
488
  8
GUIDE
 10
-41.48975
 20
25.31221
 30
0.0
  0
VERTEX
  5
489
  8
GUIDE
 10
-41.48975
 20
16.11221
 30
0.0
  0
SEQEND
  5
65F
  8
GUIDE
  0
POLYLINE
  5
161
  8
GUIDE
 66
     1
 10
0.0
 20
0.0
 30
0.0
 70
     1
  0
VERTEX
  5
48B
  8
GUIDE
 10
-47.98975
 20
41.41221
 30
0.0
  0
VERTEX
  5
48C
  8
GUIDE
 10
-47.98975
 20
42.21221
 30
0.0
  0
VERTEX
  5
48D
  8
GUIDE
 10
-42.98975
 20
42.21221
 30
0.0
  0
VERTEX
  5
48E
  8
GUIDE
 10
-42.98975
 20
41.41221
 30
0.0
  0
SEQEND
  5
660
  8
GUIDE
  0
POLYLINE
  5
167
  8
GUIDE
 66
     1
 10
0.0
 20
0.0
 30
0.0
 70
     1
  0
VERTEX
  5
490
  8
GUIDE
 10
-52.28975
 20
25.61221
 30
0.0
  0
VERTEX
  5
491
  8
GUIDE
 10
-52.28975
 20
32.21221
 30
0.0
  0
VERTEX
  5
492
  8
GUIDE
 10
-38.68975
 20
32.21221
 30
0.0
  0
VERTEX
  5
493
  8
GUIDE
 10
-38.68975
 20
25.61221
 30
0.0
  0
SEQEND
  5
661
  8
GUIDE
  0
POLYLINE
  5
16D
  8
GUIDE
 66
     1
 10
0.0
 20
0.0
 30
0.0
 70
     1
  0
VERTEX
  5
495
  8
GUIDE
 10
-49.48975
 20
32.21221
 30
0.0
  0
VERTEX
  5
496
  8
GUIDE
 10
-49.48975
 20
41.41221
 30
0.0
  0
VERTEX
  5
497
  8
GUIDE
 10
-41.48975
 20
41.41221
 30
0.0
  0
VERTEX
  5
498
  8
GUIDE
 10
-41.48975
 20
32.21221
 30
0.0
  0
SEQEND
  5
662
  8
GUIDE
  0
POLYLINE
  5
173
  8
GUIDE
 66
     1
 10
0.0
 20
0.0
 30
0.0
 70
     1
  0
VERTEX
  5
49A
  8
GUIDE
 10
-1.08975
 20
25.31221
 30
0.0
  0
VERTEX
  5
49B
  8
GUIDE
 10
-1.08975
 20
25.61221
 30
0.0
  0
VERTEX
  5
49C
  8
GUIDE
 10
6.91025
 20
25.61221
 30
0.0
  0
VERTEX
  5
49D
  8
GUIDE
 10
6.91025
 20
25.31221
 30
0.0
  0
SEQEND
  5
663
  8
GUIDE
  0
POLYLINE
  5
179
  8
GUIDE
 66
     1
 10
0.0
 20
0.0
 30
0.0
 70
     1
  0
VERTEX
  5
49F
  8
GUIDE
 10
-3.88975
 20
9.51221
 30
0.0
  0
VERTEX
  5
4A0
  8
GUIDE
 10
-3.88975
 20
16.11221
 30
0.0
  0
VERTEX
  5
4A1
  8
GUIDE
 10
9.71025
 20
16.11221
 30
0.0
  0
VERTEX
  5
4A2
  8
GUIDE
 10
9.71025
 20
9.51221
 30
0.0
  0
SEQEND
  5
664
  8
GUIDE
  0
POLYLINE
  5
17F
  8
GUIDE
 66
     1
 10
0.0
 20
0.0
 30
0.0
 70
     1
  0
VERTEX
  5
4A4
  8
GUIDE
 10
-1.08975
 20
9.212210000000001
 30
0.0
  0
VERTEX
  5
4A5
  8
GUIDE
 10
-1.08975
 20
9.51221
 30
0.0
  0
VERTEX
  5
4A6
  8
GUIDE
 10
6.91025
 20
9.51221
 30
0.0
  0
VERTEX
  5
4A7
  8
GUIDE
 10
6.91025
 20
9.212210000000001
 30
0.0
  0
SEQEND
  5
665
  8
GUIDE
  0
POLYLINE
  5
185
  8
GUIDE
 66
     1
 10
0.0
 20
0.0
 30
0.0
 70
     1
  0
VERTEX
  5
4A9
  8
GUIDE
 10
0.41025
 20
-23.78779
 30
0.0
  0
VERTEX
  5
4AA
  8
GUIDE
 10
0.41025
 20
-22.98779
 30
0.0
  0
VERTEX
  5
4AB
  8
GUIDE
 10
5.41025
 20
-22.98779
 30
0.0
  0
VERTEX
  5
4AC
  8
GUIDE
 10
5.41025
 20
-23.78779
 30
0.0
  0
SEQEND
  5
666
  8
GUIDE
  0
POLYLINE
  5
18B
  8
GUIDE
 66
     1
 10
0.0
 20
0.0
 30
0.0
 70
     1
  0
VERTEX
  5
4AE
  8
GUIDE
 10
-1.08975
 20
16.11221
 30
0.0
  0
VERTEX
  5
4AF
  8
GUIDE
 10
-1.08975
 20
25.31221
 30
0.0
  0
VERTEX
  5
4B0
  8
GUIDE
 10
6.91025
 20
25.31221
 30
0.0
  0
VERTEX
  5
4B1
  8
GUIDE
 10
6.91025
 20
16.11221
 30
0.0
  0
SEQEND
  5
667
  8
GUIDE
  0
POLYLINE
  5
191
  8
GUIDE
 66
     1
 10
0.0
 20
0.0
 30
0.0
 70
     1
  0
VERTEX
  5
4B3
  8
GUIDE
 10
0.41025
 20
41.41221
 30
0.0
  0
VERTEX
  5
4B4
  8
GUIDE
 10
0.41025
 20
42.21221
 30
0.0
  0
VERTEX
  5
4B5
  8
GUIDE
 10
5.41025
 20
42.21221
 30
0.0
  0
VERTEX
  5
4B6
  8
GUIDE
 10
5.41025
 20
41.41221
 30
0.0
  0
SEQEND
  5
668
  8
GUIDE
  0
POLYLINE
  5
197
  8
GUIDE
 66
     1
 10
0.0
 20
0.0
 30
0.0
 70
     1
  0
VERTEX
  5
4B8
  8
GUIDE
 10
-3.88975
 20
25.61221
 30
0.0
  0
VERTEX
  5
4B9
  8
GUIDE
 10
-3.88975
 20
32.21221
 30
0.0
  0
VERTEX
  5
4BA
  8
GUIDE
 10
9.71025
 20
32.21221
 30
0.0
  0
VERTEX
  5
4BB
  8
GUIDE
 10
9.71025
 20
25.61221
 30
0.0
  0
SEQEND
  5
669
  8
GUIDE
  0
POLYLINE
  5
19D
  8
GUIDE
 66
     1
 10
0.0
 20
0.0
 30
0.0
 70
     1
  0
VERTEX
  5
4BD
  8
GUIDE
 10
-1.08975
 20
32.21221
 30
0.0
  0
VERTEX
  5
4BE
  8
GUIDE
 10
-1.08975
 20
41.41221
 30
0.0
  0
VERTEX
  5
4BF
  8
GUIDE
 10
6.91025
 20
41.41221
 30
0.0
  0
VERTEX
  5
4C0
  8
GUIDE
 10
6.91025
 20
32.21221
 30
0.0
  0
SEQEND
  5
66A
  8
GUIDE
  0
LINE
  5
1A3
  8
GUIDE
 10
-13.18975
 20
25.31221
 30
0.0
 11
-13.18975
 21
25.01221
 31
0.0
  0
LINE
  5
1A4
  8
GUIDE
 10
-13.18975
 20
25.01221
 30
0.0
 11
-5.18975
 21
25.01221
 31
0.0
  0
LINE
  5
1A5
  8
GUIDE
 10
-5.18975
 20
25.01221
 30
0.0
 11
-5.18975
 21
25.31221
 31
0.0
  0
LINE
  5
1A6
  8
GUIDE
 10
-5.18975
 20
25.31221
 30
0.0
 11
-13.18975
 21
25.31221
 31
0.0
  0
LINE
  5
1A7
  8
GUIDE
 10
-15.98975
 20
41.11221
 30
0.0
 11
-15.98975
 21
34.51221
 31
0.0
  0
LINE
  5
1A8
  8
GUIDE
 10
-15.98975
 20
34.51221
 30
0.0
 11
-2.38975
 21
34.51221
 31
0.0
  0
LINE
  5
1A9
  8
GUIDE
 10
-2.38975
 20
34.51221
 30
0.0
 11
-2.38975
 21
41.11221
 31
0.0
  0
LINE
  5
1AA
  8
GUIDE
 10
-2.38975
 20
41.11221
 30
0.0
 11
-15.98975
 21
41.11221
 31
0.0
  0
LINE
  5
1AB
  8
GUIDE
 10
-13.18975
 20
41.41221
 30
0.0
 11
-13.18975
 21
41.11221
 31
0.0
  0
LINE
  5
1AC
  8
GUIDE
 10
-13.18975
 20
41.11221
 30
0.0
 11
-5.18975
 21
41.11221
 31
0.0
  0
LINE
  5
1AD
  8
GUIDE
 10
-5.18975
 20
41.11221
 30
0.0
 11
-5.18975
 21
41.41221
 31
0.0
  0
LINE
  5
1AE
  8
GUIDE
 10
-5.18975
 20
41.41221
 30
0.0
 11
-13.18975
 21
41.41221
 31
0.0
  0
LINE
  5
1AF
  8
GUIDE
 10
-11.68975
 20
42.21221
 30
0.0
 11
-11.68975
 21
41.41221
 31
0.0
  0
LINE
  5
1B0
  8
GUIDE
 10
-11.68975
 20
41.41221
 30
0.0
 11
-6.68975
 21
41.41221
 31
0.0
  0
LINE
  5
1B1
  8
GUIDE
 10
-6.68975
 20
41.41221
 30
0.0
 11
-6.68975
 21
42.21221
 31
0.0
  0
LINE
  5
1B2
  8
GUIDE
 10
-6.68975
 20
42.21221
 30
0.0
 11
-11.68975
 21
42.21221
 31
0.0
  0
LINE
  5
1B3
  8
GUIDE
 10
-13.18975
 20
34.51221
 30
0.0
 11
-13.18975
 21
25.31221
 31
0.0
  0
LINE
  5
1B4
  8
GUIDE
 10
-13.18975
 20
25.31221
 30
0.0
 11
-5.18975
 21
25.31221
 31
0.0
  0
LINE
  5
1B5
  8
GUIDE
 10
-5.18975
 20
25.31221
 30
0.0
 11
-5.18975
 21
34.51221
 31
0.0
  0
LINE
  5
1B6
  8
GUIDE
 10
-5.18975
 20
34.51221
 30
0.0
 11
-13.18975
 21
34.51221
 31
0.0
  0
LINE
  5
1B7
  8
GUIDE
 10
-11.68975
 20
-22.98779
 30
0.0
 11
-11.68975
 21
-23.78779
 31
0.0
  0
LINE
  5
1B8
  8
GUIDE
 10
-11.68975
 20
-23.78779
 30
0.0
 11
-6.68975
 21
-23.78779
 31
0.0
  0
LINE
  5
1B9
  8
GUIDE
 10
-6.68975
 20
-23.78779
 30
0.0
 11
-6.68975
 21
-22.98779
 31
0.0
  0
LINE
  5
1BA
  8
GUIDE
 10
-6.68975
 20
-22.98779
 30
0.0
 11
-11.68975
 21
-22.98779
 31
0.0
  0
LINE
  5
1BB
  8
GUIDE
 10
-15.98975
 20
25.01221
 30
0.0
 11
-15.98975
 21
18.41221
 31
0.0
  0
LINE
  5
1BC
  8
GUIDE
 10
-15.98975
 20
18.41221
 30
0.0
 11
-2.38975
 21
18.41221
 31
0.0
  0
LINE
  5
1BD
  8
GUIDE
 10
-2.38975
 20
18.41221
 30
0.0
 11
-2.38975
 21
25.01221
 31
0.0
  0
LINE
  5
1BE
  8
GUIDE
 10
-2.38975
 20
25.01221
 30
0.0
 11
-15.98975
 21
25.01221
 31
0.0
  0
LINE
  5
1BF
  8
GUIDE
 10
-13.18975
 20
18.41221
 30
0.0
 11
-13.18975
 21
9.212210000000001
 31
0.0
  0
LINE
  5
1C0
  8
GUIDE
 10
-13.18975
 20
9.212210000000001
 30
0.0
 11
-5.18975
 21
9.212210000000001
 31
0.0
  0
LINE
  5
1C1
  8
GUIDE
 10
-5.18975
 20
9.212210000000001
 30
0.0
 11
-5.18975
 21
18.41221
 31
0.0
  0
LINE
  5
1C2
  8
GUIDE
 10
-5.18975
 20
18.41221
 30
0.0
 11
-13.18975
 21
18.41221
 31
0.0
  0
LINE
  5
1C3
  8
GUIDE
 10
11.01025
 20
25.31221
 30
0.0
 11
11.01025
 21
25.01221
 31
0.0
  0
LINE
  5
1C4
  8
GUIDE
 10
11.01025
 20
25.01221
 30
0.0
 11
19.01025
 21
25.01221
 31
0.0
  0
LINE
  5
1C5
  8
GUIDE
 10
19.01025
 20
25.01221
 30
0.0
 11
19.01025
 21
25.31221
 31
0.0
  0
LINE
  5
1C6
  8
GUIDE
 10
19.01025
 20
25.31221
 30
0.0
 11
11.01025
 21
25.31221
 31
0.0
  0
LINE
  5
1C7
  8
GUIDE
 10
8.21025
 20
41.11221
 30
0.0
 11
8.21025
 21
34.51221
 31
0.0
  0
LINE
  5
1C8
  8
GUIDE
 10
8.21025
 20
34.51221
 30
0.0
 11
21.81025
 21
34.51221
 31
0.0
  0
LINE
  5
1C9
  8
GUIDE
 10
21.81025
 20
34.51221
 30
0.0
 11
21.81025
 21
41.11221
 31
0.0
  0
LINE
  5
1CA
  8
GUIDE
 10
21.81025
 20
41.11221
 30
0.0
 11
8.21025
 21
41.11221
 31
0.0
  0
LINE
  5
1CB
  8
GUIDE
 10
11.01025
 20
41.41221
 30
0.0
 11
11.01025
 21
41.11221
 31
0.0
  0
LINE
  5
1CC
  8
GUIDE
 10
11.01025
 20
41.11221
 30
0.0
 11
19.01025
 21
41.11221
 31
0.0
  0
LINE
  5
1CD
  8
GUIDE
 10
19.01025
 20
41.11221
 30
0.0
 11
19.01025
 21
41.41221
 31
0.0
  0
LINE
  5
1CE
  8
GUIDE
 10
19.01025
 20
41.41221
 30
0.0
 11
11.01025
 21
41.41221
 31
0.0
  0
LINE
  5
1CF
  8
GUIDE
 10
12.51025
 20
42.21221
 30
0.0
 11
12.51025
 21
41.41221
 31
0.0
  0
LINE
  5
1D0
  8
GUIDE
 10
12.51025
 20
41.41221
 30
0.0
 11
17.51025
 21
41.41221
 31
0.0
  0
LINE
  5
1D1
  8
GUIDE
 10
17.51025
 20
41.41221
 30
0.0
 11
17.51025
 21
42.21221
 31
0.0
  0
LINE
  5
1D2
  8
GUIDE
 10
17.51025
 20
42.21221
 30
0.0
 11
12.51025
 21
42.21221
 31
0.0
  0
LINE
  5
1D3
  8
GUIDE
 10
11.01025
 20
34.51221
 30
0.0
 11
11.01025
 21
25.31221
 31
0.0
  0
LINE
  5
1D4
  8
GUIDE
 10
11.01025
 20
25.31221
 30
0.0
 11
19.01025
 21
25.31221
 31
0.0
  0
LINE
  5
1D5
  8
GUIDE
 10
19.01025
 20
25.31221
 30
0.0
 11
19.01025
 21
34.51221
 31
0.0
  0
LINE
  5
1D6
  8
GUIDE
 10
19.01025
 20
34.51221
 30
0.0
 11
11.01025
 21
34.51221
 31
0.0
  0
LINE
  5
1D7
  8
GUIDE
 10
12.51025
 20
-22.98779
 30
0.0
 11
12.51025
 21
-23.78779
 31
0.0
  0
LINE
  5
1D8
  8
GUIDE
 10
12.51025
 20
-23.78779
 30
0.0
 11
17.51025
 21
-23.78779
 31
0.0
  0
LINE
  5
1D9
  8
GUIDE
 10
17.51025
 20
-23.78779
 30
0.0
 11
17.51025
 21
-22.98779
 31
0.0
  0
LINE
  5
1DA
  8
GUIDE
 10
17.51025
 20
-22.98779
 30
0.0
 11
12.51025
 21
-22.98779
 31
0.0
  0
LINE
  5
1DB
  8
GUIDE
 10
8.21025
 20
25.01221
 30
0.0
 11
8.21025
 21
18.41221
 31
0.0
  0
LINE
  5
1DC
  8
GUIDE
 10
8.21025
 20
18.41221
 30
0.0
 11
21.81025
 21
18.41221
 31
0.0
  0
LINE
  5
1DD
  8
GUIDE
 10
21.81025
 20
18.41221
 30
0.0
 11
21.81025
 21
25.01221
 31
0.0
  0
LINE
  5
1DE
  8
GUIDE
 10
21.81025
 20
25.01221
 30
0.0
 11
8.21025
 21
25.01221
 31
0.0
  0
LINE
  5
1DF
  8
GUIDE
 10
11.01025
 20
18.41221
 30
0.0
 11
11.01025
 21
9.212210000000001
 31
0.0
  0
LINE
  5
1E0
  8
GUIDE
 10
11.01025
 20
9.212210000000001
 30
0.0
 11
19.01025
 21
9.212210000000001
 31
0.0
  0
LINE
  5
1E1
  8
GUIDE
 10
19.01025
 20
9.212210000000001
 30
0.0
 11
19.01025
 21
18.41221
 31
0.0
  0
LINE
  5
1E2
  8
GUIDE
 10
19.01025
 20
18.41221
 30
0.0
 11
11.01025
 21
18.41221
 31
0.0
  0
POLYLINE
  5
1E3
  8
GUIDE
 66
     1
 10
0.0
 20
0.0
 30
0.0
 70
     1
  0
VERTEX
  5
4C2
  8
GUIDE
 10
-28.08975
 20
-6.58779
 30
0.0
  0
VERTEX
  5
4C3
  8
GUIDE
 10
-28.08975
 20
0.01221
 30
0.0
  0
VERTEX
  5
4C4
  8
GUIDE
 10
-14.48975
 20
0.01221
 30
0.0
  0
VERTEX
  5
4C5
  8
GUIDE
 10
-14.48975
 20
-6.58779
 30
0.0
  0
SEQEND
  5
66B
  8
GUIDE
  0
POLYLINE
  5
1E9
  8
GUIDE
 66
     1
 10
0.0
 20
0.0
 30
0.0
 70
     1
  0
VERTEX
  5
4C7
  8
GUIDE
 10
-28.08975
 20
-22.68779
 30
0.0
  0
VERTEX
  5
4C8
  8
GUIDE
 10
-28.08975
 20
-16.08779
 30
0.0
  0
VERTEX
  5
4C9
  8
GUIDE
 10
-14.48975
 20
-16.08779
 30
0.0
  0
VERTEX
  5
4CA
  8
GUIDE
 10
-14.48975
 20
-22.68779
 30
0.0
  0
SEQEND
  5
66C
  8
GUIDE
  0
LINE
  5
1EF
  8
GUIDE
 10
-53.48975
 20
-13.78779
 30
0.0
 11
-61.48975
 21
-13.78779
 31
0.0
  0
LINE
  5
1F0
  8
GUIDE
 10
-50.68975
 20
-7.18779
 30
0.0
 11
-64.28975
 21
-7.18779
 31
0.0
  0
LINE
  5
1F1
  8
GUIDE
 10
-64.28975
 20
-13.78779
 30
0.0
 11
-50.68975
 21
-13.78779
 31
0.0
  0
LINE
  5
1F2
  8
GUIDE
 10
-53.48975
 20
2.31221
 30
0.0
 11
-61.48975
 21
2.31221
 31
0.0
  0
LINE
  5
1F3
  8
GUIDE
 10
-61.48975
 20
-6.88779
 30
0.0
 11
-53.48975
 21
-6.88779
 31
0.0
  0
LINE
  5
1F4
  8
GUIDE
 10
-64.28975
 20
2.31221
 30
0.0
 11
-50.68975
 21
2.31221
 31
0.0
  0
LINE
  5
1F5
  8
GUIDE
 10
-53.48975
 20
-6.88779
 30
0.0
 11
-61.48975
 21
-6.88779
 31
0.0
  0
LINE
  5
1F6
  8
GUIDE
 10
-61.48975
 20
-7.18779
 30
0.0
 11
-53.48975
 21
-7.18779
 31
0.0
  0
POLYLINE
  5
1F7
  8
GUIDE
 66
     1
 10
0.0
 20
0.0
 30
0.0
 70
     1
  0
VERTEX
  5
4CC
  8
GUIDE
 10
-73.58975
 20
-16.08779
 30
0.0
  0
VERTEX
  5
4CD
  8
GUIDE
 10
-73.58975
 20
-6.88779
 30
0.0
  0
VERTEX
  5
4CE
  8
GUIDE
 10
-65.58975
 20
-6.88779
 30
0.0
  0
VERTEX
  5
4CF
  8
GUIDE
 10
-65.58975
 20
-16.08779
 30
0.0
  0
SEQEND
  5
66D
  8
GUIDE
  0
LINE
  5
1FD
  8
GUIDE
 10
-64.28975
 20
-7.18779
 30
0.0
 11
-64.28975
 21
-13.78779
 31
0.0
  0
POLYLINE
  5
1FE
  8
GUIDE
 66
     1
 10
0.0
 20
0.0
 30
0.0
 70
     1
  0
VERTEX
  5
4D1
  8
GUIDE
 10
-76.38975000000001
 20
-22.68779
 30
0.0
  0
VERTEX
  5
4D2
  8
GUIDE
 10
-76.38975000000001
 20
-16.08779
 30
0.0
  0
VERTEX
  5
4D3
  8
GUIDE
 10
-62.78975
 20
-16.08779
 30
0.0
  0
VERTEX
  5
4D4
  8
GUIDE
 10
-62.78975
 20
-22.68779
 30
0.0
  0
SEQEND
  5
66E
  8
GUIDE
  0
LINE
  5
204
  8
GUIDE
 10
-61.48975
 20
-13.78779
 30
0.0
 11
-61.48975
 21
-22.98779
 31
0.0
  0
POLYLINE
  5
205
  8
GUIDE
 66
     1
 10
0.0
 20
0.0
 30
0.0
 70
     1
  0
VERTEX
  5
4D6
  8
GUIDE
 10
-76.38975000000001
 20
-6.58779
 30
0.0
  0
VERTEX
  5
4D7
  8
GUIDE
 10
-76.38975000000001
 20
0.01221
 30
0.0
  0
VERTEX
  5
4D8
  8
GUIDE
 10
-62.78975
 20
0.01221
 30
0.0
  0
VERTEX
  5
4D9
  8
GUIDE
 10
-62.78975
 20
-6.58779
 30
0.0
  0
SEQEND
  5
66F
  8
GUIDE
  0
POLYLINE
  5
20B
  8
GUIDE
 66
     1
 10
0.0
 20
0.0
 30
0.0
 70
     1
  0
VERTEX
  5
4DB
  8
GUIDE
 10
-73.58975
 20
0.01221
 30
0.0
  0
VERTEX
  5
4DC
  8
GUIDE
 10
-73.58975
 20
9.212210000000001
 30
0.0
  0
VERTEX
  5
4DD
  8
GUIDE
 10
-65.58975
 20
9.212210000000001
 30
0.0
  0
VERTEX
  5
4DE
  8
GUIDE
 10
-65.58975
 20
0.01221
 30
0.0
  0
SEQEND
  5
670
  8
GUIDE
  0
LINE
  5
211
  8
GUIDE
 10
-61.48975
 20
2.31221
 30
0.0
 11
-61.48975
 21
-6.88779
 31
0.0
  0
POLYLINE
  5
212
  8
GUIDE
 66
     1
 10
0.0
 20
0.0
 30
0.0
 70
     1
  0
VERTEX
  5
4E0
  8
GUIDE
 10
-73.58975
 20
-6.88779
 30
0.0
  0
VERTEX
  5
4E1
  8
GUIDE
 10
-73.58975
 20
-6.58779
 30
0.0
  0
VERTEX
  5
4E2
  8
GUIDE
 10
-65.58975
 20
-6.58779
 30
0.0
  0
VERTEX
  5
4E3
  8
GUIDE
 10
-65.58975
 20
-6.88779
 30
0.0
  0
SEQEND
  5
671
  8
GUIDE
  0
LINE
  5
218
  8
GUIDE
 10
-61.48975
 20
-6.88779
 30
0.0
 11
-61.48975
 21
-7.18779
 31
0.0
  0
LINE
  5
219
  8
GUIDE
 10
-64.28975
 20
8.91221
 30
0.0
 11
-64.28975
 21
2.31221
 31
0.0
  0
POLYLINE
  5
21A
  8
GUIDE
 66
     1
 10
0.0
 20
0.0
 30
0.0
 70
     1
  0
VERTEX
  5
4E5
  8
GUIDE
 10
-49.48975
 20
-16.08779
 30
0.0
  0
VERTEX
  5
4E6
  8
GUIDE
 10
-49.48975
 20
-6.88779
 30
0.0
  0
VERTEX
  5
4E7
  8
GUIDE
 10
-41.48975
 20
-6.88779
 30
0.0
  0
VERTEX
  5
4E8
  8
GUIDE
 10
-41.48975
 20
-16.08779
 30
0.0
  0
SEQEND
  5
672
  8
GUIDE
  0
LINE
  5
220
  8
GUIDE
 10
-26.58975
 20
-13.78779
 30
0.0
 11
-26.58975
 21
-7.18779
 31
0.0
  0
LINE
  5
221
  8
GUIDE
 10
-40.18975
 20
-7.18779
 30
0.0
 11
-40.18975
 21
-13.78779
 31
0.0
  0
LINE
  5
222
  8
GUIDE
 10
-50.68975
 20
-13.78779
 30
0.0
 11
-50.68975
 21
-7.18779
 31
0.0
  0
POLYLINE
  5
223
  8
GUIDE
 66
     1
 10
0.0
 20
0.0
 30
0.0
 70
     1
  0
VERTEX
  5
4EA
  8
GUIDE
 10
-52.28975
 20
-22.68779
 30
0.0
  0
VERTEX
  5
4EB
  8
GUIDE
 10
-52.28975
 20
-16.08779
 30
0.0
  0
VERTEX
  5
4EC
  8
GUIDE
 10
-38.68975
 20
-16.08779
 30
0.0
  0
VERTEX
  5
4ED
  8
GUIDE
 10
-38.68975
 20
-22.68779
 30
0.0
  0
SEQEND
  5
673
  8
GUIDE
  0
LINE
  5
229
  8
GUIDE
 10
-53.48975
 20
-22.98779
 30
0.0
 11
-53.48975
 21
-13.78779
 31
0.0
  0
LINE
  5
22A
  8
GUIDE
 10
-29.38975
 20
-13.78779
 30
0.0
 11
-37.38975
 21
-13.78779
 31
0.0
  0
LINE
  5
22B
  8
GUIDE
 10
-40.18975
 20
-13.78779
 30
0.0
 11
-26.58975
 21
-13.78779
 31
0.0
  0
LINE
  5
22C
  8
GUIDE
 10
-37.38975
 20
-13.78779
 30
0.0
 11
-37.38975
 21
-22.98779
 31
0.0
  0
LINE
  5
22D
  8
GUIDE
 10
-29.38975
 20
-22.98779
 30
0.0
 11
-29.38975
 21
-13.78779
 31
0.0
  0
POLYLINE
  5
22E
  8
GUIDE
 66
     1
 10
0.0
 20
0.0
 30
0.0
 70
     1
  0
VERTEX
  5
4EF
  8
GUIDE
 10
-49.48975
 20
0.01221
 30
0.0
  0
VERTEX
  5
4F0
  8
GUIDE
 10
-49.48975
 20
9.212210000000001
 30
0.0
  0
VERTEX
  5
4F1
  8
GUIDE
 10
-41.48975
 20
9.212210000000001
 30
0.0
  0
VERTEX
  5
4F2
  8
GUIDE
 10
-41.48975
 20
0.01221
 30
0.0
  0
SEQEND
  5
674
  8
GUIDE
  0
POLYLINE
  5
234
  8
GUIDE
 66
     1
 10
0.0
 20
0.0
 30
0.0
 70
     1
  0
VERTEX
  5
4F4
  8
GUIDE
 10
-52.28975
 20
-6.58779
 30
0.0
  0
VERTEX
  5
4F5
  8
GUIDE
 10
-52.28975
 20
0.01221
 30
0.0
  0
VERTEX
  5
4F6
  8
GUIDE
 10
-38.68975
 20
0.01221
 30
0.0
  0
VERTEX
  5
4F7
  8
GUIDE
 10
-38.68975
 20
-6.58779
 30
0.0
  0
SEQEND
  5
675
  8
GUIDE
  0
POLYLINE
  5
23A
  8
GUIDE
 66
     1
 10
0.0
 20
0.0
 30
0.0
 70
     1
  0
VERTEX
  5
4F9
  8
GUIDE
 10
-49.48975
 20
-6.88779
 30
0.0
  0
VERTEX
  5
4FA
  8
GUIDE
 10
-49.48975
 20
-6.58779
 30
0.0
  0
VERTEX
  5
4FB
  8
GUIDE
 10
-41.48975
 20
-6.58779
 30
0.0
  0
VERTEX
  5
4FC
  8
GUIDE
 10
-41.48975
 20
-6.88779
 30
0.0
  0
SEQEND
  5
676
  8
GUIDE
  0
LINE
  5
240
  8
GUIDE
 10
-53.48975
 20
-6.88779
 30
0.0
 11
-53.48975
 21
2.31221
 31
0.0
  0
LINE
  5
241
  8
GUIDE
 10
-53.48975
 20
-7.18779
 30
0.0
 11
-53.48975
 21
-6.88779
 31
0.0
  0
LINE
  5
242
  8
GUIDE
 10
-50.68975
 20
2.31221
 30
0.0
 11
-50.68975
 21
8.91221
 31
0.0
  0
LINE
  5
243
  8
GUIDE
 10
-29.38975
 20
-6.88779
 30
0.0
 11
-29.38975
 21
2.31221
 31
0.0
  0
LINE
  5
244
  8
GUIDE
 10
-37.38975
 20
2.31221
 30
0.0
 11
-37.38975
 21
-6.88779
 31
0.0
  0
LINE
  5
245
  8
GUIDE
 10
-26.58975
 20
-7.18779
 30
0.0
 11
-40.18975
 21
-7.18779
 31
0.0
  0
LINE
  5
246
  8
GUIDE
 10
-37.38975
 20
-6.88779
 30
0.0
 11
-29.38975
 21
-6.88779
 31
0.0
  0
LINE
  5
247
  8
GUIDE
 10
-29.38975
 20
-6.88779
 30
0.0
 11
-37.38975
 21
-6.88779
 31
0.0
  0
LINE
  5
248
  8
GUIDE
 10
-37.38975
 20
-7.18779
 30
0.0
 11
-29.38975
 21
-7.18779
 31
0.0
  0
LINE
  5
249
  8
GUIDE
 10
-37.38975
 20
-6.88779
 30
0.0
 11
-37.38975
 21
-7.18779
 31
0.0
  0
LINE
  5
24A
  8
GUIDE
 10
-29.38975
 20
-7.18779
 30
0.0
 11
-29.38975
 21
-6.88779
 31
0.0
  0
LINE
  5
24B
  8
GUIDE
 10
-29.38975
 20
2.31221
 30
0.0
 11
-37.38975
 21
2.31221
 31
0.0
  0
LINE
  5
24C
  8
GUIDE
 10
-40.18975
 20
2.31221
 30
0.0
 11
-26.58975
 21
2.31221
 31
0.0
  0
LINE
  5
24D
  8
GUIDE
 10
-40.18975
 20
8.91221
 30
0.0
 11
-40.18975
 21
2.31221
 31
0.0
  0
LINE
  5
24E
  8
GUIDE
 10
-26.58975
 20
2.31221
 30
0.0
 11
-26.58975
 21
8.91221
 31
0.0
  0
POLYLINE
  5
24F
  8
GUIDE
 66
     1
 10
0.0
 20
0.0
 30
0.0
 70
     1
  0
VERTEX
  5
4FE
  8
GUIDE
 10
-1.08975
 20
0.01221
 30
0.0
  0
VERTEX
  5
4FF
  8
GUIDE
 10
-1.08975
 20
9.212210000000001
 30
0.0
  0
VERTEX
  5
500
  8
GUIDE
 10
6.91025
 20
9.212210000000001
 30
0.0
  0
VERTEX
  5
501
  8
GUIDE
 10
6.91025
 20
0.01221
 30
0.0
  0
SEQEND
  5
677
  8
GUIDE
  0
POLYLINE
  5
255
  8
GUIDE
 66
     1
 10
0.0
 20
0.0
 30
0.0
 70
     1
  0
VERTEX
  5
503
  8
GUIDE
 10
-3.88975
 20
-6.58779
 30
0.0
  0
VERTEX
  5
504
  8
GUIDE
 10
-3.88975
 20
0.01221
 30
0.0
  0
VERTEX
  5
505
  8
GUIDE
 10
9.71025
 20
0.01221
 30
0.0
  0
VERTEX
  5
506
  8
GUIDE
 10
9.71025
 20
-6.58779
 30
0.0
  0
SEQEND
  5
678
  8
GUIDE
  0
POLYLINE
  5
25B
  8
GUIDE
 66
     1
 10
0.0
 20
0.0
 30
0.0
 70
     1
  0
VERTEX
  5
508
  8
GUIDE
 10
-1.08975
 20
-16.08779
 30
0.0
  0
VERTEX
  5
509
  8
GUIDE
 10
-1.08975
 20
-6.88779
 30
0.0
  0
VERTEX
  5
50A
  8
GUIDE
 10
6.91025
 20
-6.88779
 30
0.0
  0
VERTEX
  5
50B
  8
GUIDE
 10
6.91025
 20
-16.08779
 30
0.0
  0
SEQEND
  5
679
  8
GUIDE
  0
POLYLINE
  5
261
  8
GUIDE
 66
     1
 10
0.0
 20
0.0
 30
0.0
 70
     1
  0
VERTEX
  5
50D
  8
GUIDE
 10
-3.88975
 20
-22.68779
 30
0.0
  0
VERTEX
  5
50E
  8
GUIDE
 10
-3.88975
 20
-16.08779
 30
0.0
  0
VERTEX
  5
50F
  8
GUIDE
 10
9.71025
 20
-16.08779
 30
0.0
  0
VERTEX
  5
510
  8
GUIDE
 10
9.71025
 20
-22.68779
 30
0.0
  0
SEQEND
  5
67A
  8
GUIDE
  0
POLYLINE
  5
267
  8
GUIDE
 66
     1
 10
0.0
 20
0.0
 30
0.0
 70
     1
  0
VERTEX
  5
512
  8
GUIDE
 10
-1.08975
 20
-6.88779
 30
0.0
  0
VERTEX
  5
513
  8
GUIDE
 10
-1.08975
 20
-6.58779
 30
0.0
  0
VERTEX
  5
514
  8
GUIDE
 10
6.91025
 20
-6.58779
 30
0.0
  0
VERTEX
  5
515
  8
GUIDE
 10
6.91025
 20
-6.88779
 30
0.0
  0
SEQEND
  5
67B
  8
GUIDE
  0
POLYLINE
  5
26D
  8
GUIDE
 66
     1
 10
0.0
 20
0.0
 30
0.0
 70
     1
  0
VERTEX
  5
517
  8
GUIDE
 10
-25.28975
 20
-16.08779
 30
0.0
  0
VERTEX
  5
518
  8
GUIDE
 10
-25.28975
 20
-6.88779
 30
0.0
  0
VERTEX
  5
519
  8
GUIDE
 10
-17.28975
 20
-6.88779
 30
0.0
  0
VERTEX
  5
51A
  8
GUIDE
 10
-17.28975
 20
-16.08779
 30
0.0
  0
SEQEND
  5
67C
  8
GUIDE
  0
LINE
  5
273
  8
GUIDE
 10
-2.38975
 20
-13.78779
 30
0.0
 11
-2.38975
 21
-7.18779
 31
0.0
  0
LINE
  5
274
  8
GUIDE
 10
-15.98975
 20
-7.18779
 30
0.0
 11
-15.98975
 21
-13.78779
 31
0.0
  0
LINE
  5
275
  8
GUIDE
 10
-5.18975
 20
-13.78779
 30
0.0
 11
-13.18975
 21
-13.78779
 31
0.0
  0
LINE
  5
276
  8
GUIDE
 10
-15.98975
 20
-13.78779
 30
0.0
 11
-2.38975
 21
-13.78779
 31
0.0
  0
LINE
  5
277
  8
GUIDE
 10
-13.18975
 20
-13.78779
 30
0.0
 11
-13.18975
 21
-22.98779
 31
0.0
  0
LINE
  5
278
  8
GUIDE
 10
-5.18975
 20
-22.98779
 30
0.0
 11
-5.18975
 21
-13.78779
 31
0.0
  0
LINE
  5
279
  8
GUIDE
 10
-2.38975
 20
-7.18779
 30
0.0
 11
-15.98975
 21
-7.18779
 31
0.0
  0
LINE
  5
27A
  8
GUIDE
 10
-5.18975
 20
2.31221
 30
0.0
 11
-13.18975
 21
2.31221
 31
0.0
  0
LINE
  5
27B
  8
GUIDE
 10
-13.18975
 20
-6.88779
 30
0.0
 11
-5.18975
 21
-6.88779
 31
0.0
  0
LINE
  5
27C
  8
GUIDE
 10
-15.98975
 20
2.31221
 30
0.0
 11
-2.38975
 21
2.31221
 31
0.0
  0
LINE
  5
27D
  8
GUIDE
 10
-5.18975
 20
-6.88779
 30
0.0
 11
-13.18975
 21
-6.88779
 31
0.0
  0
LINE
  5
27E
  8
GUIDE
 10
-13.18975
 20
-7.18779
 30
0.0
 11
-5.18975
 21
-7.18779
 31
0.0
  0
POLYLINE
  5
27F
  8
GUIDE
 66
     1
 10
0.0
 20
0.0
 30
0.0
 70
     1
  0
VERTEX
  5
51C
  8
GUIDE
 10
-25.28975
 20
0.01221
 30
0.0
  0
VERTEX
  5
51D
  8
GUIDE
 10
-25.28975
 20
9.212210000000001
 30
0.0
  0
VERTEX
  5
51E
  8
GUIDE
 10
-17.28975
 20
9.212210000000001
 30
0.0
  0
VERTEX
  5
51F
  8
GUIDE
 10
-17.28975
 20
0.01221
 30
0.0
  0
SEQEND
  5
67D
  8
GUIDE
  0
LINE
  5
285
  8
GUIDE
 10
-13.18975
 20
2.31221
 30
0.0
 11
-13.18975
 21
-6.88779
 31
0.0
  0
POLYLINE
  5
286
  8
GUIDE
 66
     1
 10
0.0
 20
0.0
 30
0.0
 70
     1
  0
VERTEX
  5
521
  8
GUIDE
 10
-25.28975
 20
-6.88779
 30
0.0
  0
VERTEX
  5
522
  8
GUIDE
 10
-25.28975
 20
-6.58779
 30
0.0
  0
VERTEX
  5
523
  8
GUIDE
 10
-17.28975
 20
-6.58779
 30
0.0
  0
VERTEX
  5
524
  8
GUIDE
 10
-17.28975
 20
-6.88779
 30
0.0
  0
SEQEND
  5
67E
  8
GUIDE
  0
LINE
  5
28C
  8
GUIDE
 10
-13.18975
 20
-6.88779
 30
0.0
 11
-13.18975
 21
-7.18779
 31
0.0
  0
LINE
  5
28D
  8
GUIDE
 10
-15.98975
 20
8.91221
 30
0.0
 11
-15.98975
 21
2.31221
 31
0.0
  0
LINE
  5
28E
  8
GUIDE
 10
-5.18975
 20
-6.88779
 30
0.0
 11
-5.18975
 21
2.31221
 31
0.0
  0
LINE
  5
28F
  8
GUIDE
 10
-5.18975
 20
-7.18779
 30
0.0
 11
-5.18975
 21
-6.88779
 31
0.0
  0
LINE
  5
290
  8
GUIDE
 10
-2.38975
 20
2.31221
 30
0.0
 11
-2.38975
 21
8.91221
 31
0.0
  0
LINE
  5
291
  8
GUIDE
 10
8.21025
 20
-7.18779
 30
0.0
 11
8.21025
 21
-13.78779
 31
0.0
  0
LINE
  5
292
  8
GUIDE
 10
8.21025
 20
-13.78779
 30
0.0
 11
21.81025
 21
-13.78779
 31
0.0
  0
LINE
  5
293
  8
GUIDE
 10
19.01025
 20
-13.78779
 30
0.0
 11
11.01025
 21
-13.78779
 31
0.0
  0
LINE
  5
294
  8
GUIDE
 10
11.01025
 20
-13.78779
 30
0.0
 11
11.01025
 21
-22.98779
 31
0.0
  0
LINE
  5
295
  8
GUIDE
 10
19.01025
 20
-22.98779
 30
0.0
 11
19.01025
 21
-13.78779
 31
0.0
  0
LINE
  5
296
  8
GUIDE
 10
21.81025
 20
-7.18779
 30
0.0
 11
8.21025
 21
-7.18779
 31
0.0
  0
LINE
  5
297
  8
GUIDE
 10
8.21025
 20
2.31221
 30
0.0
 11
21.81025
 21
2.31221
 31
0.0
  0
LINE
  5
298
  8
GUIDE
 10
19.01025
 20
-6.88779
 30
0.0
 11
19.01025
 21
2.31221
 31
0.0
  0
LINE
  5
299
  8
GUIDE
 10
11.01025
 20
2.31221
 30
0.0
 11
11.01025
 21
-6.88779
 31
0.0
  0
LINE
  5
29A
  8
GUIDE
 10
11.01025
 20
-6.88779
 30
0.0
 11
19.01025
 21
-6.88779
 31
0.0
  0
LINE
  5
29B
  8
GUIDE
 10
19.01025
 20
-6.88779
 30
0.0
 11
11.01025
 21
-6.88779
 31
0.0
  0
LINE
  5
29C
  8
GUIDE
 10
11.01025
 20
-7.18779
 30
0.0
 11
19.01025
 21
-7.18779
 31
0.0
  0
LINE
  5
29D
  8
GUIDE
 10
11.01025
 20
-6.88779
 30
0.0
 11
11.01025
 21
-7.18779
 31
0.0
  0
LINE
  5
29E
  8
GUIDE
 10
19.01025
 20
-7.18779
 30
0.0
 11
19.01025
 21
-6.88779
 31
0.0
  0
LINE
  5
29F
  8
GUIDE
 10
19.01025
 20
2.31221
 30
0.0
 11
11.01025
 21
2.31221
 31
0.0
  0
LINE
  5
2A0
  8
GUIDE
 10
8.21025
 20
8.91221
 30
0.0
 11
8.21025
 21
2.31221
 31
0.0
  0
LINE
  5
2A1
  8
GUIDE
 10
-61.48975
 20
-22.98779
 30
0.0
 11
-53.48975
 21
-22.98779
 31
0.0
  0
POLYLINE
  5
2A2
  8
GUIDE
 66
     1
 10
0.0
 20
0.0
 30
0.0
 70
     1
  0
VERTEX
  5
526
  8
GUIDE
 10
-73.58975
 20
-22.98779
 30
0.0
  0
VERTEX
  5
527
  8
GUIDE
 10
-73.58975
 20
-22.68779
 30
0.0
  0
VERTEX
  5
528
  8
GUIDE
 10
-65.58975
 20
-22.68779
 30
0.0
  0
VERTEX
  5
529
  8
GUIDE
 10
-65.58975
 20
-22.98779
 30
0.0
  0
SEQEND
  5
67F
  8
GUIDE
  0
POLYLINE
  5
2A8
  8
GUIDE
 66
     1
 10
0.0
 20
0.0
 30
0.0
 70
     1
  0
VERTEX
  5
52B
  8
GUIDE
 10
-49.48975
 20
-22.98779
 30
0.0
  0
VERTEX
  5
52C
  8
GUIDE
 10
-49.48975
 20
-22.68779
 30
0.0
  0
VERTEX
  5
52D
  8
GUIDE
 10
-41.48975
 20
-22.68779
 30
0.0
  0
VERTEX
  5
52E
  8
GUIDE
 10
-41.48975
 20
-22.98779
 30
0.0
  0
SEQEND
  5
680
  8
GUIDE
  0
LINE
  5
2AE
  8
GUIDE
 10
-37.38975
 20
-22.98779
 30
0.0
 11
-29.38975
 21
-22.98779
 31
0.0
  0
POLYLINE
  5
2AF
  8
GUIDE
 66
     1
 10
0.0
 20
0.0
 30
0.0
 70
     1
  0
VERTEX
  5
530
  8
GUIDE
 10
-1.08975
 20
-22.98779
 30
0.0
  0
VERTEX
  5
531
  8
GUIDE
 10
-1.08975
 20
-22.68779
 30
0.0
  0
VERTEX
  5
532
  8
GUIDE
 10
6.91025
 20
-22.68779
 30
0.0
  0
VERTEX
  5
533
  8
GUIDE
 10
6.91025
 20
-22.98779
 30
0.0
  0
SEQEND
  5
681
  8
GUIDE
  0
LINE
  5
2B5
  8
GUIDE
 10
-13.18975
 20
-22.98779
 30
0.0
 11
-5.18975
 21
-22.98779
 31
0.0
  0
POLYLINE
  5
2B6
  8
GUIDE
 66
     1
 10
0.0
 20
0.0
 30
0.0
 70
     1
  0
VERTEX
  5
535
  8
GUIDE
 10
-25.28975
 20
-22.98779
 30
0.0
  0
VERTEX
  5
536
  8
GUIDE
 10
-25.28975
 20
-22.68779
 30
0.0
  0
VERTEX
  5
537
  8
GUIDE
 10
-17.28975
 20
-22.68779
 30
0.0
  0
VERTEX
  5
538
  8
GUIDE
 10
-17.28975
 20
-22.98779
 30
0.0
  0
SEQEND
  5
682
  8
GUIDE
  0
LINE
  5
2BC
  8
GUIDE
 10
11.01025
 20
-22.98779
 30
0.0
 11
19.01025
 21
-22.98779
 31
0.0
  0
LINE
  5
2BD
  8
GUIDE
 10
-59.98975
 20
9.212210000000001
 30
0.0
 11
-54.98975
 21
9.212210000000001
 31
0.0
  0
LINE
  5
2BE
  8
GUIDE
 10
-53.48975
 20
9.212210000000001
 30
0.0
 11
-61.48975
 21
9.212210000000001
 31
0.0
  0
LINE
  5
2BF
  8
GUIDE
 10
-61.48975
 20
8.91221
 30
0.0
 11
-53.48975
 21
8.91221
 31
0.0
  0
LINE
  5
2C0
  8
GUIDE
 10
-50.68975
 20
8.91221
 30
0.0
 11
-64.28975
 21
8.91221
 31
0.0
  0
LINE
  5
2C1
  8
GUIDE
 10
-61.48975
 20
9.212210000000001
 30
0.0
 11
-61.48975
 21
8.91221
 31
0.0
  0
LINE
  5
2C2
  8
GUIDE
 10
-53.48975
 20
8.91221
 30
0.0
 11
-53.48975
 21
9.212210000000001
 31
0.0
  0
LINE
  5
2C3
  8
GUIDE
 10
-35.88975
 20
9.212210000000001
 30
0.0
 11
-30.88975
 21
9.212210000000001
 31
0.0
  0
LINE
  5
2C4
  8
GUIDE
 10
-29.38975
 20
9.212210000000001
 30
0.0
 11
-37.38975
 21
9.212210000000001
 31
0.0
  0
LINE
  5
2C5
  8
GUIDE
 10
-37.38975
 20
8.91221
 30
0.0
 11
-29.38975
 21
8.91221
 31
0.0
  0
LINE
  5
2C6
  8
GUIDE
 10
-26.58975
 20
8.91221
 30
0.0
 11
-40.18975
 21
8.91221
 31
0.0
  0
LINE
  5
2C7
  8
GUIDE
 10
-37.38975
 20
9.212210000000001
 30
0.0
 11
-37.38975
 21
8.91221
 31
0.0
  0
LINE
  5
2C8
  8
GUIDE
 10
-29.38975
 20
8.91221
 30
0.0
 11
-29.38975
 21
9.212210000000001
 31
0.0
  0
LINE
  5
2C9
  8
GUIDE
 10
-11.68975
 20
9.212210000000001
 30
0.0
 11
-6.68975
 21
9.212210000000001
 31
0.0
  0
LINE
  5
2CA
  8
GUIDE
 10
-5.18975
 20
9.212210000000001
 30
0.0
 11
-13.18975
 21
9.212210000000001
 31
0.0
  0
LINE
  5
2CB
  8
GUIDE
 10
-13.18975
 20
8.91221
 30
0.0
 11
-5.18975
 21
8.91221
 31
0.0
  0
LINE
  5
2CC
  8
GUIDE
 10
-2.38975
 20
8.91221
 30
0.0
 11
-15.98975
 21
8.91221
 31
0.0
  0
LINE
  5
2CD
  8
GUIDE
 10
-13.18975
 20
9.212210000000001
 30
0.0
 11
-13.18975
 21
8.91221
 31
0.0
  0
LINE
  5
2CE
  8
GUIDE
 10
-5.18975
 20
8.91221
 30
0.0
 11
-5.18975
 21
9.212210000000001
 31
0.0
  0
LINE
  5
2CF
  8
GUIDE
 10
12.51025
 20
9.212210000000001
 30
0.0
 11
17.51025
 21
9.212210000000001
 31
0.0
  0
LINE
  5
2D0
  8
GUIDE
 10
19.01025
 20
9.212210000000001
 30
0.0
 11
11.01025
 21
9.212210000000001
 31
0.0
  0
LINE
  5
2D1
  8
GUIDE
 10
11.01025
 20
8.91221
 30
0.0
 11
19.01025
 21
8.91221
 31
0.0
  0
LINE
  5
2D2
  8
GUIDE
 10
11.01025
 20
9.212210000000001
 30
0.0
 11
11.01025
 21
8.91221
 31
0.0
  0
LINE
  5
2D3
  8
GUIDE
 10
19.01025
 20
8.91221
 30
0.0
 11
19.01025
 21
9.212210000000001
 31
0.0
  0
LINE
  5
2D4
  8
GUIDE
 10
21.81025
 20
8.91221
 30
0.0
 11
8.21025
 21
8.91221
 31
0.0
  0
LINE
  5
2D5
  8
GUIDE
 10
21.81025
 20
2.31221
 30
0.0
 11
21.81025
 21
8.91221
 31
0.0
  0
LINE
  5
2D6
  8
GUIDE
 10
21.81025
 20
-13.78779
 30
0.0
 11
21.81025
 21
-7.18779
 31
0.0
  0
POLYLINE
  5
2D7
  8
GUIDE
 66
     1
 10
0.0
 20
0.0
 30
0.0
 70
     1
  0
VERTEX
  5
53A
  8
GUIDE
 10
63.98975
 20
40.61221
 30
0.0
  0
VERTEX
  5
53B
  8
GUIDE
 10
63.98975
 20
34.01221
 30
0.0
  0
VERTEX
  5
53C
  8
GUIDE
 10
77.58975
 20
34.01221
 30
0.0
  0
VERTEX
  5
53D
  8
GUIDE
 10
77.58975
 20
40.61221
 30
0.0
  0
SEQEND
  5
683
  8
GUIDE
  0
POLYLINE
  5
2DD
  8
GUIDE
 66
     1
 10
0.0
 20
0.0
 30
0.0
 70
     1
  0
VERTEX
  5
53F
  8
GUIDE
 10
68.28975
 20
40.91221
 30
0.0
  0
VERTEX
  5
540
  8
GUIDE
 10
68.28975
 20
41.71221
 30
0.0
  0
VERTEX
  5
541
  8
GUIDE
 10
73.28975
 20
41.71221
 30
0.0
  0
VERTEX
  5
542
  8
GUIDE
 10
73.28975
 20
40.91221
 30
0.0
  0
SEQEND
  5
684
  8
GUIDE
  0
POLYLINE
  5
2E3
  8
GUIDE
 66
     1
 10
0.0
 20
0.0
 30
0.0
 70
     1
  0
VERTEX
  5
544
  8
GUIDE
 10
66.78975
 20
40.91221
 30
0.0
  0
VERTEX
  5
545
  8
GUIDE
 10
66.78975
 20
40.61221
 30
0.0
  0
VERTEX
  5
546
  8
GUIDE
 10
74.78975
 20
40.61221
 30
0.0
  0
VERTEX
  5
547
  8
GUIDE
 10
74.78975
 20
40.91221
 30
0.0
  0
SEQEND
  5
685
  8
GUIDE
  0
POLYLINE
  5
2E9
  8
GUIDE
 66
     1
 10
0.0
 20
0.0
 30
0.0
 70
     1
  0
VERTEX
  5
549
  8
GUIDE
 10
68.28975
 20
-23.78779
 30
0.0
  0
VERTEX
  5
54A
  8
GUIDE
 10
68.28975
 20
-23.48779
 30
0.0
  0
VERTEX
  5
54B
  8
GUIDE
 10
73.28975
 20
-23.48779
 30
0.0
  0
VERTEX
  5
54C
  8
GUIDE
 10
73.28975
 20
-23.78779
 30
0.0
  0
SEQEND
  5
686
  8
GUIDE
  0
POLYLINE
  5
2EF
  8
GUIDE
 66
     1
 10
0.0
 20
0.0
 30
0.0
 70
     1
  0
VERTEX
  5
54E
  8
GUIDE
 10
63.98975
 20
24.51221
 30
0.0
  0
VERTEX
  5
54F
  8
GUIDE
 10
63.98975
 20
17.91221
 30
0.0
  0
VERTEX
  5
550
  8
GUIDE
 10
77.58975
 20
17.91221
 30
0.0
  0
VERTEX
  5
551
  8
GUIDE
 10
77.58975
 20
24.51221
 30
0.0
  0
SEQEND
  5
687
  8
GUIDE
  0
POLYLINE
  5
2F5
  8
GUIDE
 66
     1
 10
0.0
 20
0.0
 30
0.0
 70
     1
  0
VERTEX
  5
553
  8
GUIDE
 10
66.78975
 20
24.81221
 30
0.0
  0
VERTEX
  5
554
  8
GUIDE
 10
66.78975
 20
24.51221
 30
0.0
  0
VERTEX
  5
555
  8
GUIDE
 10
74.78975
 20
24.51221
 30
0.0
  0
VERTEX
  5
556
  8
GUIDE
 10
74.78975
 20
24.81221
 30
0.0
  0
SEQEND
  5
688
  8
GUIDE
  0
POLYLINE
  5
2FB
  8
GUIDE
 66
     1
 10
0.0
 20
0.0
 30
0.0
 70
     1
  0
VERTEX
  5
558
  8
GUIDE
 10
66.78975
 20
17.91221
 30
0.0
  0
VERTEX
  5
559
  8
GUIDE
 10
66.78975
 20
8.712210000000001
 30
0.0
  0
VERTEX
  5
55A
  8
GUIDE
 10
74.78975
 20
8.712210000000001
 30
0.0
  0
VERTEX
  5
55B
  8
GUIDE
 10
74.78975
 20
17.91221
 30
0.0
  0
SEQEND
  5
689
  8
GUIDE
  0
POLYLINE
  5
301
  8
GUIDE
 66
     1
 10
0.0
 20
0.0
 30
0.0
 70
     1
  0
VERTEX
  5
55D
  8
GUIDE
 10
66.78975
 20
34.01221
 30
0.0
  0
VERTEX
  5
55E
  8
GUIDE
 10
66.78975
 20
24.81221
 30
0.0
  0
VERTEX
  5
55F
  8
GUIDE
 10
74.78975
 20
24.81221
 30
0.0
  0
VERTEX
  5
560
  8
GUIDE
 10
74.78975
 20
34.01221
 30
0.0
  0
SEQEND
  5
68A
  8
GUIDE
  0
LINE
  5
307
  8
GUIDE
 10
60.98975
 20
-28.03779
 30
0.0
 11
74.58975
 21
-28.03779
 31
0.0
  0
POLYLINE
  5
308
  8
GUIDE
 66
     1
 10
0.0
 20
0.0
 30
0.0
 70
     1
  0
VERTEX
  5
562
  8
GUIDE
 10
66.78975
 20
-14.28779
 30
0.0
  0
VERTEX
  5
563
  8
GUIDE
 10
66.78975
 20
-23.48779
 30
0.0
  0
VERTEX
  5
564
  8
GUIDE
 10
74.78975
 20
-23.48779
 30
0.0
  0
VERTEX
  5
565
  8
GUIDE
 10
74.78975
 20
-14.28779
 30
0.0
  0
SEQEND
  5
68B
  8
GUIDE
  0
POLYLINE
  5
30E
  8
GUIDE
 66
     1
 10
0.0
 20
0.0
 30
0.0
 70
     1
  0
VERTEX
  5
567
  8
GUIDE
 10
66.78975
 20
-7.38779
 30
0.0
  0
VERTEX
  5
568
  8
GUIDE
 10
66.78975
 20
-7.68779
 30
0.0
  0
VERTEX
  5
569
  8
GUIDE
 10
74.78975
 20
-7.68779
 30
0.0
  0
VERTEX
  5
56A
  8
GUIDE
 10
74.78975
 20
-7.38779
 30
0.0
  0
SEQEND
  5
68C
  8
GUIDE
  0
POLYLINE
  5
314
  8
GUIDE
 66
     1
 10
0.0
 20
0.0
 30
0.0
 70
     1
  0
VERTEX
  5
56C
  8
GUIDE
 10
63.98975
 20
-7.68779
 30
0.0
  0
VERTEX
  5
56D
  8
GUIDE
 10
63.98975
 20
-14.28779
 30
0.0
  0
VERTEX
  5
56E
  8
GUIDE
 10
77.58975
 20
-14.28779
 30
0.0
  0
VERTEX
  5
56F
  8
GUIDE
 10
77.58975
 20
-7.68779
 30
0.0
  0
SEQEND
  5
68D
  8
GUIDE
  0
POLYLINE
  5
31A
  8
GUIDE
 66
     1
 10
0.0
 20
0.0
 30
0.0
 70
     1
  0
VERTEX
  5
571
  8
GUIDE
 10
66.78975
 20
1.81221
 30
0.0
  0
VERTEX
  5
572
  8
GUIDE
 10
66.78975
 20
-7.38779
 30
0.0
  0
VERTEX
  5
573
  8
GUIDE
 10
74.78975
 20
-7.38779
 30
0.0
  0
VERTEX
  5
574
  8
GUIDE
 10
74.78975
 20
1.81221
 30
0.0
  0
SEQEND
  5
68E
  8
GUIDE
  0
POLYLINE
  5
320
  8
GUIDE
 66
     1
 10
0.0
 20
0.0
 30
0.0
 70
     1
  0
VERTEX
  5
576
  8
GUIDE
 10
63.98975
 20
8.41221
 30
0.0
  0
VERTEX
  5
577
  8
GUIDE
 10
63.98975
 20
1.81221
 30
0.0
  0
VERTEX
  5
578
  8
GUIDE
 10
77.58975
 20
1.81221
 30
0.0
  0
VERTEX
  5
579
  8
GUIDE
 10
77.58975
 20
8.41221
 30
0.0
  0
SEQEND
  5
68F
  8
GUIDE
  0
POLYLINE
  5
326
  8
GUIDE
 66
     1
 10
0.0
 20
0.0
 30
0.0
 70
     1
  0
VERTEX
  5
57B
  8
GUIDE
 10
66.78975
 20
8.712210000000001
 30
0.0
  0
VERTEX
  5
57C
  8
GUIDE
 10
66.78975
 20
8.41221
 30
0.0
  0
VERTEX
  5
57D
  8
GUIDE
 10
74.78975
 20
8.41221
 30
0.0
  0
VERTEX
  5
57E
  8
GUIDE
 10
74.78975
 20
8.712210000000001
 30
0.0
  0
SEQEND
  5
690
  8
GUIDE
  0
ARC
  5
32C
  8
GUIDE
 10
73.35014
 20
-25.00448
 30
0.0
 40
1.24006
 50
358.460831
 51
78.85878000000001
  0
LINE
  5
32D
  8
GUIDE
 10
74.58975
 20
-25.03779
 30
0.0
 11
74.58975
 21
-28.03779
 31
0.0
  0
LINE
  5
32E
  8
GUIDE
 10
74.58975
 20
45.96221
 30
0.0
 11
74.58975
 21
42.71221
 31
0.0
  0
ARC
  5
32F
  8
GUIDE
 10
73.58975
 20
42.71221
 30
0.0
 40
1.0
 50
270.0
 51
0.0
  0
LINE
  5
330
  8
GUIDE
 10
73.58975
 20
41.71221
 30
0.0
 11
63.98975
 21
41.71221
 31
0.0
  0
ARC
  5
331
  8
GUIDE
 10
63.98975
 20
40.71221
 30
0.0
 40
1.0
 50
90.0
 51
180.0
  0
LINE
  5
332
  8
GUIDE
 10
62.98975
 20
40.71221
 30
0.0
 11
62.98975
 21
-22.78779
 31
0.0
  0
ARC
  5
333
  8
GUIDE
 10
63.98975
 20
-22.78779
 30
0.0
 40
1.0
 50
180.0
 51
270.0
  0
LINE
  5
334
  8
GUIDE
 10
63.98975
 20
-23.78779
 30
0.0
 11
73.58975
 21
-23.78779
 31
0.0
  0
LINE
  5
335
  8
GUIDE
 10
66.78975
 20
-22.68779
 30
0.0
 11
63.98975
 21
-22.68779
 31
0.0
  0
POLYLINE
  5
336
  8
GUIDE
 66
     1
 10
0.0
 20
0.0
 30
0.0
  0
VERTEX
  5
580
  8
GUIDE
 10
63.98975
 20
-22.68779
 30
0.0
  0
VERTEX
  5
581
  8
GUIDE
 10
63.98975
 20
-16.08779
 30
0.0
  0
VERTEX
  5
582
  8
GUIDE
 10
66.78975
 20
-16.08779
 30
0.0
  0
SEQEND
  5
691
  8
GUIDE
  0
POLYLINE
  5
33B
  8
GUIDE
 66
     1
 10
0.0
 20
0.0
 30
0.0
  0
VERTEX
  5
584
  8
GUIDE
 10
74.78975
 20
-16.08779
 30
0.0
  0
VERTEX
  5
585
  8
GUIDE
 10
77.58975
 20
-16.08779
 30
0.0
  0
VERTEX
  5
586
  8
GUIDE
 10
77.58975
 20
-22.68779
 30
0.0
  0
VERTEX
  5
587
  8
GUIDE
 10
74.78975
 20
-22.68779
 30
0.0
  0
SEQEND
  5
692
  8
GUIDE
  0
LINE
  5
341
  8
GUIDE
 10
66.78975
 20
-6.58779
 30
0.0
 11
63.98975
 21
-6.58779
 31
0.0
  0
POLYLINE
  5
342
  8
GUIDE
 66
     1
 10
0.0
 20
0.0
 30
0.0
  0
VERTEX
  5
589
  8
GUIDE
 10
63.98975
 20
-6.58779
 30
0.0
  0
VERTEX
  5
58A
  8
GUIDE
 10
63.98975
 20
0.01221
 30
0.0
  0
VERTEX
  5
58B
  8
GUIDE
 10
66.78975
 20
0.01221
 30
0.0
  0
SEQEND
  5
693
  8
GUIDE
  0
POLYLINE
  5
347
  8
GUIDE
 66
     1
 10
0.0
 20
0.0
 30
0.0
  0
VERTEX
  5
58D
  8
GUIDE
 10
74.78975
 20
0.01221
 30
0.0
  0
VERTEX
  5
58E
  8
GUIDE
 10
77.58975
 20
0.01221
 30
0.0
  0
VERTEX
  5
58F
  8
GUIDE
 10
77.58975
 20
-6.58779
 30
0.0
  0
VERTEX
  5
590
  8
GUIDE
 10
74.78975
 20
-6.58779
 30
0.0
  0
SEQEND
  5
694
  8
GUIDE
  0
LINE
  5
34D
  8
GUIDE
 10
66.78975
 20
9.51221
 30
0.0
 11
63.98975
 21
9.51221
 31
0.0
  0
POLYLINE
  5
34E
  8
GUIDE
 66
     1
 10
0.0
 20
0.0
 30
0.0
  0
VERTEX
  5
592
  8
GUIDE
 10
63.98975
 20
9.51221
 30
0.0
  0
VERTEX
  5
593
  8
GUIDE
 10
63.98975
 20
16.11221
 30
0.0
  0
VERTEX
  5
594
  8
GUIDE
 10
66.78975
 20
16.11221
 30
0.0
  0
SEQEND
  5
695
  8
GUIDE
  0
POLYLINE
  5
353
  8
GUIDE
 66
     1
 10
0.0
 20
0.0
 30
0.0
  0
VERTEX
  5
596
  8
GUIDE
 10
74.78975
 20
16.11221
 30
0.0
  0
VERTEX
  5
597
  8
GUIDE
 10
77.58975
 20
16.11221
 30
0.0
  0
VERTEX
  5
598
  8
GUIDE
 10
77.58975
 20
9.51221
 30
0.0
  0
VERTEX
  5
599
  8
GUIDE
 10
74.78975
 20
9.51221
 30
0.0
  0
SEQEND
  5
696
  8
GUIDE
  0
LINE
  5
359
  8
GUIDE
 10
66.78975
 20
25.61221
 30
0.0
 11
63.98975
 21
25.61221
 31
0.0
  0
POLYLINE
  5
35A
  8
GUIDE
 66
     1
 10
0.0
 20
0.0
 30
0.0
  0
VERTEX
  5
59B
  8
GUIDE
 10
63.98975
 20
25.61221
 30
0.0
  0
VERTEX
  5
59C
  8
GUIDE
 10
63.98975
 20
32.21221
 30
0.0
  0
VERTEX
  5
59D
  8
GUIDE
 10
66.78975
 20
32.21221
 30
0.0
  0
SEQEND
  5
697
  8
GUIDE
  0
POLYLINE
  5
35F
  8
GUIDE
 66
     1
 10
0.0
 20
0.0
 30
0.0
  0
VERTEX
  5
59F
  8
GUIDE
 10
74.78975
 20
32.21221
 30
0.0
  0
VERTEX
  5
5A0
  8
GUIDE
 10
77.58975
 20
32.21221
 30
0.0
  0
VERTEX
  5
5A1
  8
GUIDE
 10
77.58975
 20
25.61221
 30
0.0
  0
VERTEX
  5
5A2
  8
GUIDE
 10
74.78975
 20
25.61221
 30
0.0
  0
SEQEND
  5
698
  8
GUIDE
  0
LINE
  5
365
  8
GUIDE
 10
60.98975
 20
-28.03779
 30
0.0
 11
47.38975
 21
-28.03779
 31
0.0
  0
LINE
  5
366
  8
GUIDE
 10
58.98975
 20
40.71221
 30
0.0
 11
58.98975
 21
-22.78779
 31
0.0
  0
POLYLINE
  5
367
  8
GUIDE
 66
     1
 10
0.0
 20
0.0
 30
0.0
 70
     1
  0
VERTEX
  5
5A4
  8
GUIDE
 10
55.18975
 20
17.91221
 30
0.0
  0
VERTEX
  5
5A5
  8
GUIDE
 10
55.18975
 20
8.712210000000001
 30
0.0
  0
VERTEX
  5
5A6
  8
GUIDE
 10
47.18975
 20
8.712210000000001
 30
0.0
  0
VERTEX
  5
5A7
  8
GUIDE
 10
47.18975
 20
17.91221
 30
0.0
  0
SEQEND
  5
699
  8
GUIDE
  0
LINE
  5
36D
  8
GUIDE
 10
57.98975
 20
-23.78779
 30
0.0
 11
48.38975
 21
-23.78779
 31
0.0
  0
POLYLINE
  5
36E
  8
GUIDE
 66
     1
 10
0.0
 20
0.0
 30
0.0
 70
     1
  0
VERTEX
  5
5A9
  8
GUIDE
 10
55.18975
 20
8.712210000000001
 30
0.0
  0
VERTEX
  5
5AA
  8
GUIDE
 10
55.18975
 20
8.41221
 30
0.0
  0
VERTEX
  5
5AB
  8
GUIDE
 10
47.18975
 20
8.41221
 30
0.0
  0
VERTEX
  5
5AC
  8
GUIDE
 10
47.18975
 20
8.712210000000001
 30
0.0
  0
SEQEND
  5
69A
  8
GUIDE
  0
POLYLINE
  5
374
  8
GUIDE
 66
     1
 10
0.0
 20
0.0
 30
0.0
 70
     1
  0
VERTEX
  5
5AE
  8
GUIDE
 10
57.98975
 20
8.41221
 30
0.0
  0
VERTEX
  5
5AF
  8
GUIDE
 10
57.98975
 20
1.81221
 30
0.0
  0
VERTEX
  5
5B0
  8
GUIDE
 10
44.38975
 20
1.81221
 30
0.0
  0
VERTEX
  5
5B1
  8
GUIDE
 10
44.38975
 20
8.41221
 30
0.0
  0
SEQEND
  5
69B
  8
GUIDE
  0
POLYLINE
  5
37A
  8
GUIDE
 66
     1
 10
0.0
 20
0.0
 30
0.0
 70
     1
  0
VERTEX
  5
5B3
  8
GUIDE
 10
55.18975
 20
1.81221
 30
0.0
  0
VERTEX
  5
5B4
  8
GUIDE
 10
55.18975
 20
-7.38779
 30
0.0
  0
VERTEX
  5
5B5
  8
GUIDE
 10
47.18975
 20
-7.38779
 30
0.0
  0
VERTEX
  5
5B6
  8
GUIDE
 10
47.18975
 20
1.81221
 30
0.0
  0
SEQEND
  5
69C
  8
GUIDE
  0
POLYLINE
  5
380
  8
GUIDE
 66
     1
 10
0.0
 20
0.0
 30
0.0
 70
     1
  0
VERTEX
  5
5B8
  8
GUIDE
 10
57.98975
 20
-7.68779
 30
0.0
  0
VERTEX
  5
5B9
  8
GUIDE
 10
57.98975
 20
-14.28779
 30
0.0
  0
VERTEX
  5
5BA
  8
GUIDE
 10
44.38975
 20
-14.28779
 30
0.0
  0
VERTEX
  5
5BB
  8
GUIDE
 10
44.38975
 20
-7.68779
 30
0.0
  0
SEQEND
  5
69D
  8
GUIDE
  0
POLYLINE
  5
386
  8
GUIDE
 66
     1
 10
0.0
 20
0.0
 30
0.0
 70
     1
  0
VERTEX
  5
5BD
  8
GUIDE
 10
55.18975
 20
-7.38779
 30
0.0
  0
VERTEX
  5
5BE
  8
GUIDE
 10
55.18975
 20
-7.68779
 30
0.0
  0
VERTEX
  5
5BF
  8
GUIDE
 10
47.18975
 20
-7.68779
 30
0.0
  0
VERTEX
  5
5C0
  8
GUIDE
 10
47.18975
 20
-7.38779
 30
0.0
  0
SEQEND
  5
69E
  8
GUIDE
  0
POLYLINE
  5
38C
  8
GUIDE
 66
     1
 10
0.0
 20
0.0
 30
0.0
 70
     1
  0
VERTEX
  5
5C2
  8
GUIDE
 10
55.18975
 20
-14.28779
 30
0.0
  0
VERTEX
  5
5C3
  8
GUIDE
 10
55.18975
 20
-23.48779
 30
0.0
  0
VERTEX
  5
5C4
  8
GUIDE
 10
47.18975
 20
-23.48779
 30
0.0
  0
VERTEX
  5
5C5
  8
GUIDE
 10
47.18975
 20
-14.28779
 30
0.0
  0
SEQEND
  5
69F
  8
GUIDE
  0
POLYLINE
  5
392
  8
GUIDE
 66
     1
 10
0.0
 20
0.0
 30
0.0
 70
     1
  0
VERTEX
  5
5C7
  8
GUIDE
 10
53.68975
 20
-23.78779
 30
0.0
  0
VERTEX
  5
5C8
  8
GUIDE
 10
53.68975
 20
-23.48779
 30
0.0
  0
VERTEX
  5
5C9
  8
GUIDE
 10
48.68975
 20
-23.48779
 30
0.0
  0
VERTEX
  5
5CA
  8
GUIDE
 10
48.68975
 20
-23.78779
 30
0.0
  0
SEQEND
  5
6A0
  8
GUIDE
  0
POLYLINE
  5
398
  8
GUIDE
 66
     1
 10
0.0
 20
0.0
 30
0.0
  0
VERTEX
  5
5CC
  8
GUIDE
 10
57.98975
 20
-22.68779
 30
0.0
  0
VERTEX
  5
5CD
  8
GUIDE
 10
57.98975
 20
-16.08779
 30
0.0
  0
VERTEX
  5
5CE
  8
GUIDE
 10
55.18975
 20
-16.08779
 30
0.0
  0
SEQEND
  5
6A1
  8
GUIDE
  0
LINE
  5
39D
  8
GUIDE
 10
55.18975
 20
-22.68779
 30
0.0
 11
57.98975
 21
-22.68779
 31
0.0
  0
ARC
  5
39E
  8
GUIDE
 10
57.98975
 20
-22.78779
 30
0.0
 40
1.0
 50
270.0
 51
0.0
  0
POLYLINE
  5
39F
  8
GUIDE
 66
     1
 10
0.0
 20
0.0
 30
0.0
  0
VERTEX
  5
5D0
  8
GUIDE
 10
57.98975
 20
-6.58779
 30
0.0
  0
VERTEX
  5
5D1
  8
GUIDE
 10
57.98975
 20
0.01221
 30
0.0
  0
VERTEX
  5
5D2
  8
GUIDE
 10
55.18975
 20
0.01221
 30
0.0
  0
SEQEND
  5
6A2
  8
GUIDE
  0
LINE
  5
3A4
  8
GUIDE
 10
55.18975
 20
-6.58779
 30
0.0
 11
57.98975
 21
-6.58779
 31
0.0
  0
POLYLINE
  5
3A5
  8
GUIDE
 66
     1
 10
0.0
 20
0.0
 30
0.0
  0
VERTEX
  5
5D4
  8
GUIDE
 10
47.18975
 20
-16.08779
 30
0.0
  0
VERTEX
  5
5D5
  8
GUIDE
 10
44.38975
 20
-16.08779
 30
0.0
  0
VERTEX
  5
5D6
  8
GUIDE
 10
44.38975
 20
-22.68779
 30
0.0
  0
VERTEX
  5
5D7
  8
GUIDE
 10
47.18975
 20
-22.68779
 30
0.0
  0
SEQEND
  5
6A3
  8
GUIDE
  0
LINE
  5
3AB
  8
GUIDE
 10
47.38975
 20
-25.03779
 30
0.0
 11
47.38975
 21
-28.03779
 31
0.0
  0
ARC
  5
3AC
  8
GUIDE
 10
48.62936
 20
-25.00448
 30
0.0
 40
1.24006
 50
101.14122
 51
181.539169
  0
POLYLINE
  5
3AD
  8
GUIDE
 66
     1
 10
0.0
 20
0.0
 30
0.0
  0
VERTEX
  5
5D9
  8
GUIDE
 10
47.18975
 20
0.01221
 30
0.0
  0
VERTEX
  5
5DA
  8
GUIDE
 10
44.38975
 20
0.01221
 30
0.0
  0
VERTEX
  5
5DB
  8
GUIDE
 10
44.38975
 20
-6.58779
 30
0.0
  0
VERTEX
  5
5DC
  8
GUIDE
 10
47.18975
 20
-6.58779
 30
0.0
  0
SEQEND
  5
6A4
  8
GUIDE
  0
LINE
  5
3B3
  8
GUIDE
 10
48.38975
 20
41.71221
 30
0.0
 11
57.98975
 21
41.71221
 31
0.0
  0
POLYLINE
  5
3B4
  8
GUIDE
 66
     1
 10
0.0
 20
0.0
 30
0.0
 70
     1
  0
VERTEX
  5
5DE
  8
GUIDE
 10
55.18975
 20
34.01221
 30
0.0
  0
VERTEX
  5
5DF
  8
GUIDE
 10
55.18975
 20
24.81221
 30
0.0
  0
VERTEX
  5
5E0
  8
GUIDE
 10
47.18975
 20
24.81221
 30
0.0
  0
VERTEX
  5
5E1
  8
GUIDE
 10
47.18975
 20
34.01221
 30
0.0
  0
SEQEND
  5
6A5
  8
GUIDE
  0
POLYLINE
  5
3BA
  8
GUIDE
 66
     1
 10
0.0
 20
0.0
 30
0.0
 70
     1
  0
VERTEX
  5
5E3
  8
GUIDE
 10
55.18975
 20
24.81221
 30
0.0
  0
VERTEX
  5
5E4
  8
GUIDE
 10
55.18975
 20
24.51221
 30
0.0
  0
VERTEX
  5
5E5
  8
GUIDE
 10
47.18975
 20
24.51221
 30
0.0
  0
VERTEX
  5
5E6
  8
GUIDE
 10
47.18975
 20
24.81221
 30
0.0
  0
SEQEND
  5
6A6
  8
GUIDE
  0
POLYLINE
  5
3C0
  8
GUIDE
 66
     1
 10
0.0
 20
0.0
 30
0.0
 70
     1
  0
VERTEX
  5
5E8
  8
GUIDE
 10
57.98975
 20
24.51221
 30
0.0
  0
VERTEX
  5
5E9
  8
GUIDE
 10
57.98975
 20
17.91221
 30
0.0
  0
VERTEX
  5
5EA
  8
GUIDE
 10
44.38975
 20
17.91221
 30
0.0
  0
VERTEX
  5
5EB
  8
GUIDE
 10
44.38975
 20
24.51221
 30
0.0
  0
SEQEND
  5
6A7
  8
GUIDE
  0
POLYLINE
  5
3C6
  8
GUIDE
 66
     1
 10
0.0
 20
0.0
 30
0.0
 70
     1
  0
VERTEX
  5
5ED
  8
GUIDE
 10
55.18975
 20
40.91221
 30
0.0
  0
VERTEX
  5
5EE
  8
GUIDE
 10
55.18975
 20
40.61221
 30
0.0
  0
VERTEX
  5
5EF
  8
GUIDE
 10
47.18975
 20
40.61221
 30
0.0
  0
VERTEX
  5
5F0
  8
GUIDE
 10
47.18975
 20
40.91221
 30
0.0
  0
SEQEND
  5
6A8
  8
GUIDE
  0
POLYLINE
  5
3CC
  8
GUIDE
 66
     1
 10
0.0
 20
0.0
 30
0.0
 70
     1
  0
VERTEX
  5
5F2
  8
GUIDE
 10
53.68975
 20
40.91221
 30
0.0
  0
VERTEX
  5
5F3
  8
GUIDE
 10
53.68975
 20
41.71221
 30
0.0
  0
VERTEX
  5
5F4
  8
GUIDE
 10
48.68975
 20
41.71221
 30
0.0
  0
VERTEX
  5
5F5
  8
GUIDE
 10
48.68975
 20
40.91221
 30
0.0
  0
SEQEND
  5
6A9
  8
GUIDE
  0
POLYLINE
  5
3D2
  8
GUIDE
 66
     1
 10
0.0
 20
0.0
 30
0.0
 70
     1
  0
VERTEX
  5
5F7
  8
GUIDE
 10
57.98975
 20
40.61221
 30
0.0
  0
VERTEX
  5
5F8
  8
GUIDE
 10
57.98975
 20
34.01221
 30
0.0
  0
VERTEX
  5
5F9
  8
GUIDE
 10
44.38975
 20
34.01221
 30
0.0
  0
VERTEX
  5
5FA
  8
GUIDE
 10
44.38975
 20
40.61221
 30
0.0
  0
SEQEND
  5
6AA
  8
GUIDE
  0
POLYLINE
  5
3D8
  8
GUIDE
 66
     1
 10
0.0
 20
0.0
 30
0.0
  0
VERTEX
  5
5FC
  8
GUIDE
 10
57.98975
 20
25.61221
 30
0.0
  0
VERTEX
  5
5FD
  8
GUIDE
 10
57.98975
 20
32.21221
 30
0.0
  0
VERTEX
  5
5FE
  8
GUIDE
 10
55.18975
 20
32.21221
 30
0.0
  0
SEQEND
  5
6AB
  8
GUIDE
  0
LINE
  5
3DD
  8
GUIDE
 10
55.18975
 20
25.61221
 30
0.0
 11
57.98975
 21
25.61221
 31
0.0
  0
POLYLINE
  5
3DE
  8
GUIDE
 66
     1
 10
0.0
 20
0.0
 30
0.0
  0
VERTEX
  5
600
  8
GUIDE
 10
57.98975
 20
9.51221
 30
0.0
  0
VERTEX
  5
601
  8
GUIDE
 10
57.98975
 20
16.11221
 30
0.0
  0
VERTEX
  5
602
  8
GUIDE
 10
55.18975
 20
16.11221
 30
0.0
  0
SEQEND
  5
6AC
  8
GUIDE
  0
LINE
  5
3E3
  8
GUIDE
 10
55.18975
 20
9.51221
 30
0.0
 11
57.98975
 21
9.51221
 31
0.0
  0
ARC
  5
3E4
  8
GUIDE
 10
57.98975
 20
40.71221
 30
0.0
 40
1.0
 50
0.0
 51
90.0
  0
POLYLINE
  5
3E5
  8
GUIDE
 66
     1
 10
0.0
 20
0.0
 30
0.0
  0
VERTEX
  5
604
  8
GUIDE
 10
47.18975
 20
32.21221
 30
0.0
  0
VERTEX
  5
605
  8
GUIDE
 10
44.38975
 20
32.21221
 30
0.0
  0
VERTEX
  5
606
  8
GUIDE
 10
44.38975
 20
25.61221
 30
0.0
  0
VERTEX
  5
607
  8
GUIDE
 10
47.18975
 20
25.61221
 30
0.0
  0
SEQEND
  5
6AD
  8
GUIDE
  0
POLYLINE
  5
3EB
  8
GUIDE
 66
     1
 10
0.0
 20
0.0
 30
0.0
  0
VERTEX
  5
609
  8
GUIDE
 10
47.18975
 20
16.11221
 30
0.0
  0
VERTEX
  5
60A
  8
GUIDE
 10
44.38975
 20
16.11221
 30
0.0
  0
VERTEX
  5
60B
  8
GUIDE
 10
44.38975
 20
9.51221
 30
0.0
  0
VERTEX
  5
60C
  8
GUIDE
 10
47.18975
 20
9.51221
 30
0.0
  0
SEQEND
  5
6AE
  8
GUIDE
  0
LINE
  5
3F1
  8
GUIDE
 10
47.38975
 20
45.96221
 30
0.0
 11
47.38975
 21
42.71221
 31
0.0
  0
ARC
  5
3F2
  8
GUIDE
 10
48.38975
 20
42.71221
 30
0.0
 40
1.0
 50
180.0
 51
270.0
  0
LINE
  5
3F3
  8
GUIDE
 10
58.31154
 20
87.57904000000001
 30
0.0
 11
55.31154
 21
87.57904000000001
 31
0.0
  0
LINE
  5
3F4
  8
GUIDE
 10
55.31154
 20
87.57904000000001
 30
0.0
 11
55.31154
 21
77.57904000000001
 31
0.0
  0
ARC
  5
3F5
  8
GUIDE
 10
56.9001
 20
82.57904000000001
 30
0.0
 40
3.5
 50
116.992554
 51
243.007431
  0
LINE
  5
3F6
  8
GUIDE
 10
67.31153999999999
 20
87.57904000000001
 30
0.0
 11
64.31153999999999
 21
87.57904000000001
 31
0.0
  0
LINE
  5
3F7
  8
GUIDE
 10
64.31153999999999
 20
87.57904000000001
 30
0.0
 11
64.31153999999999
 21
77.57904000000001
 31
0.0
  0
LINE
  5
3F8
  8
GUIDE
 10
58.31154
 20
87.57904000000001
 30
0.0
 11
58.31154
 21
77.57904000000001
 31
0.0
  0
LINE
  5
3F9
  8
GUIDE
 10
64.31153999999999
 20
85.57904000000001
 30
0.0
 11
58.31154
 21
85.57904000000001
 31
0.0
  0
ARC
  5
3FA
  8
GUIDE
 10
59.45562
 20
82.57904000000001
 30
0.0
 40
9.095050000000001
 50
329.741226
 51
30.258774
  0
LINE
  5
3FB
  8
GUIDE
 10
67.31153999999999
 20
87.57904000000001
 30
0.0
 11
67.31153999999999
 21
77.57904000000001
 31
0.0
  0
LINE
  5
3FC
  8
GUIDE
 10
55.31154
 20
77.57904000000001
 30
0.0
 11
55.31154
 21
46.07904
 31
0.0
  0
LINE
  5
3FD
  8
GUIDE
 10
55.31154
 20
77.57904000000001
 30
0.0
 11
48.71154
 21
46.07904
 31
0.0
  0
LINE
  5
3FE
  8
GUIDE
 10
64.31153999999999
 20
77.57904000000001
 30
0.0
 11
64.31153999999999
 21
46.07904
 31
0.0
  0
LINE
  5
3FF
  8
GUIDE
 10
58.31154
 20
77.57904000000001
 30
0.0
 11
58.31154
 21
46.07904
 31
0.0
  0
LINE
  5
400
  8
GUIDE
 10
67.31153999999999
 20
77.57904000000001
 30
0.0
 11
67.31153999999999
 21
46.07904
 31
0.0
  0
LINE
  5
401
  8
GUIDE
 10
67.31153999999999
 20
77.57904000000001
 30
0.0
 11
73.91154
 21
46.07904
 31
0.0
  0
LINE
  5
402
  8
GUIDE
 10
47.38975
 20
45.96221
 30
0.0
 11
74.58975
 21
45.96221
 31
0.0
  0
LINE
  5
403
  8
GUIDE
 10
-53.28975
 20
-28.03779
 30
0.0
 11
-53.28975
 21
-36.53779
 31
0.0
  0
LINE
  5
404
  8
GUIDE
 10
-2.28975
 20
-28.03779
 30
0.0
 11
-2.28975
 21
-36.53779
 31
0.0
  0
LINE
  5
405
  8
GUIDE
 10
-53.28975
 20
-36.53779
 30
0.0
 11
-2.28975
 21
-36.53779
 31
0.0
  0
LINE
  5
406
  8
GUIDE
 10
-53.28975
 20
-30.23779
 30
0.0
 11
-2.28975
 21
-30.23779
 31
0.0
  0
LINE
  5
407
  8
GUIDE
 10
-53.28975
 20
-28.03779
 30
0.0
 11
-2.28975
 21
-28.03779
 31
0.0
  0
LINE
  5
408
  8
GUIDE
 10
52.98975
 20
-36.53779
 30
0.0
 11
68.98975
 21
-36.53779
 31
0.0
  0
LINE
  5
409
  8
GUIDE
 10
52.98975
 20
-30.23779
 30
0.0
 11
52.98975
 21
-36.53779
 31
0.0
  0
LINE
  5
40A
  8
GUIDE
 10
56.33975
 20
-28.03779
 30
0.0
 11
56.33975
 21
-30.23779
 31
0.0
  0
LINE
  5
40B
  8
GUIDE
 10
68.98975
 20
-30.23779
 30
0.0
 11
68.98975
 21
-36.53779
 31
0.0
  0
LINE
  5
40C
  8
GUIDE
 10
65.63975000000001
 20
-28.03779
 30
0.0
 11
65.63975000000001
 21
-30.23779
 31
0.0
  0
LINE
  5
40D
  8
GUIDE
 10
52.98975
 20
-30.23779
 30
0.0
 11
56.33975
 21
-30.23779
 31
0.0
  0
LINE
  5
40E
  8
GUIDE
 10
65.63975000000001
 20
-30.23779
 30
0.0
 11
68.98975
 21
-30.23779
 31
0.0
  0
LINE
  5
40F
  8
GUIDE
 10
56.33975
 20
-28.03779
 30
0.0
 11
65.63975000000001
 21
-28.03779
 31
0.0
  0
LINE
  5
410
  8
AXIS
 62
     1
 10
-27.78975
 20
-66.36221000000001
 30
0.0
 11
-27.78975
 21
-78.36221000000001
 31
0.0
  0
ENDSEC
  0
EOF
