  0
SECTION
  2
HEADER
  9
$ACADVER
  1
AC1009
  9
$DWGCODEPAGE
  3
ansi_1252
  9
$INSBASE
 10
0.0
 20
0.0
 30
0.0
  9
$EXTMIN
 10
-82.05228
 20
-119.113068
 30
0.0
  9
$EXTMAX
 10
82.05228
 20
119.113068
 30
0.0
  9
$LIMMIN
 10
0.0
 20
0.0
  9
$LIMMAX
 10
12.0
 20
9.0
  9
$ORTHOMODE
 70
     0
  9
$REGENMODE
 70
     1
  9
$FILLMODE
 70
     1
  9
$QTEXTMODE
 70
     0
  9
$MIRRTEXT
 70
     1
  9
$DRAGMODE
 70
     2
  9
$LTSCALE
 40
0.864644
  9
$OSMODE
 70
    37
  9
$ATTMODE
 70
     1
  9
$TEXTSIZE
 40
0.2
  9
$TRACEWID
 40
0.05
  9
$TEXTSTYLE
  7
STANDARD
  9
$CLAYER
  8
0
  9
$CELTYPE
  6
BYBLOCK
  9
$CECOLOR
 62
   256
  9
$DIMSCALE
 40
1.0
  9
$DIMASZ
 40
0.18
  9
$DIMEXO
 40
0.0625
  9
$DIMDLI
 40
0.38
  9
$DIMRND
 40
0.0
  9
$DIMDLE
 40
0.0
  9
$DIMEXE
 40
0.18
  9
$DIMTP
 40
0.0
  9
$DIMTM
 40
0.0
  9
$DIMTXT
 40
0.18
  9
$DIMCEN
 40
0.09
  9
$DIMTSZ
 40
0.0
  9
$DIMTOL
 70
     0
  9
$DIMLIM
 70
     0
  9
$DIMTIH
 70
     1
  9
$DIMTOH
 70
     1
  9
$DIMSE1
 70
     0
  9
$DIMSE2
 70
     0
  9
$DIMTAD
 70
     0
  9
$DIMZIN
 70
     0
  9
$DIMBLK
  1

  9
$DIMASO
 70
     1
  9
$DIMSHO
 70
     1
  9
$DIMPOST
  1

  9
$DIMAPOST
  1

  9
$DIMALT
 70
     0
  9
$DIMALTD
 70
     2
  9
$DIMALTF
 40
25.4
  9
$DIMLFAC
 40
1.0
  9
$DIMTOFL
 70
     0
  9
$DIMTVP
 40
0.0
  9
$DIMTIX
 70
     0
  9
$DIMSOXD
 70
     0
  9
$DIMSAH
 70
     0
  9
$DIMBLK1
  1

  9
$DIMBLK2
  1

  9
$DIMSTYLE
  2
STANDARD
  9
$DIMCLRD
 70
     0
  9
$DIMCLRE
 70
     0
  9
$DIMCLRT
 70
     0
  9
$DIMTFAC
 40
1.0
  9
$DIMGAP
 40
0.09
  9
$LUNITS
 70
     2
  9
$LUPREC
 70
     4
  9
$SKETCHINC
 40
0.1
  9
$FILLETRAD
 40
0.5
  9
$AUNITS
 70
     0
  9
$AUPREC
 70
     0
  9
$MENU
  1
.
  9
$ELEVATION
 40
0.0
  9
$PELEVATION
 40
0.0
  9
$THICKNESS
 40
0.0
  9
$LIMCHECK
 70
     0
  9
$CHAMFERA
 40
0.5
  9
$CHAMFERB
 40
0.5
  9
$SKPOLY
 70
     0
  9
$TDCREATE
 40
2453619.496133172
  9
$TDUPDATE
 40
2453619.496133183
  9
$TDINDWG
 40
0.0000000116
  9
$TDUSRTIMER
 40
0.0000000116
  9
$USRTIMER
 70
     1
  9
$ANGBASE
 50
0.0
  9
$ANGDIR
 70
     0
  9
$PDMODE
 70
     0
  9
$PDSIZE
 40
0.0
  9
$PLINEWID
 40
0.0
  9
$COORDS
 70
     1
  9
$SPLFRAME
 70
     0
  9
$SPLINETYPE
 70
     6
  9
$SPLINESEGS
 70
     8
  9
$ATTDIA
 70
     0
  9
$ATTREQ
 70
     1
  9
$HANDLING
 70
     1
  9
$HANDSEED
  5
24B
  9
$SURFTAB1
 70
     6
  9
$SURFTAB2
 70
     6
  9
$SURFTYPE
 70
     6
  9
$SURFU
 70
     6
  9
$SURFV
 70
     6
  9
$UCSNAME
  2

  9
$UCSORG
 10
0.0
 20
0.0
 30
0.0
  9
$UCSXDIR
 10
1.0
 20
0.0
 30
0.0
  9
$UCSYDIR
 10
0.0
 20
1.0
 30
0.0
  9
$PUCSNAME
  2

  9
$PUCSORG
 10
0.0
 20
0.0
 30
0.0
  9
$PUCSXDIR
 10
1.0
 20
0.0
 30
0.0
  9
$PUCSYDIR
 10
0.0
 20
1.0
 30
0.0
  9
$USERI1
 70
     0
  9
$USERI2
 70
     0
  9
$USERI3
 70
     0
  9
$USERI4
 70
     0
  9
$USERI5
 70
     0
  9
$USERR1
 40
0.0
  9
$USERR2
 40
0.0
  9
$USERR3
 40
0.0
  9
$USERR4
 40
0.0
  9
$USERR5
 40
0.0
  9
$WORLDVIEW
 70
     1
  9
$SHADEDGE
 70
     3
  9
$SHADEDIF
 70
    70
  9
$TILEMODE
 70
     1
  9
$MAXACTVP
 70
    64
  9
$PLIMCHECK
 70
     0
  9
$PEXTMIN
 10
1.000000000000000E+20
 20
1.000000000000000E+20
 30
1.000000000000000E+20
  9
$PEXTMAX
 10
-1.000000000000000E+20
 20
-1.000000000000000E+20
 30
-1.000000000000000E+20
  9
$PLIMMIN
 10
0.0
 20
0.0
  9
$PLIMMAX
 10
12.0
 20
9.0
  9
$UNITMODE
 70
     0
  9
$VISRETAIN
 70
     1
  9
$PLINEGEN
 70
     0
  9
$PSLTSCALE
 70
     1
  0
ENDSEC
  0
SECTION
  2
TABLES
  0
TABLE
  2
VPORT
 70
     1
  0
VPORT
  2
*ACTIVE
 70
     0
 10
0.0
 20
0.0
 11
1.0
 21
1.0
 12
10.42990654205607
 22
4.5
 13
0.0
 23
0.0
 14
0.5
 24
0.5
 15
0.5
 25
0.5
 16
0.0
 26
0.0
 36
1.0
 17
0.0
 27
0.0
 37
0.0
 40
9.0
 41
1.972972972850329
 42
50.0
 43
0.0
 44
0.0
 50
0.0
 51
0.0
 71
     0
 72
   100
 73
     1
 74
     3
 75
     0
 76
     0
 77
     0
 78
     0
  0
ENDTAB
  0
TABLE
  2
LTYPE
 70
     9
  0
LTYPE
  2
CONTINUOUS
 70
     0
  3
Solid Line
 72
    65
 73
     0
 40
0.0
  0
LTYPE
  2
MCDASH1
 70
     0
  3
MiniCad+ Generated
 72
    65
 73
     4
 40
1.156519
 49
0.578259
 49
-0.28913
 49
0.0
 49
-0.28913
  0
LTYPE
  2
MCDASH2
 70
     0
  3
MiniCad+ Generated
 72
    65
 73
     2
 40
3.527692
 49
2.469229
 49
-1.058463
  0
LTYPE
  2
MCDASH3
 70
     0
  3
MiniCad+ Generated
 72
    65
 73
     2
 40
6.35
 49
5.291537
 49
-1.058463
  0
LTYPE
  2
MCDASH4
 70
     0
  3
MiniCad+ Generated
 72
    65
 73
     2
 40
7.760767
 49
6.702692
 49
-1.058075
  0
LTYPE
  2
MCDASH5
 70
     0
  3
MiniCad+ Generated
 72
    65
 73
     2
 40
1.058075
 49
0.352692
 49
-0.705383
  0
LTYPE
  2
MCDASH6
 70
     0
  3
MiniCad+ Generated
 72
    65
 73
     4
 40
5.291538
 49
3.175
 49
-1.058075
 49
0.352692
 49
-0.705771
  0
LTYPE
  2
MCDASH7
 70
     0
  3
MiniCad+ Generated
 72
    65
 73
     6
 40
9.525001
 49
3.175
 49
-1.058075
 49
3.175
 49
-1.058463
 49
0.352692
 49
-0.705771
  0
LTYPE
  2
MCDASH8
 70
     0
  3
MiniCad+ Generated
 72
    65
 73
     6
 40
6.350001000000001
 49
3.175
 49
-1.058075
 49
0.352692
 49
-0.705771
 49
0.352692
 49
-0.705771
  0
ENDTAB
  0
TABLE
  2
LAYER
 70
     3
  0
LAYER
  2
0
 70
     0
 62
     7
  6
CONTINUOUS
  0
LAYER
  2
GUIDE
 70
     0
 62
     7
  6
CONTINUOUS
  0
LAYER
  2
AXIS
 70
     0
 62
     1
  6
CONTINUOUS
  0
ENDTAB
  0
TABLE
  2
STYLE
 70
     1
  0
STYLE
  2
STANDARD
 70
     0
 40
0.0
 41
1.0
 50
0.0
 71
     0
 42
0.2
  3
txt
  4

  0
ENDTAB
  0
TABLE
  2
VIEW
 70
     0
  0
ENDTAB
  0
TABLE
  2
UCS
 70
     0
  0
ENDTAB
  0
TABLE
  2
APPID
 70
     1
  0
APPID
  2
ACAD
 70
     0
  0
ENDTAB
  0
TABLE
  2
DIMSTYLE
 70
     1
  0
DIMSTYLE
  2
STANDARD
 70
     0
  3

  4

  5

  6

  7

 40
1.0
 41
0.18
 42
0.0625
 43
0.38
 44
0.18
 45
0.0
 46
0.0
 47
0.0
 48
0.0
140
0.18
141
0.09
142
0.0
143
25.4
144
1.0
145
0.0
146
1.0
147
0.09
 71
     0
 72
     0
 73
     1
 74
     1
 75
     0
 76
     0
 77
     0
 78
     0
170
     0
171
     2
172
     0
173
     0
174
     0
175
     0
176
     0
177
     0
178
     0
  0
ENDTAB
  0
ENDSEC
  0
SECTION
  2
BLOCKS
  0
BLOCK
  8
0
  2
$MODEL_SPACE
 70
     0
 10
0.0
 20
0.0
 30
0.0
  3
$MODEL_SPACE
  1

  0
ENDBLK
  5
246
  8
0
  0
BLOCK
 67
     1
  8
0
  2
$PAPER_SPACE
 70
     0
 10
0.0
 20
0.0
 30
0.0
  3
$PAPER_SPACE
  1

  0
ENDBLK
  5
244
 67
     1
  8
0
  0
BLOCK
  8
0
  2
$ARROW1$
 70
     0
 10
0.0
 20
0.0
 30
0.0
  3
$ARROW1$
  1

  0
POLYLINE
  5
2F
  8
0
 62
     1
 66
     1
 10
0.0
 20
0.0
 30
0.0
 70
     1
  0
VERTEX
  5
194
  8
0
 62
     1
 10
-25.4
 20
4.318
 30
0.0
  0
VERTEX
  5
195
  8
0
 62
     1
 10
-25.4
 20
-4.318
 30
0.0
  0
VERTEX
  5
196
  8
0
 62
     1
 10
0.0
 20
0.0
 30
0.0
  0
SEQEND
  5
22D
  8
0
 62
     1
  0
ENDBLK
  5
22F
  8
0
  0
BLOCK
  8
0
  2
$ARROW2$
 70
     0
 10
0.0
 20
0.0
 30
0.0
  3
$ARROW2$
  1

  0
POLYLINE
  5
37
  8
0
 62
     1
 66
     1
 10
0.0
 20
0.0
 30
0.0
 70
     1
  0
VERTEX
  5
198
  8
0
 62
     1
 10
-25.4
 20
12.7
 30
0.0
  0
VERTEX
  5
199
  8
0
 62
     1
 10
-25.4
 20
-12.7
 30
0.0
  0
VERTEX
  5
19A
  8
0
 62
     1
 10
0.0
 20
0.0
 30
0.0
  0
SEQEND
  5
230
  8
0
 62
     1
  0
ENDBLK
  5
232
  8
0
  0
BLOCK
  8
0
  2
$ARROW3$
 70
     0
 10
0.0
 20
0.0
 30
0.0
  3
$ARROW3$
  1

  0
POLYLINE
  5
3F
  8
0
 62
     1
 66
     1
 10
0.0
 20
0.0
 30
0.0
 70
     1
 40
0.5051250000000001
 41
0.5051250000000001
  0
VERTEX
  5
19C
  8
0
 62
     1
 10
-6.35
 20
0.0
 30
0.0
  0
VERTEX
  5
19D
  8
0
 62
     1
 10
-6.253499
 20
-1.102835
 30
0.0
  0
VERTEX
  5
19E
  8
0
 62
     1
 10
-5.966995
 20
-2.171976
 30
0.0
  0
VERTEX
  5
19F
  8
0
 62
     1
 10
-5.499192
 20
-3.175123
 30
0.0
  0
VERTEX
  5
1A0
  8
0
 62
     1
 10
-4.864305
 20
-4.08179
 30
0.0
  0
VERTEX
  5
1A1
  8
0
 62
     1
 10
-4.081641
 20
-4.86443
 30
0.0
  0
VERTEX
  5
1A2
  8
0
 62
     1
 10
-3.174956
 20
-5.499289
 30
0.0
  0
VERTEX
  5
1A3
  8
0
 62
     1
 10
-2.171794
 20
-5.967061
 30
0.0
  0
VERTEX
  5
1A4
  8
0
 62
     1
 10
-1.102644
 20
-6.253533
 30
0.0
  0
VERTEX
  5
1A5
  8
0
 62
     1
 10
0.000097
 20
-6.35
 30
0.0
  0
VERTEX
  5
1A6
  8
0
 62
     1
 10
0.0
 20
-6.35
 30
0.0
  0
VERTEX
  5
1A7
  8
0
 62
     1
 10
1.10274
 20
-6.253516
 30
0.0
  0
VERTEX
  5
1A8
  8
0
 62
     1
 10
2.171885
 20
-5.967028
 30
0.0
  0
VERTEX
  5
1A9
  8
0
 62
     1
 10
3.175039
 20
-5.49924
 30
0.0
  0
VERTEX
  5
1AA
  8
0
 62
     1
 10
4.081716
 20
-4.864367
 30
0.0
  0
VERTEX
  5
1AB
  8
0
 62
     1
 10
4.86443
 20
-4.081641
 30
0.0
  0
VERTEX
  5
1AC
  8
0
 62
     1
 10
5.499289
 20
-3.174956
 30
0.0
  0
VERTEX
  5
1AD
  8
0
 62
     1
 10
5.967061
 20
-2.171794
 30
0.0
  0
VERTEX
  5
1AE
  8
0
 62
     1
 10
6.253533
 20
-1.102644
 30
0.0
  0
VERTEX
  5
1AF
  8
0
 62
     1
 10
6.35
 20
0.0
 30
0.0
  0
VERTEX
  5
1B0
  8
0
 62
     1
 10
6.253533
 20
1.102644
 30
0.0
  0
VERTEX
  5
1B1
  8
0
 62
     1
 10
5.967028
 20
2.171885
 30
0.0
  0
VERTEX
  5
1B2
  8
0
 62
     1
 10
5.49924
 20
3.175039
 30
0.0
  0
VERTEX
  5
1B3
  8
0
 62
     1
 10
4.864367
 20
4.081716
 30
0.0
  0
VERTEX
  5
1B4
  8
0
 62
     1
 10
4.081716
 20
4.864367
 30
0.0
  0
VERTEX
  5
1B5
  8
0
 62
     1
 10
3.175039
 20
5.49924
 30
0.0
  0
VERTEX
  5
1B6
  8
0
 62
     1
 10
2.171794
 20
5.967061
 30
0.0
  0
VERTEX
  5
1B7
  8
0
 62
     1
 10
1.102644
 20
6.253533
 30
0.0
  0
VERTEX
  5
1B8
  8
0
 62
     1
 10
0.0
 20
6.35
 30
0.0
  0
VERTEX
  5
1B9
  8
0
 62
     1
 10
-1.102644
 20
6.253533
 30
0.0
  0
VERTEX
  5
1BA
  8
0
 62
     1
 10
-2.171885
 20
5.967028
 30
0.0
  0
VERTEX
  5
1BB
  8
0
 62
     1
 10
-3.175039
 20
5.49924
 30
0.0
  0
VERTEX
  5
1BC
  8
0
 62
     1
 10
-4.081716
 20
4.864367
 30
0.0
  0
VERTEX
  5
1BD
  8
0
 62
     1
 10
-4.864367
 20
4.081716
 30
0.0
  0
VERTEX
  5
1BE
  8
0
 62
     1
 10
-5.499289
 20
3.174956
 30
0.0
  0
VERTEX
  5
1BF
  8
0
 62
     1
 10
-5.967061
 20
2.171794
 30
0.0
  0
VERTEX
  5
1C0
  8
0
 62
     1
 10
-6.253533
 20
1.102644
 30
0.0
  0
VERTEX
  5
1C1
  8
0
 62
     1
 10
-6.35
 20
0.0
 30
0.0
  0
SEQEND
  5
233
  8
0
 62
     1
  0
ENDBLK
  5
235
  8
0
  0
BLOCK
  8
0
  2
$ARROW4$
 70
     0
 10
0.0
 20
0.0
 30
0.0
  3
$ARROW4$
  1

  0
LINE
  5
6A
  8
0
 10
12.7
 20
12.7
 30
0.0
 11
-12.7
 21
-12.7
 31
0.0
  0
ENDBLK
  5
237
  8
0
  0
BLOCK
  8
0
  2
$ARROW5$
 70
     0
 10
0.0
 20
0.0
 30
0.0
  3
$ARROW5$
  1

  0
LINE
  5
6E
  8
0
 10
12.7
 20
12.7
 30
0.0
 11
-12.7
 21
-12.7
 31
0.0
  0
LINE
  5
6F
  8
0
 10
-12.7
 20
12.7
 30
0.0
 11
12.7
 21
-12.7
 31
0.0
  0
ENDBLK
  5
239
  8
0
  0
BLOCK
  8
0
  2
A$CD241
 70
     0
 10
0.0
 20
0.0
 30
0.0
  3
A$CD241
  1

  0
POLYLINE
  5
73
  8
0
 62
     1
 66
     1
 10
0.0
 20
0.0
 30
0.0
 70
     1
  0
VERTEX
  5
1C3
  8
0
 62
     1
 10
16.36815
 20
1.74689
 30
0.0
  0
VERTEX
  5
1C4
  8
0
 62
     1
 10
16.36815
 20
32.24689
 30
0.0
  0
VERTEX
  5
1C5
  8
0
 62
     1
 10
16.38046
 20
32.40331
 30
0.0
  0
VERTEX
  5
1C6
  8
0
 62
     1
 10
16.41709
 20
32.55589
 30
0.0
  0
VERTEX
  5
1C7
  8
0
 62
     1
 10
16.47713
 20
32.70086
 30
0.0
  0
VERTEX
  5
1C8
  8
0
 62
     1
 10
16.55911
 20
32.83466
 30
0.0
  0
VERTEX
  5
1C9
  8
0
 62
     1
 10
16.66103
 20
32.95399
 30
0.0
  0
VERTEX
  5
1CA
  8
0
 62
     1
 10
16.66104
 20
32.954
 30
0.0
  0
VERTEX
  5
1CB
  8
0
 62
     1
 10
16.78035
 20
33.0559
 30
0.0
  0
VERTEX
  5
1CC
  8
0
 62
     1
 10
16.91414
 20
33.13789
 30
0.0
  0
VERTEX
  5
1CD
  8
0
 62
     1
 10
17.05911
 20
33.19794
 30
0.0
  0
VERTEX
  5
1CE
  8
0
 62
     1
 10
17.2117
 20
33.23458
 30
0.0
  0
VERTEX
  5
1CF
  8
0
 62
     1
 10
17.36813
 20
33.24689
 30
0.0
  0
VERTEX
  5
1D0
  8
0
 62
     1
 10
17.36815
 20
33.24689
 30
0.0
  0
VERTEX
  5
1D1
  8
0
 62
     1
 10
26.86815
 20
33.24689
 30
0.0
  0
VERTEX
  5
1D2
  8
0
 62
     1
 10
27.02458
 20
33.23458
 30
0.0
  0
VERTEX
  5
1D3
  8
0
 62
     1
 10
27.17716
 20
33.19795
 30
0.0
  0
VERTEX
  5
1D4
  8
0
 62
     1
 10
27.32214
 20
33.1379
 30
0.0
  0
VERTEX
  5
1D5
  8
0
 62
     1
 10
27.45594
 20
33.05591
 30
0.0
  0
VERTEX
  5
1D6
  8
0
 62
     1
 10
27.57526
 20
32.954
 30
0.0
  0
VERTEX
  5
1D7
  8
0
 62
     1
 10
27.67717
 20
32.83468
 30
0.0
  0
VERTEX
  5
1D8
  8
0
 62
     1
 10
27.75916
 20
32.70089
 30
0.0
  0
VERTEX
  5
1D9
  8
0
 62
     1
 10
27.8192
 20
32.55592
 30
0.0
  0
VERTEX
  5
1DA
  8
0
 62
     1
 10
27.85584
 20
32.40334
 30
0.0
  0
VERTEX
  5
1DB
  8
0
 62
     1
 10
27.86815
 20
32.24689
 30
0.0
  0
VERTEX
  5
1DC
  8
0
 62
     1
 10
27.86815
 20
1.74689
 30
0.0
  0
VERTEX
  5
1DD
  8
0
 62
     1
 10
27.85584
 20
1.59046
 30
0.0
  0
VERTEX
  5
1DE
  8
0
 62
     1
 10
27.81921
 20
1.43788
 30
0.0
  0
VERTEX
  5
1DF
  8
0
 62
     1
 10
27.75916
 20
1.2929
 30
0.0
  0
VERTEX
  5
1E0
  8
0
 62
     1
 10
27.67718
 20
1.15911
 30
0.0
  0
VERTEX
  5
1E1
  8
0
 62
     1
 10
27.57526
 20
1.03978
 30
0.0
  0
VERTEX
  5
1E2
  8
0
 62
     1
 10
27.45594
 20
0.93787
 30
0.0
  0
VERTEX
  5
1E3
  8
0
 62
     1
 10
27.32215
 20
0.85588
 30
0.0
  0
VERTEX
  5
1E4
  8
0
 62
     1
 10
27.17718
 20
0.79584
 30
0.0
  0
VERTEX
  5
1E5
  8
0
 62
     1
 10
27.0246
 20
0.7592
 30
0.0
  0
VERTEX
  5
1E6
  8
0
 62
     1
 10
26.86815
 20
0.7468900000000001
 30
0.0
  0
VERTEX
  5
1E7
  8
0
 62
     1
 10
17.36815
 20
0.7468900000000001
 30
0.0
  0
VERTEX
  5
1E8
  8
0
 62
     1
 10
17.21172
 20
0.7592
 30
0.0
  0
VERTEX
  5
1E9
  8
0
 62
     1
 10
17.05914
 20
0.79583
 30
0.0
  0
VERTEX
  5
1EA
  8
0
 62
     1
 10
16.91416
 20
0.85588
 30
0.0
  0
VERTEX
  5
1EB
  8
0
 62
     1
 10
16.78037
 20
0.93786
 30
0.0
  0
VERTEX
  5
1EC
  8
0
 62
     1
 10
16.66104
 20
1.03978
 30
0.0
  0
VERTEX
  5
1ED
  8
0
 62
     1
 10
16.55913
 20
1.1591
 30
0.0
  0
VERTEX
  5
1EE
  8
0
 62
     1
 10
16.47714
 20
1.29289
 30
0.0
  0
VERTEX
  5
1EF
  8
0
 62
     1
 10
16.4171
 20
1.43786
 30
0.0
  0
VERTEX
  5
1F0
  8
0
 62
     1
 10
16.38046
 20
1.59044
 30
0.0
  0
VERTEX
  5
1F1
  8
0
 62
     1
 10
16.36815
 20
1.74689
 30
0.0
  0
SEQEND
  5
23A
  8
0
 62
     1
  0
POLYLINE
  5
A4
  8
0
 62
     1
 66
     1
 10
0.0
 20
0.0
 30
0.0
 70
     1
  0
VERTEX
  5
1F3
  8
0
 62
     1
 10
19.61815
 20
33.24689
 30
0.0
  0
VERTEX
  5
1F4
  8
0
 62
     1
 10
19.61815
 20
33.89689
 30
0.0
  0
VERTEX
  5
1F5
  8
0
 62
     1
 10
24.61815
 20
33.89689
 30
0.0
  0
VERTEX
  5
1F6
  8
0
 62
     1
 10
24.61815
 20
33.24689
 30
0.0
  0
SEQEND
  5
23B
  8
0
 62
     1
  0
POLYLINE
  5
AA
  8
0
 62
     1
 66
     1
 10
0.0
 20
0.0
 30
0.0
 70
     1
  0
VERTEX
  5
1F8
  8
0
 62
     1
 10
19.61815
 20
0.09689
 30
0.0
  0
VERTEX
  5
1F9
  8
0
 62
     1
 10
19.61815
 20
0.7468900000000001
 30
0.0
  0
VERTEX
  5
1FA
  8
0
 62
     1
 10
24.61815
 20
0.7468900000000001
 30
0.0
  0
VERTEX
  5
1FB
  8
0
 62
     1
 10
24.61815
 20
0.09689
 30
0.0
  0
SEQEND
  5
23C
  8
0
 62
     1
  0
ENDBLK
  5
23E
  8
0
  0
ENDSEC
  0
SECTION
  2
ENTITIES
  0
LINE
  5
B1
  8
GUIDE
 10
17.226275
 20
-62.61326
 30
0.0
 11
17.226275
 21
-89.81326
 31
0.0
  0
LINE
  5
B2
  8
GUIDE
 10
20.226275
 20
-74.71326000000001
 30
0.0
 11
20.226275
 21
-77.71326000000001
 31
0.0
  0
LINE
  5
B3
  8
GUIDE
 10
-55.913665
 20
-70.21326000000001
 30
0.0
 11
-55.913665
 21
-72.21326000000001
 31
0.0
  0
LINE
  5
B4
  8
GUIDE
 10
-9.233775
 20
-70.21326000000001
 30
0.0
 11
-9.233775
 21
-72.21326000000001
 31
0.0
  0
LINE
  5
B5
  8
GUIDE
 10
-79.273725
 20
-89.81326
 30
0.0
 11
17.226275
 21
-89.81326
 31
0.0
  0
LINE
  5
B6
  8
GUIDE
 10
-79.273725
 20
-62.61326
 30
0.0
 11
17.226275
 21
-62.61326
 31
0.0
  0
LINE
  5
B7
  8
GUIDE
 10
-55.913665
 20
-70.21326000000001
 30
0.0
 11
-9.233775
 21
-70.21326000000001
 31
0.0
  0
LINE
  5
B8
  8
GUIDE
 10
-55.913665
 20
-82.21326000000001
 30
0.0
 11
-9.233775
 21
-82.21326000000001
 31
0.0
  0
LINE
  5
B9
  8
GUIDE
 10
-55.913665
 20
-72.21326000000001
 30
0.0
 11
-9.233775
 21
-72.21326000000001
 31
0.0
  0
LINE
  5
BA
  8
GUIDE
 10
-55.913665
 20
-80.21326000000001
 30
0.0
 11
-9.233775
 21
-80.21326000000001
 31
0.0
  0
LINE
  5
BB
  8
GUIDE
 10
-55.913665
 20
-80.21326000000001
 30
0.0
 11
-55.913665
 21
-82.21326000000001
 31
0.0
  0
LINE
  5
BC
  8
GUIDE
 10
-9.233775
 20
-80.21326000000001
 30
0.0
 11
-9.233775
 21
-82.21326000000001
 31
0.0
  0
LINE
  5
BD
  8
GUIDE
 10
-36.073725
 20
-72.21326000000001
 30
0.0
 11
-36.073725
 21
-80.21326000000001
 31
0.0
  0
LINE
  5
BE
  8
GUIDE
 10
-29.073725
 20
-72.21326000000001
 30
0.0
 11
-29.073725
 21
-80.21326000000001
 31
0.0
  0
LINE
  5
BF
  8
GUIDE
 10
17.226275
 20
-77.71326000000001
 30
0.0
 11
20.226275
 21
-77.71326000000001
 31
0.0
  0
LINE
  5
C0
  8
GUIDE
 10
17.226275
 20
-74.71326000000001
 30
0.0
 11
20.226275
 21
-74.71326000000001
 31
0.0
  0
LINE
  5
C1
  8
GUIDE
 10
-37.573725
 20
-70.21326000000001
 30
0.0
 11
-27.573725
 21
-70.21326000000001
 31
0.0
  0
ARC
  5
C2
  8
GUIDE
 10
-32.573725
 20
-80.6247
 30
0.0
 40
3.5
 50
206.992554
 51
333.007431
  0
ARC
  5
C3
  8
GUIDE
 10
-32.573725
 20
-78.06919000000001
 30
0.0
 40
9.095050000000001
 50
59.741226
 51
120.258774
  0
LINE
  5
C4
  8
GUIDE
 10
-82.42372500000001
 20
40.21326
 30
0.0
 11
17.276275
 21
40.21326
 31
0.0
  0
LINE
  5
C5
  8
GUIDE
 10
-82.42372500000001
 20
-33.78674
 30
0.0
 11
17.276275
 21
-33.78674
 31
0.0
  0
LINE
  5
C6
  8
GUIDE
 10
17.276275
 20
40.21326
 30
0.0
 11
17.276275
 21
-33.78674
 31
0.0
  0
LINE
  5
C7
  8
GUIDE
 10
-82.42372500000001
 20
-33.78674
 30
0.0
 11
-82.42372500000001
 21
40.21326
 31
0.0
  0
LINE
  5
C8
  8
GUIDE
 10
20.276275
 20
35.46326
 30
0.0
 11
20.276275
 21
-29.03674
 31
0.0
  0
CIRCLE
  5
C9
  8
GUIDE
 10
-32.523725
 20
86.71326000000001
 30
0.0
 40
3.5
  0
LINE
  5
CA
  8
GUIDE
 10
-53.127175
 20
41.98379
 30
0.0
 11
-38.302955
 21
88.32585
 31
0.0
  0
ARC
  5
CB
  8
GUIDE
 10
-55.863665
 20
43.21326
 30
0.0
 40
3.0
 50
270.0
 51
335.806305
  0
ARC
  5
CC
  8
GUIDE
 10
-9.183775000000001
 20
43.21326
 30
0.0
 40
3.0
 50
204.193695
 51
270.0
  0
ARC
  5
CD
  8
GUIDE
 10
-32.523725
 20
86.71326000000001
 30
0.0
 40
6.0
 50
15.59079
 51
164.40921
  0
LINE
  5
CE
  8
GUIDE
 10
-11.920265
 20
41.98379
 30
0.0
 11
-26.744485
 21
88.32585
 31
0.0
  0
LINE
  5
CF
  8
GUIDE
 10
-35.987825
 20
87.21326000000001
 30
0.0
 11
-29.059615
 21
87.21326000000001
 31
0.0
  0
LINE
  5
D0
  8
GUIDE
 10
-35.987825
 20
86.21326000000001
 30
0.0
 11
-29.023725
 21
86.21326000000001
 31
0.0
  0
LINE
  5
D1
  8
GUIDE
 10
67.42372500000001
 20
33.21326
 30
0.0
 11
67.42372500000001
 21
-27.29934
 31
0.0
  0
ARC
  5
D2
  8
GUIDE
 10
69.754795
 20
33.72586
 30
0.0
 40
2.38677
 50
110.377258
 51
192.40181
  0
ARC
  5
D3
  8
GUIDE
 10
69.754795
 20
-27.29934
 30
0.0
 40
2.38677
 50
167.59819
 51
249.622742
  0
POLYLINE
  5
D4
  8
GUIDE
 66
     1
 10
0.0
 20
0.0
 30
0.0
  0
VERTEX
  5
157
  8
GUIDE
 10
79.523725
 20
40.21326
 30
0.0
  0
VERTEX
  5
158
  8
GUIDE
 10
79.523725
 20
36.96326
 30
0.0
  0
VERTEX
  5
159
  8
GUIDE
 10
79.511415
 20
36.80683
 30
0.0
  0
VERTEX
  5
15A
  8
GUIDE
 10
79.474785
 20
36.65425
 30
0.0
  0
VERTEX
  5
15B
  8
GUIDE
 10
79.41473499999999
 20
36.50927
 30
0.0
  0
VERTEX
  5
15C
  8
GUIDE
 10
79.33275500000001
 20
36.37548
 30
0.0
  0
VERTEX
  5
15D
  8
GUIDE
 10
79.230835
 20
36.25615
 30
0.0
  0
VERTEX
  5
15E
  8
GUIDE
 10
79.111515
 20
36.15424
 30
0.0
  0
VERTEX
  5
15F
  8
GUIDE
 10
78.97772500000001
 20
36.07225
 30
0.0
  0
VERTEX
  5
160
  8
GUIDE
 10
78.83275500000001
 20
36.01221
 30
0.0
  0
VERTEX
  5
161
  8
GUIDE
 10
78.68017500000001
 20
35.97557
 30
0.0
  0
VERTEX
  5
162
  8
GUIDE
 10
78.523725
 20
35.96326
 30
0.0
  0
VERTEX
  5
163
  8
GUIDE
 10
68.92372500000001
 20
35.96326
 30
0.0
  0
SEQEND
  5
23F
  8
GUIDE
  0
POLYLINE
  5
E3
  8
GUIDE
 66
     1
 10
0.0
 20
0.0
 30
0.0
  0
VERTEX
  5
165
  8
GUIDE
 10
68.92372500000001
 20
-29.53674
 30
0.0
  0
VERTEX
  5
166
  8
GUIDE
 10
78.523725
 20
-29.53674
 30
0.0
  0
VERTEX
  5
167
  8
GUIDE
 10
78.691535
 20
-29.58221
 30
0.0
  0
VERTEX
  5
168
  8
GUIDE
 10
78.851325
 20
-29.6507
 30
0.0
  0
VERTEX
  5
169
  8
GUIDE
 10
78.99997500000001
 20
-29.74086
 30
0.0
  0
VERTEX
  5
16A
  8
GUIDE
 10
79.13455500000001
 20
-29.85094
 30
0.0
  0
VERTEX
  5
16B
  8
GUIDE
 10
79.252425
 20
-29.97876
 30
0.0
  0
VERTEX
  5
16C
  8
GUIDE
 10
79.25243500000001
 20
-29.97877
 30
0.0
  0
VERTEX
  5
16D
  8
GUIDE
 10
79.351265
 20
-30.12181
 30
0.0
  0
VERTEX
  5
16E
  8
GUIDE
 10
79.429115
 20
-30.27727
 30
0.0
  0
VERTEX
  5
16F
  8
GUIDE
 10
79.484455
 20
-30.44209
 30
0.0
  0
VERTEX
  5
170
  8
GUIDE
 10
79.516205
 20
-30.61303
 30
0.0
  0
VERTEX
  5
171
  8
GUIDE
 10
79.523725
 20
-30.78675
 30
0.0
  0
VERTEX
  5
172
  8
GUIDE
 10
79.523725
 20
-30.78674
 30
0.0
  0
VERTEX
  5
173
  8
GUIDE
 10
79.523725
 20
-33.78674
 30
0.0
  0
SEQEND
  5
240
  8
GUIDE
  0
LINE
  5
F4
  8
GUIDE
 10
79.523725
 20
40.21326
 30
0.0
 11
52.323725
 21
40.21326
 31
0.0
  0
LINE
  5
F5
  8
GUIDE
 10
52.323725
 20
-33.78674
 30
0.0
 11
79.523725
 21
-33.78674
 31
0.0
  0
LINE
  5
F6
  8
GUIDE
 10
64.42372500000001
 20
33.21326
 30
0.0
 11
64.42372500000001
 21
-27.29934
 31
0.0
  0
POLYLINE
  5
F7
  8
GUIDE
 66
     1
 10
0.0
 20
0.0
 30
0.0
  0
VERTEX
  5
175
  8
GUIDE
 10
62.923725
 20
-29.53674
 30
0.0
  0
VERTEX
  5
176
  8
GUIDE
 10
53.323725
 20
-29.53674
 30
0.0
  0
VERTEX
  5
177
  8
GUIDE
 10
53.155885
 20
-29.58222
 30
0.0
  0
VERTEX
  5
178
  8
GUIDE
 10
52.996085
 20
-29.65071
 30
0.0
  0
VERTEX
  5
179
  8
GUIDE
 10
52.847445
 20
-29.74089
 30
0.0
  0
VERTEX
  5
17A
  8
GUIDE
 10
52.712865
 20
-29.85096
 30
0.0
  0
VERTEX
  5
17B
  8
GUIDE
 10
52.595025
 20
-29.97876
 30
0.0
  0
VERTEX
  5
17C
  8
GUIDE
 10
52.595015
 20
-29.97877
 30
0.0
  0
VERTEX
  5
17D
  8
GUIDE
 10
52.496175
 20
-30.12183
 30
0.0
  0
VERTEX
  5
17E
  8
GUIDE
 10
52.418325
 20
-30.27729
 30
0.0
  0
VERTEX
  5
17F
  8
GUIDE
 10
52.362995
 20
-30.44211
 30
0.0
  0
VERTEX
  5
180
  8
GUIDE
 10
52.331245
 20
-30.61305
 30
0.0
  0
VERTEX
  5
181
  8
GUIDE
 10
52.323725
 20
-30.78675
 30
0.0
  0
VERTEX
  5
182
  8
GUIDE
 10
52.323725
 20
-30.78674
 30
0.0
  0
VERTEX
  5
183
  8
GUIDE
 10
52.323725
 20
-33.78674
 30
0.0
  0
SEQEND
  5
241
  8
GUIDE
  0
ARC
  5
108
  8
GUIDE
 10
62.092655
 20
-27.29934
 30
0.0
 40
2.38677
 50
290.377258
 51
12.40181
  0
POLYLINE
  5
109
  8
GUIDE
 66
     1
 10
0.0
 20
0.0
 30
0.0
  0
VERTEX
  5
185
  8
GUIDE
 10
52.323725
 20
40.21326
 30
0.0
  0
VERTEX
  5
186
  8
GUIDE
 10
52.323725
 20
36.96326
 30
0.0
  0
VERTEX
  5
187
  8
GUIDE
 10
52.336035
 20
36.80681
 30
0.0
  0
VERTEX
  5
188
  8
GUIDE
 10
52.372675
 20
36.65423
 30
0.0
  0
VERTEX
  5
189
  8
GUIDE
 10
52.432715
 20
36.50926
 30
0.0
  0
VERTEX
  5
18A
  8
GUIDE
 10
52.514705
 20
36.37547
 30
0.0
  0
VERTEX
  5
18B
  8
GUIDE
 10
52.616615
 20
36.25615
 30
0.0
  0
VERTEX
  5
18C
  8
GUIDE
 10
52.735945
 20
36.15423
 30
0.0
  0
VERTEX
  5
18D
  8
GUIDE
 10
52.869735
 20
36.07225
 30
0.0
  0
VERTEX
  5
18E
  8
GUIDE
 10
53.014715
 20
36.0122
 30
0.0
  0
VERTEX
  5
18F
  8
GUIDE
 10
53.167295
 20
35.97557
 30
0.0
  0
VERTEX
  5
190
  8
GUIDE
 10
53.323745
 20
35.96326
 30
0.0
  0
VERTEX
  5
191
  8
GUIDE
 10
53.323725
 20
35.96326
 30
0.0
  0
VERTEX
  5
192
  8
GUIDE
 10
62.923725
 20
35.96326
 30
0.0
  0
SEQEND
  5
242
  8
GUIDE
  0
ARC
  5
119
  8
GUIDE
 10
62.092655
 20
33.72586
 30
0.0
 40
2.38677
 50
347.59819
 51
69.622742
  0
LINE
  5
11A
  8
GUIDE
 10
71.92372500000001
 20
91.71326000000001
 30
0.0
 11
69.92372500000001
 21
91.71326000000001
 31
0.0
  0
LINE
  5
11B
  8
GUIDE
 10
59.923725
 20
91.71326000000001
 30
0.0
 11
59.923725
 21
81.71326000000001
 31
0.0
  0
LINE
  5
11C
  8
GUIDE
 10
71.92372500000001
 20
91.71326000000001
 30
0.0
 11
71.92372500000001
 21
81.71326000000001
 31
0.0
  0
LINE
  5
11D
  8
GUIDE
 10
59.923725
 20
81.71326000000001
 30
0.0
 11
53.323725
 21
40.21326
 31
0.0
  0
LINE
  5
11E
  8
GUIDE
 10
71.92372500000001
 20
81.71326000000001
 30
0.0
 11
78.523725
 21
40.21326
 31
0.0
  0
LINE
  5
11F
  8
GUIDE
 10
61.923725
 20
91.71326000000001
 30
0.0
 11
61.923725
 21
81.71326000000001
 31
0.0
  0
LINE
  5
120
  8
GUIDE
 10
69.92372500000001
 20
91.71326000000001
 30
0.0
 11
69.92372500000001
 21
81.71326000000001
 31
0.0
  0
ARC
  5
121
  8
GUIDE
 10
61.512285
 20
86.71326000000001
 30
0.0
 40
3.5
 50
116.992554
 51
243.007431
  0
ARC
  5
122
  8
GUIDE
 10
64.067795
 20
86.71326000000001
 30
0.0
 40
9.095050000000001
 50
329.741226
 51
30.258774
  0
LINE
  5
123
  8
GUIDE
 10
59.923725
 20
81.71326000000001
 30
0.0
 11
59.923725
 21
40.21326
 31
0.0
  0
LINE
  5
124
  8
GUIDE
 10
71.92372500000001
 20
81.71326000000001
 30
0.0
 11
71.92372500000001
 21
40.21326
 31
0.0
  0
LINE
  5
125
  8
GUIDE
 10
69.92372500000001
 20
89.71326000000001
 30
0.0
 11
61.923725
 21
89.71326000000001
 31
0.0
  0
LINE
  5
126
  8
GUIDE
 10
61.923725
 20
81.71326000000001
 30
0.0
 11
61.923725
 21
40.21326
 31
0.0
  0
LINE
  5
127
  8
GUIDE
 10
69.92372500000001
 20
81.71326000000001
 30
0.0
 11
69.92372500000001
 21
40.21326
 31
0.0
  0
LINE
  5
128
  8
GUIDE
 10
61.923725
 20
91.71326000000001
 30
0.0
 11
59.923725
 21
91.71326000000001
 31
0.0
  0
LINE
  5
129
  8
GUIDE
 10
17.276275
 20
-29.03674
 30
0.0
 11
20.276275
 21
-29.03674
 31
0.0
  0
LINE
  5
12A
  8
GUIDE
 10
17.276275
 20
35.46326
 30
0.0
 11
20.276275
 21
35.46326
 31
0.0
  0
LINE
  5
12B
  8
GUIDE
 10
49.423725
 20
-33.78674
 30
0.0
 11
49.423725
 21
40.21326
 31
0.0
  0
LINE
  5
12C
  8
GUIDE
 10
82.42372500000001
 20
-33.78674
 30
0.0
 11
82.42372500000001
 21
40.21326
 31
0.0
  0
LINE
  5
12D
  8
GUIDE
 10
49.423725
 20
40.21326
 30
0.0
 11
52.323725
 21
40.21326
 31
0.0
  0
LINE
  5
12E
  8
GUIDE
 10
49.423725
 20
-33.78674
 30
0.0
 11
52.323725
 21
-33.78674
 31
0.0
  0
LINE
  5
12F
  8
GUIDE
 10
82.42372500000001
 20
-33.78674
 30
0.0
 11
79.523725
 21
-33.78674
 31
0.0
  0
LINE
  5
130
  8
GUIDE
 10
82.42372500000001
 20
40.21326
 30
0.0
 11
79.523725
 21
40.21326
 31
0.0
  0
LINE
  5
131
  8
GUIDE
 10
79.523725
 20
36.54905
 30
0.0
 11
79.523725
 21
-30.78674
 31
0.0
  0
LINE
  5
132
  8
GUIDE
 10
52.323725
 20
36.96326
 30
0.0
 11
52.323725
 21
-30.78674
 31
0.0
  0
LINE
  5
133
  8
GUIDE
 10
17.226275
 20
-59.71326
 30
0.0
 11
-79.273725
 21
-59.71326
 31
0.0
  0
LINE
  5
134
  8
GUIDE
 10
17.226275
 20
-92.71326000000001
 30
0.0
 11
-79.273725
 21
-92.71326000000001
 31
0.0
  0
LINE
  5
135
  8
GUIDE
 10
17.226275
 20
-62.61326
 30
0.0
 11
17.226275
 21
-59.71326
 31
0.0
  0
LINE
  5
136
  8
GUIDE
 10
17.226275
 20
-89.81326
 30
0.0
 11
17.226275
 21
-92.71326000000001
 31
0.0
  0
LINE
  5
137
  8
GUIDE
 10
69.92372500000001
 20
80.21326000000001
 30
0.0
 11
61.923725
 21
80.21326000000001
 31
0.0
  0
LINE
  5
138
  8
GUIDE
 10
-82.37372499999999
 20
-74.71326000000001
 30
0.0
 11
-82.37372499999999
 21
-77.71326000000001
 31
0.0
  0
LINE
  5
139
  8
GUIDE
 10
-79.273725
 20
-62.61326
 30
0.0
 11
-79.273725
 21
-74.71326000000001
 31
0.0
  0
LINE
  5
13A
  8
GUIDE
 10
-82.37372499999999
 20
-74.71326000000001
 30
0.0
 11
-79.273725
 21
-74.71326000000001
 31
0.0
  0
LINE
  5
13B
  8
GUIDE
 10
-82.37372499999999
 20
-77.71326000000001
 30
0.0
 11
-79.273725
 21
-77.71326000000001
 31
0.0
  0
LINE
  5
13C
  8
GUIDE
 10
-79.273725
 20
-77.71326000000001
 30
0.0
 11
-79.273725
 21
-89.81326
 31
0.0
  0
LINE
  5
13D
  8
GUIDE
 10
-79.273725
 20
-92.71326000000001
 30
0.0
 11
-79.273725
 21
-89.81326
 31
0.0
  0
LINE
  5
13E
  8
GUIDE
 10
-79.273725
 20
-62.61326
 30
0.0
 11
-79.273725
 21
-59.71326
 31
0.0
  0
LINE
  5
13F
  8
GUIDE
 10
-113.373725
 20
-74.71326000000001
 30
0.0
 11
-113.373725
 21
-77.71326000000001
 31
0.0
  0
ARC
  5
140
  8
GUIDE
 10
-76.3179
 20
-112.693169
 30
0.0
 40
53.0623
 50
93.19306899999999
 51
134.294846
  0
ARC
  5
141
  8
GUIDE
 10
-76.3179
 20
-39.733351
 30
0.0
 40
53.0623
 50
225.705154
 51
266.806931
  0
LINE
  5
142
  8
GUIDE
 10
-113.423725
 20
-33.78674
 30
0.0
 11
-113.423725
 21
40.21326
 31
0.0
  0
LINE
  5
143
  8
GUIDE
 10
-82.42372500000001
 20
40.21326
 30
0.0
 11
-113.423725
 21
40.21326
 31
0.0
  0
LINE
  5
144
  8
GUIDE
 10
-82.42372500000001
 20
-33.78674
 30
0.0
 11
-113.423725
 21
-33.78674
 31
0.0
  0
LINE
  5
145
  8
AXIS
 62
     1
 10
-32.573725
 20
-70.21326000000001
 30
0.0
 11
-32.573725
 21
-82.21326000000001
 31
0.0
  0
ENDSEC
  0
EOF
