  0
SECTION
  2
HEADER
  9
$ACADVER
  1
AC1009
  9
$DWGCODEPAGE
  3
ansi_1252
  9
$INSBASE
 10
0.0
 20
0.0
 30
0.0
  9
$EXTMIN
 10
-80.24572000000001
 20
-116.490534
 30
0.0
  9
$EXTMAX
 10
80.24572000000001
 20
116.490534
 30
0.0
  9
$LIMMIN
 10
0.0
 20
0.0
  9
$LIMMAX
 10
12.0
 20
9.0
  9
$ORTHOMODE
 70
     0
  9
$REGENMODE
 70
     1
  9
$FILLMODE
 70
     1
  9
$QTEXTMODE
 70
     0
  9
$MIRRTEXT
 70
     1
  9
$DRAGMODE
 70
     2
  9
$LTSCALE
 40
0.845607
  9
$OSMODE
 70
    37
  9
$ATTMODE
 70
     1
  9
$TEXTSIZE
 40
0.2
  9
$TRACEWID
 40
0.05
  9
$TEXTSTYLE
  7
STANDARD
  9
$CLAYER
  8
0
  9
$CELTYPE
  6
BYBLOCK
  9
$CECOLOR
 62
   256
  9
$DIMSCALE
 40
1.0
  9
$DIMASZ
 40
0.18
  9
$DIMEXO
 40
0.0625
  9
$DIMDLI
 40
0.38
  9
$DIMRND
 40
0.0
  9
$DIMDLE
 40
0.0
  9
$DIMEXE
 40
0.18
  9
$DIMTP
 40
0.0
  9
$DIMTM
 40
0.0
  9
$DIMTXT
 40
0.18
  9
$DIMCEN
 40
0.09
  9
$DIMTSZ
 40
0.0
  9
$DIMTOL
 70
     0
  9
$DIMLIM
 70
     0
  9
$DIMTIH
 70
     1
  9
$DIMTOH
 70
     1
  9
$DIMSE1
 70
     0
  9
$DIMSE2
 70
     0
  9
$DIMTAD
 70
     0
  9
$DIMZIN
 70
     0
  9
$DIMBLK
  1

  9
$DIMASO
 70
     1
  9
$DIMSHO
 70
     1
  9
$DIMPOST
  1

  9
$DIMAPOST
  1

  9
$DIMALT
 70
     0
  9
$DIMALTD
 70
     2
  9
$DIMALTF
 40
25.4
  9
$DIMLFAC
 40
1.0
  9
$DIMTOFL
 70
     0
  9
$DIMTVP
 40
0.0
  9
$DIMTIX
 70
     0
  9
$DIMSOXD
 70
     0
  9
$DIMSAH
 70
     0
  9
$DIMBLK1
  1

  9
$DIMBLK2
  1

  9
$DIMSTYLE
  2
STANDARD
  9
$DIMCLRD
 70
     0
  9
$DIMCLRE
 70
     0
  9
$DIMCLRT
 70
     0
  9
$DIMTFAC
 40
1.0
  9
$DIMGAP
 40
0.09
  9
$LUNITS
 70
     2
  9
$LUPREC
 70
     4
  9
$SKETCHINC
 40
0.1
  9
$FILLETRAD
 40
0.5
  9
$AUNITS
 70
     0
  9
$AUPREC
 70
     0
  9
$MENU
  1
.
  9
$ELEVATION
 40
0.0
  9
$PELEVATION
 40
0.0
  9
$THICKNESS
 40
0.0
  9
$LIMCHECK
 70
     0
  9
$CHAMFERA
 40
0.5
  9
$CHAMFERB
 40
0.5
  9
$SKPOLY
 70
     0
  9
$TDCREATE
 40
2453619.496132361
  9
$TDUPDATE
 40
2453619.496132373
  9
$TDINDWG
 40
0.0000000116
  9
$TDUSRTIMER
 40
0.0000000116
  9
$USRTIMER
 70
     1
  9
$ANGBASE
 50
0.0
  9
$ANGDIR
 70
     0
  9
$PDMODE
 70
     0
  9
$PDSIZE
 40
0.0
  9
$PLINEWID
 40
0.0
  9
$COORDS
 70
     1
  9
$SPLFRAME
 70
     0
  9
$SPLINETYPE
 70
     6
  9
$SPLINESEGS
 70
     8
  9
$ATTDIA
 70
     0
  9
$ATTREQ
 70
     1
  9
$HANDLING
 70
     1
  9
$HANDSEED
  5
24B
  9
$SURFTAB1
 70
     6
  9
$SURFTAB2
 70
     6
  9
$SURFTYPE
 70
     6
  9
$SURFU
 70
     6
  9
$SURFV
 70
     6
  9
$UCSNAME
  2

  9
$UCSORG
 10
0.0
 20
0.0
 30
0.0
  9
$UCSXDIR
 10
1.0
 20
0.0
 30
0.0
  9
$UCSYDIR
 10
0.0
 20
1.0
 30
0.0
  9
$PUCSNAME
  2

  9
$PUCSORG
 10
0.0
 20
0.0
 30
0.0
  9
$PUCSXDIR
 10
1.0
 20
0.0
 30
0.0
  9
$PUCSYDIR
 10
0.0
 20
1.0
 30
0.0
  9
$USERI1
 70
     0
  9
$USERI2
 70
     0
  9
$USERI3
 70
     0
  9
$USERI4
 70
     0
  9
$USERI5
 70
     0
  9
$USERR1
 40
0.0
  9
$USERR2
 40
0.0
  9
$USERR3
 40
0.0
  9
$USERR4
 40
0.0
  9
$USERR5
 40
0.0
  9
$WORLDVIEW
 70
     1
  9
$SHADEDGE
 70
     3
  9
$SHADEDIF
 70
    70
  9
$TILEMODE
 70
     1
  9
$MAXACTVP
 70
    64
  9
$PLIMCHECK
 70
     0
  9
$PEXTMIN
 10
1.000000000000000E+20
 20
1.000000000000000E+20
 30
1.000000000000000E+20
  9
$PEXTMAX
 10
-1.000000000000000E+20
 20
-1.000000000000000E+20
 30
-1.000000000000000E+20
  9
$PLIMMIN
 10
0.0
 20
0.0
  9
$PLIMMAX
 10
12.0
 20
9.0
  9
$UNITMODE
 70
     0
  9
$VISRETAIN
 70
     1
  9
$PLINEGEN
 70
     0
  9
$PSLTSCALE
 70
     1
  0
ENDSEC
  0
SECTION
  2
TABLES
  0
TABLE
  2
VPORT
 70
     1
  0
VPORT
  2
*ACTIVE
 70
     0
 10
0.0
 20
0.0
 11
1.0
 21
1.0
 12
10.42990654205607
 22
4.5
 13
0.0
 23
0.0
 14
0.5
 24
0.5
 15
0.5
 25
0.5
 16
0.0
 26
0.0
 36
1.0
 17
0.0
 27
0.0
 37
0.0
 40
9.0
 41
1.972972972850329
 42
50.0
 43
0.0
 44
0.0
 50
0.0
 51
0.0
 71
     0
 72
   100
 73
     1
 74
     3
 75
     0
 76
     0
 77
     0
 78
     0
  0
ENDTAB
  0
TABLE
  2
LTYPE
 70
     9
  0
LTYPE
  2
CONTINUOUS
 70
     0
  3
Solid Line
 72
    65
 73
     0
 40
0.0
  0
LTYPE
  2
MCDASH1
 70
     0
  3
MiniCad+ Generated
 72
    65
 73
     4
 40
1.182873
 49
0.591437
 49
-0.295718
 49
0.0
 49
-0.295718
  0
LTYPE
  2
MCDASH2
 70
     0
  3
MiniCad+ Generated
 72
    65
 73
     2
 40
3.527692
 49
2.469229
 49
-1.058463
  0
LTYPE
  2
MCDASH3
 70
     0
  3
MiniCad+ Generated
 72
    65
 73
     2
 40
6.35
 49
5.291537
 49
-1.058463
  0
LTYPE
  2
MCDASH4
 70
     0
  3
MiniCad+ Generated
 72
    65
 73
     2
 40
7.760767
 49
6.702692
 49
-1.058075
  0
LTYPE
  2
MCDASH5
 70
     0
  3
MiniCad+ Generated
 72
    65
 73
     2
 40
1.058075
 49
0.352692
 49
-0.705383
  0
LTYPE
  2
MCDASH6
 70
     0
  3
MiniCad+ Generated
 72
    65
 73
     4
 40
5.291538
 49
3.175
 49
-1.058075
 49
0.352692
 49
-0.705771
  0
LTYPE
  2
MCDASH7
 70
     0
  3
MiniCad+ Generated
 72
    65
 73
     6
 40
9.525001
 49
3.175
 49
-1.058075
 49
3.175
 49
-1.058463
 49
0.352692
 49
-0.705771
  0
LTYPE
  2
MCDASH8
 70
     0
  3
MiniCad+ Generated
 72
    65
 73
     6
 40
6.350001000000001
 49
3.175
 49
-1.058075
 49
0.352692
 49
-0.705771
 49
0.352692
 49
-0.705771
  0
ENDTAB
  0
TABLE
  2
LAYER
 70
     3
  0
LAYER
  2
0
 70
     0
 62
     7
  6
CONTINUOUS
  0
LAYER
  2
GUIDE
 70
     0
 62
     7
  6
CONTINUOUS
  0
LAYER
  2
AXIS
 70
     0
 62
     1
  6
CONTINUOUS
  0
ENDTAB
  0
TABLE
  2
STYLE
 70
     1
  0
STYLE
  2
STANDARD
 70
     0
 40
0.0
 41
1.0
 50
0.0
 71
     0
 42
0.2
  3
txt
  4

  0
ENDTAB
  0
TABLE
  2
VIEW
 70
     0
  0
ENDTAB
  0
TABLE
  2
UCS
 70
     0
  0
ENDTAB
  0
TABLE
  2
APPID
 70
     1
  0
APPID
  2
ACAD
 70
     0
  0
ENDTAB
  0
TABLE
  2
DIMSTYLE
 70
     1
  0
DIMSTYLE
  2
STANDARD
 70
     0
  3

  4

  5

  6

  7

 40
1.0
 41
0.18
 42
0.0625
 43
0.38
 44
0.18
 45
0.0
 46
0.0
 47
0.0
 48
0.0
140
0.18
141
0.09
142
0.0
143
25.4
144
1.0
145
0.0
146
1.0
147
0.09
 71
     0
 72
     0
 73
     1
 74
     1
 75
     0
 76
     0
 77
     0
 78
     0
170
     0
171
     2
172
     0
173
     0
174
     0
175
     0
176
     0
177
     0
178
     0
  0
ENDTAB
  0
ENDSEC
  0
SECTION
  2
BLOCKS
  0
BLOCK
  8
0
  2
$MODEL_SPACE
 70
     0
 10
0.0
 20
0.0
 30
0.0
  3
$MODEL_SPACE
  1

  0
ENDBLK
  5
246
  8
0
  0
BLOCK
 67
     1
  8
0
  2
$PAPER_SPACE
 70
     0
 10
0.0
 20
0.0
 30
0.0
  3
$PAPER_SPACE
  1

  0
ENDBLK
  5
244
 67
     1
  8
0
  0
BLOCK
  8
0
  2
$ARROW1$
 70
     0
 10
0.0
 20
0.0
 30
0.0
  3
$ARROW1$
  1

  0
POLYLINE
  5
2F
  8
0
 62
     1
 66
     1
 10
0.0
 20
0.0
 30
0.0
 70
     1
  0
VERTEX
  5
194
  8
0
 62
     1
 10
-25.4
 20
4.318
 30
0.0
  0
VERTEX
  5
195
  8
0
 62
     1
 10
-25.4
 20
-4.318
 30
0.0
  0
VERTEX
  5
196
  8
0
 62
     1
 10
0.0
 20
0.0
 30
0.0
  0
SEQEND
  5
22D
  8
0
 62
     1
  0
ENDBLK
  5
22F
  8
0
  0
BLOCK
  8
0
  2
$ARROW2$
 70
     0
 10
0.0
 20
0.0
 30
0.0
  3
$ARROW2$
  1

  0
POLYLINE
  5
37
  8
0
 62
     1
 66
     1
 10
0.0
 20
0.0
 30
0.0
 70
     1
  0
VERTEX
  5
198
  8
0
 62
     1
 10
-25.4
 20
12.7
 30
0.0
  0
VERTEX
  5
199
  8
0
 62
     1
 10
-25.4
 20
-12.7
 30
0.0
  0
VERTEX
  5
19A
  8
0
 62
     1
 10
0.0
 20
0.0
 30
0.0
  0
SEQEND
  5
230
  8
0
 62
     1
  0
ENDBLK
  5
232
  8
0
  0
BLOCK
  8
0
  2
$ARROW3$
 70
     0
 10
0.0
 20
0.0
 30
0.0
  3
$ARROW3$
  1

  0
POLYLINE
  5
3F
  8
0
 62
     1
 66
     1
 10
0.0
 20
0.0
 30
0.0
 70
     1
 40
0.494003
 41
0.494003
  0
VERTEX
  5
19C
  8
0
 62
     1
 10
-6.35
 20
0.0
 30
0.0
  0
VERTEX
  5
19D
  8
0
 62
     1
 10
-6.253499
 20
-1.102835
 30
0.0
  0
VERTEX
  5
19E
  8
0
 62
     1
 10
-5.966995
 20
-2.171976
 30
0.0
  0
VERTEX
  5
19F
  8
0
 62
     1
 10
-5.499192
 20
-3.175123
 30
0.0
  0
VERTEX
  5
1A0
  8
0
 62
     1
 10
-4.864305
 20
-4.08179
 30
0.0
  0
VERTEX
  5
1A1
  8
0
 62
     1
 10
-4.081641
 20
-4.86443
 30
0.0
  0
VERTEX
  5
1A2
  8
0
 62
     1
 10
-3.174956
 20
-5.499289
 30
0.0
  0
VERTEX
  5
1A3
  8
0
 62
     1
 10
-2.171794
 20
-5.967061
 30
0.0
  0
VERTEX
  5
1A4
  8
0
 62
     1
 10
-1.102644
 20
-6.253533
 30
0.0
  0
VERTEX
  5
1A5
  8
0
 62
     1
 10
0.000097
 20
-6.35
 30
0.0
  0
VERTEX
  5
1A6
  8
0
 62
     1
 10
0.0
 20
-6.35
 30
0.0
  0
VERTEX
  5
1A7
  8
0
 62
     1
 10
1.10274
 20
-6.253516
 30
0.0
  0
VERTEX
  5
1A8
  8
0
 62
     1
 10
2.171885
 20
-5.967028
 30
0.0
  0
VERTEX
  5
1A9
  8
0
 62
     1
 10
3.175039
 20
-5.49924
 30
0.0
  0
VERTEX
  5
1AA
  8
0
 62
     1
 10
4.081716
 20
-4.864367
 30
0.0
  0
VERTEX
  5
1AB
  8
0
 62
     1
 10
4.86443
 20
-4.081641
 30
0.0
  0
VERTEX
  5
1AC
  8
0
 62
     1
 10
5.499289
 20
-3.174956
 30
0.0
  0
VERTEX
  5
1AD
  8
0
 62
     1
 10
5.967061
 20
-2.171794
 30
0.0
  0
VERTEX
  5
1AE
  8
0
 62
     1
 10
6.253533
 20
-1.102644
 30
0.0
  0
VERTEX
  5
1AF
  8
0
 62
     1
 10
6.35
 20
0.0
 30
0.0
  0
VERTEX
  5
1B0
  8
0
 62
     1
 10
6.253533
 20
1.102644
 30
0.0
  0
VERTEX
  5
1B1
  8
0
 62
     1
 10
5.967028
 20
2.171885
 30
0.0
  0
VERTEX
  5
1B2
  8
0
 62
     1
 10
5.49924
 20
3.175039
 30
0.0
  0
VERTEX
  5
1B3
  8
0
 62
     1
 10
4.864367
 20
4.081716
 30
0.0
  0
VERTEX
  5
1B4
  8
0
 62
     1
 10
4.081716
 20
4.864367
 30
0.0
  0
VERTEX
  5
1B5
  8
0
 62
     1
 10
3.175039
 20
5.49924
 30
0.0
  0
VERTEX
  5
1B6
  8
0
 62
     1
 10
2.171794
 20
5.967061
 30
0.0
  0
VERTEX
  5
1B7
  8
0
 62
     1
 10
1.102644
 20
6.253533
 30
0.0
  0
VERTEX
  5
1B8
  8
0
 62
     1
 10
0.0
 20
6.35
 30
0.0
  0
VERTEX
  5
1B9
  8
0
 62
     1
 10
-1.102644
 20
6.253533
 30
0.0
  0
VERTEX
  5
1BA
  8
0
 62
     1
 10
-2.171885
 20
5.967028
 30
0.0
  0
VERTEX
  5
1BB
  8
0
 62
     1
 10
-3.175039
 20
5.49924
 30
0.0
  0
VERTEX
  5
1BC
  8
0
 62
     1
 10
-4.081716
 20
4.864367
 30
0.0
  0
VERTEX
  5
1BD
  8
0
 62
     1
 10
-4.864367
 20
4.081716
 30
0.0
  0
VERTEX
  5
1BE
  8
0
 62
     1
 10
-5.499289
 20
3.174956
 30
0.0
  0
VERTEX
  5
1BF
  8
0
 62
     1
 10
-5.967061
 20
2.171794
 30
0.0
  0
VERTEX
  5
1C0
  8
0
 62
     1
 10
-6.253533
 20
1.102644
 30
0.0
  0
VERTEX
  5
1C1
  8
0
 62
     1
 10
-6.35
 20
0.0
 30
0.0
  0
SEQEND
  5
233
  8
0
 62
     1
  0
ENDBLK
  5
235
  8
0
  0
BLOCK
  8
0
  2
$ARROW4$
 70
     0
 10
0.0
 20
0.0
 30
0.0
  3
$ARROW4$
  1

  0
LINE
  5
6A
  8
0
 10
12.7
 20
12.7
 30
0.0
 11
-12.7
 21
-12.7
 31
0.0
  0
ENDBLK
  5
237
  8
0
  0
BLOCK
  8
0
  2
$ARROW5$
 70
     0
 10
0.0
 20
0.0
 30
0.0
  3
$ARROW5$
  1

  0
LINE
  5
6E
  8
0
 10
12.7
 20
12.7
 30
0.0
 11
-12.7
 21
-12.7
 31
0.0
  0
LINE
  5
6F
  8
0
 10
-12.7
 20
12.7
 30
0.0
 11
12.7
 21
-12.7
 31
0.0
  0
ENDBLK
  5
239
  8
0
  0
BLOCK
  8
0
  2
A$CD241
 70
     0
 10
0.0
 20
0.0
 30
0.0
  3
A$CD241
  1

  0
POLYLINE
  5
73
  8
0
 62
     1
 66
     1
 10
0.0
 20
0.0
 30
0.0
 70
     1
  0
VERTEX
  5
1C3
  8
0
 62
     1
 10
16.36815
 20
1.74689
 30
0.0
  0
VERTEX
  5
1C4
  8
0
 62
     1
 10
16.36815
 20
32.24689
 30
0.0
  0
VERTEX
  5
1C5
  8
0
 62
     1
 10
16.38046
 20
32.40331
 30
0.0
  0
VERTEX
  5
1C6
  8
0
 62
     1
 10
16.41709
 20
32.55589
 30
0.0
  0
VERTEX
  5
1C7
  8
0
 62
     1
 10
16.47713
 20
32.70086
 30
0.0
  0
VERTEX
  5
1C8
  8
0
 62
     1
 10
16.55911
 20
32.83466
 30
0.0
  0
VERTEX
  5
1C9
  8
0
 62
     1
 10
16.66103
 20
32.95399
 30
0.0
  0
VERTEX
  5
1CA
  8
0
 62
     1
 10
16.66104
 20
32.954
 30
0.0
  0
VERTEX
  5
1CB
  8
0
 62
     1
 10
16.78035
 20
33.0559
 30
0.0
  0
VERTEX
  5
1CC
  8
0
 62
     1
 10
16.91414
 20
33.13789
 30
0.0
  0
VERTEX
  5
1CD
  8
0
 62
     1
 10
17.05911
 20
33.19794
 30
0.0
  0
VERTEX
  5
1CE
  8
0
 62
     1
 10
17.2117
 20
33.23458
 30
0.0
  0
VERTEX
  5
1CF
  8
0
 62
     1
 10
17.36813
 20
33.24689
 30
0.0
  0
VERTEX
  5
1D0
  8
0
 62
     1
 10
17.36815
 20
33.24689
 30
0.0
  0
VERTEX
  5
1D1
  8
0
 62
     1
 10
26.86815
 20
33.24689
 30
0.0
  0
VERTEX
  5
1D2
  8
0
 62
     1
 10
27.02458
 20
33.23458
 30
0.0
  0
VERTEX
  5
1D3
  8
0
 62
     1
 10
27.17716
 20
33.19795
 30
0.0
  0
VERTEX
  5
1D4
  8
0
 62
     1
 10
27.32214
 20
33.1379
 30
0.0
  0
VERTEX
  5
1D5
  8
0
 62
     1
 10
27.45594
 20
33.05591
 30
0.0
  0
VERTEX
  5
1D6
  8
0
 62
     1
 10
27.57526
 20
32.954
 30
0.0
  0
VERTEX
  5
1D7
  8
0
 62
     1
 10
27.67717
 20
32.83468
 30
0.0
  0
VERTEX
  5
1D8
  8
0
 62
     1
 10
27.75916
 20
32.70089
 30
0.0
  0
VERTEX
  5
1D9
  8
0
 62
     1
 10
27.8192
 20
32.55592
 30
0.0
  0
VERTEX
  5
1DA
  8
0
 62
     1
 10
27.85584
 20
32.40334
 30
0.0
  0
VERTEX
  5
1DB
  8
0
 62
     1
 10
27.86815
 20
32.24689
 30
0.0
  0
VERTEX
  5
1DC
  8
0
 62
     1
 10
27.86815
 20
1.74689
 30
0.0
  0
VERTEX
  5
1DD
  8
0
 62
     1
 10
27.85584
 20
1.59046
 30
0.0
  0
VERTEX
  5
1DE
  8
0
 62
     1
 10
27.81921
 20
1.43788
 30
0.0
  0
VERTEX
  5
1DF
  8
0
 62
     1
 10
27.75916
 20
1.2929
 30
0.0
  0
VERTEX
  5
1E0
  8
0
 62
     1
 10
27.67718
 20
1.15911
 30
0.0
  0
VERTEX
  5
1E1
  8
0
 62
     1
 10
27.57526
 20
1.03978
 30
0.0
  0
VERTEX
  5
1E2
  8
0
 62
     1
 10
27.45594
 20
0.93787
 30
0.0
  0
VERTEX
  5
1E3
  8
0
 62
     1
 10
27.32215
 20
0.85588
 30
0.0
  0
VERTEX
  5
1E4
  8
0
 62
     1
 10
27.17718
 20
0.79584
 30
0.0
  0
VERTEX
  5
1E5
  8
0
 62
     1
 10
27.0246
 20
0.7592
 30
0.0
  0
VERTEX
  5
1E6
  8
0
 62
     1
 10
26.86815
 20
0.7468900000000001
 30
0.0
  0
VERTEX
  5
1E7
  8
0
 62
     1
 10
17.36815
 20
0.7468900000000001
 30
0.0
  0
VERTEX
  5
1E8
  8
0
 62
     1
 10
17.21172
 20
0.7592
 30
0.0
  0
VERTEX
  5
1E9
  8
0
 62
     1
 10
17.05914
 20
0.79583
 30
0.0
  0
VERTEX
  5
1EA
  8
0
 62
     1
 10
16.91416
 20
0.85588
 30
0.0
  0
VERTEX
  5
1EB
  8
0
 62
     1
 10
16.78037
 20
0.93786
 30
0.0
  0
VERTEX
  5
1EC
  8
0
 62
     1
 10
16.66104
 20
1.03978
 30
0.0
  0
VERTEX
  5
1ED
  8
0
 62
     1
 10
16.55913
 20
1.1591
 30
0.0
  0
VERTEX
  5
1EE
  8
0
 62
     1
 10
16.47714
 20
1.29289
 30
0.0
  0
VERTEX
  5
1EF
  8
0
 62
     1
 10
16.4171
 20
1.43786
 30
0.0
  0
VERTEX
  5
1F0
  8
0
 62
     1
 10
16.38046
 20
1.59044
 30
0.0
  0
VERTEX
  5
1F1
  8
0
 62
     1
 10
16.36815
 20
1.74689
 30
0.0
  0
SEQEND
  5
23A
  8
0
 62
     1
  0
POLYLINE
  5
A4
  8
0
 62
     1
 66
     1
 10
0.0
 20
0.0
 30
0.0
 70
     1
  0
VERTEX
  5
1F3
  8
0
 62
     1
 10
19.61815
 20
33.24689
 30
0.0
  0
VERTEX
  5
1F4
  8
0
 62
     1
 10
19.61815
 20
33.89689
 30
0.0
  0
VERTEX
  5
1F5
  8
0
 62
     1
 10
24.61815
 20
33.89689
 30
0.0
  0
VERTEX
  5
1F6
  8
0
 62
     1
 10
24.61815
 20
33.24689
 30
0.0
  0
SEQEND
  5
23B
  8
0
 62
     1
  0
POLYLINE
  5
AA
  8
0
 62
     1
 66
     1
 10
0.0
 20
0.0
 30
0.0
 70
     1
  0
VERTEX
  5
1F8
  8
0
 62
     1
 10
19.61815
 20
0.09689
 30
0.0
  0
VERTEX
  5
1F9
  8
0
 62
     1
 10
19.61815
 20
0.7468900000000001
 30
0.0
  0
VERTEX
  5
1FA
  8
0
 62
     1
 10
24.61815
 20
0.7468900000000001
 30
0.0
  0
VERTEX
  5
1FB
  8
0
 62
     1
 10
24.61815
 20
0.09689
 30
0.0
  0
SEQEND
  5
23C
  8
0
 62
     1
  0
ENDBLK
  5
23E
  8
0
  0
ENDSEC
  0
SECTION
  2
ENTITIES
  0
LINE
  5
B1
  8
GUIDE
 10
19.032835
 20
-55.21484
 30
0.0
 11
19.032835
 21
-82.41484
 31
0.0
  0
LINE
  5
B2
  8
GUIDE
 10
22.032835
 20
-67.31484
 30
0.0
 11
22.032835
 21
-70.31484
 31
0.0
  0
LINE
  5
B3
  8
GUIDE
 10
-54.107105
 20
-62.81484
 30
0.0
 11
-54.107105
 21
-65.81484
 31
0.0
  0
LINE
  5
B4
  8
GUIDE
 10
-7.427215
 20
-62.81484
 30
0.0
 11
-7.427215
 21
-65.81484
 31
0.0
  0
LINE
  5
B5
  8
GUIDE
 10
-77.46716499999999
 20
-82.41484
 30
0.0
 11
19.032835
 21
-82.41484
 31
0.0
  0
LINE
  5
B6
  8
GUIDE
 10
-77.46716499999999
 20
-55.21484
 30
0.0
 11
19.032835
 21
-55.21484
 31
0.0
  0
LINE
  5
B7
  8
GUIDE
 10
-54.107105
 20
-62.81484
 30
0.0
 11
-7.427215
 21
-62.81484
 31
0.0
  0
LINE
  5
B8
  8
GUIDE
 10
-54.107105
 20
-74.81484
 30
0.0
 11
-7.427215
 21
-74.81484
 31
0.0
  0
LINE
  5
B9
  8
GUIDE
 10
-54.107105
 20
-65.81484
 30
0.0
 11
-7.427215
 21
-65.81484
 31
0.0
  0
LINE
  5
BA
  8
GUIDE
 10
-54.107105
 20
-71.81484
 30
0.0
 11
-7.427215
 21
-71.81484
 31
0.0
  0
LINE
  5
BB
  8
GUIDE
 10
-54.107105
 20
-71.81484
 30
0.0
 11
-54.107105
 21
-74.81484
 31
0.0
  0
LINE
  5
BC
  8
GUIDE
 10
-7.427215
 20
-71.81484
 30
0.0
 11
-7.427215
 21
-74.81484
 31
0.0
  0
LINE
  5
BD
  8
GUIDE
 10
-34.267165
 20
-65.81484
 30
0.0
 11
-34.267165
 21
-71.81484
 31
0.0
  0
LINE
  5
BE
  8
GUIDE
 10
-27.267165
 20
-65.81484
 30
0.0
 11
-27.267165
 21
-71.81484
 31
0.0
  0
LINE
  5
BF
  8
GUIDE
 10
19.032835
 20
-70.31484
 30
0.0
 11
22.032835
 21
-70.31484
 31
0.0
  0
LINE
  5
C0
  8
GUIDE
 10
19.032835
 20
-67.31484
 30
0.0
 11
22.032835
 21
-67.31484
 31
0.0
  0
LINE
  5
C1
  8
GUIDE
 10
-35.767165
 20
-62.81484
 30
0.0
 11
-25.767165
 21
-62.81484
 31
0.0
  0
ARC
  5
C2
  8
GUIDE
 10
-30.767165
 20
-73.22628
 30
0.0
 40
3.5
 50
206.992554
 51
333.007431
  0
ARC
  5
C3
  8
GUIDE
 10
-30.767165
 20
-70.67077000000001
 30
0.0
 40
9.095050000000001
 50
59.741226
 51
120.258774
  0
LINE
  5
C4
  8
GUIDE
 10
-80.617165
 20
42.81484
 30
0.0
 11
19.082835
 21
42.81484
 31
0.0
  0
LINE
  5
C5
  8
GUIDE
 10
-80.617165
 20
-31.18516
 30
0.0
 11
19.082835
 21
-31.18516
 31
0.0
  0
LINE
  5
C6
  8
GUIDE
 10
19.082835
 20
42.81484
 30
0.0
 11
19.082835
 21
-31.18516
 31
0.0
  0
LINE
  5
C7
  8
GUIDE
 10
-80.617165
 20
-31.18516
 30
0.0
 11
-80.617165
 21
42.81484
 31
0.0
  0
LINE
  5
C8
  8
GUIDE
 10
22.082835
 20
38.06484
 30
0.0
 11
22.082835
 21
-26.43516
 31
0.0
  0
CIRCLE
  5
C9
  8
GUIDE
 10
-30.717165
 20
79.31484
 30
0.0
 40
3.5
  0
LINE
  5
CA
  8
GUIDE
 10
-51.320615
 20
44.58537
 30
0.0
 11
-36.496395
 21
80.92743
 31
0.0
  0
ARC
  5
CB
  8
GUIDE
 10
-54.057105
 20
45.81484
 30
0.0
 40
3.0
 50
270.0
 51
335.806305
  0
ARC
  5
CC
  8
GUIDE
 10
-7.377215
 20
45.81484
 30
0.0
 40
3.0
 50
204.193695
 51
270.0
  0
ARC
  5
CD
  8
GUIDE
 10
-30.717165
 20
79.31484
 30
0.0
 40
6.0
 50
15.59079
 51
164.40921
  0
LINE
  5
CE
  8
GUIDE
 10
-10.113715
 20
44.58537
 30
0.0
 11
-24.937925
 21
80.92743
 31
0.0
  0
LINE
  5
CF
  8
GUIDE
 10
-34.181265
 20
79.81484
 30
0.0
 11
-27.253055
 21
79.81484
 31
0.0
  0
LINE
  5
D0
  8
GUIDE
 10
-34.181265
 20
78.81484
 30
0.0
 11
-27.217165
 21
78.81484
 31
0.0
  0
LINE
  5
D1
  8
GUIDE
 10
65.617165
 20
35.81484
 30
0.0
 11
65.617165
 21
-24.18518
 31
0.0
  0
ARC
  5
D2
  8
GUIDE
 10
67.948235
 20
36.32744
 30
0.0
 40
2.38677
 50
110.377258
 51
192.40181
  0
ARC
  5
D3
  8
GUIDE
 10
67.948235
 20
-24.69776
 30
0.0
 40
2.38677
 50
167.59819
 51
249.622742
  0
POLYLINE
  5
D4
  8
GUIDE
 66
     1
 10
0.0
 20
0.0
 30
0.0
  0
VERTEX
  5
157
  8
GUIDE
 10
77.71716499999999
 20
42.81484
 30
0.0
  0
VERTEX
  5
158
  8
GUIDE
 10
77.71716499999999
 20
39.56484
 30
0.0
  0
VERTEX
  5
159
  8
GUIDE
 10
77.704855
 20
39.40841
 30
0.0
  0
VERTEX
  5
15A
  8
GUIDE
 10
77.66822500000001
 20
39.25583
 30
0.0
  0
VERTEX
  5
15B
  8
GUIDE
 10
77.608175
 20
39.11085
 30
0.0
  0
VERTEX
  5
15C
  8
GUIDE
 10
77.526195
 20
38.97706
 30
0.0
  0
VERTEX
  5
15D
  8
GUIDE
 10
77.42427499999999
 20
38.85773
 30
0.0
  0
VERTEX
  5
15E
  8
GUIDE
 10
77.30495500000001
 20
38.75582
 30
0.0
  0
VERTEX
  5
15F
  8
GUIDE
 10
77.171165
 20
38.67383
 30
0.0
  0
VERTEX
  5
160
  8
GUIDE
 10
77.026195
 20
38.61379
 30
0.0
  0
VERTEX
  5
161
  8
GUIDE
 10
76.873615
 20
38.57715
 30
0.0
  0
VERTEX
  5
162
  8
GUIDE
 10
76.71716499999999
 20
38.56484
 30
0.0
  0
VERTEX
  5
163
  8
GUIDE
 10
67.117165
 20
38.56484
 30
0.0
  0
SEQEND
  5
23F
  8
GUIDE
  0
POLYLINE
  5
E3
  8
GUIDE
 66
     1
 10
0.0
 20
0.0
 30
0.0
  0
VERTEX
  5
165
  8
GUIDE
 10
67.117165
 20
-26.93516
 30
0.0
  0
VERTEX
  5
166
  8
GUIDE
 10
76.71716499999999
 20
-26.93516
 30
0.0
  0
VERTEX
  5
167
  8
GUIDE
 10
76.884975
 20
-26.98063
 30
0.0
  0
VERTEX
  5
168
  8
GUIDE
 10
77.044765
 20
-27.04912
 30
0.0
  0
VERTEX
  5
169
  8
GUIDE
 10
77.193415
 20
-27.13928
 30
0.0
  0
VERTEX
  5
16A
  8
GUIDE
 10
77.327995
 20
-27.24936
 30
0.0
  0
VERTEX
  5
16B
  8
GUIDE
 10
77.445865
 20
-27.37718
 30
0.0
  0
VERTEX
  5
16C
  8
GUIDE
 10
77.445875
 20
-27.37719
 30
0.0
  0
VERTEX
  5
16D
  8
GUIDE
 10
77.54470499999999
 20
-27.52023
 30
0.0
  0
VERTEX
  5
16E
  8
GUIDE
 10
77.62255500000001
 20
-27.67569
 30
0.0
  0
VERTEX
  5
16F
  8
GUIDE
 10
77.67789500000001
 20
-27.84051
 30
0.0
  0
VERTEX
  5
170
  8
GUIDE
 10
77.709645
 20
-28.01145
 30
0.0
  0
VERTEX
  5
171
  8
GUIDE
 10
77.71716499999999
 20
-28.18517
 30
0.0
  0
VERTEX
  5
172
  8
GUIDE
 10
77.71716499999999
 20
-28.18516
 30
0.0
  0
VERTEX
  5
173
  8
GUIDE
 10
77.71716499999999
 20
-31.18516
 30
0.0
  0
SEQEND
  5
240
  8
GUIDE
  0
LINE
  5
F4
  8
GUIDE
 10
77.71716499999999
 20
42.81484
 30
0.0
 11
50.517165
 21
42.81484
 31
0.0
  0
LINE
  5
F5
  8
GUIDE
 10
50.517165
 20
-31.18516
 30
0.0
 11
77.71716499999999
 21
-31.18516
 31
0.0
  0
LINE
  5
F6
  8
GUIDE
 10
62.617165
 20
35.81484
 30
0.0
 11
62.617165
 21
-24.18514
 31
0.0
  0
POLYLINE
  5
F7
  8
GUIDE
 66
     1
 10
0.0
 20
0.0
 30
0.0
  0
VERTEX
  5
175
  8
GUIDE
 10
61.117165
 20
-26.93516
 30
0.0
  0
VERTEX
  5
176
  8
GUIDE
 10
51.517165
 20
-26.93516
 30
0.0
  0
VERTEX
  5
177
  8
GUIDE
 10
51.349325
 20
-26.98064
 30
0.0
  0
VERTEX
  5
178
  8
GUIDE
 10
51.189525
 20
-27.04913
 30
0.0
  0
VERTEX
  5
179
  8
GUIDE
 10
51.040885
 20
-27.13931
 30
0.0
  0
VERTEX
  5
17A
  8
GUIDE
 10
50.906305
 20
-27.24938
 30
0.0
  0
VERTEX
  5
17B
  8
GUIDE
 10
50.788465
 20
-27.37718
 30
0.0
  0
VERTEX
  5
17C
  8
GUIDE
 10
50.788455
 20
-27.37719
 30
0.0
  0
VERTEX
  5
17D
  8
GUIDE
 10
50.689615
 20
-27.52025
 30
0.0
  0
VERTEX
  5
17E
  8
GUIDE
 10
50.611765
 20
-27.67571
 30
0.0
  0
VERTEX
  5
17F
  8
GUIDE
 10
50.556435
 20
-27.84053
 30
0.0
  0
VERTEX
  5
180
  8
GUIDE
 10
50.524685
 20
-28.01147
 30
0.0
  0
VERTEX
  5
181
  8
GUIDE
 10
50.517165
 20
-28.18517
 30
0.0
  0
VERTEX
  5
182
  8
GUIDE
 10
50.517165
 20
-28.18516
 30
0.0
  0
VERTEX
  5
183
  8
GUIDE
 10
50.517165
 20
-31.18516
 30
0.0
  0
SEQEND
  5
241
  8
GUIDE
  0
ARC
  5
108
  8
GUIDE
 10
60.286095
 20
-24.69776
 30
0.0
 40
2.38677
 50
290.377258
 51
12.40181
  0
POLYLINE
  5
109
  8
GUIDE
 66
     1
 10
0.0
 20
0.0
 30
0.0
  0
VERTEX
  5
185
  8
GUIDE
 10
50.517165
 20
42.81484
 30
0.0
  0
VERTEX
  5
186
  8
GUIDE
 10
50.517165
 20
39.56484
 30
0.0
  0
VERTEX
  5
187
  8
GUIDE
 10
50.529475
 20
39.40839
 30
0.0
  0
VERTEX
  5
188
  8
GUIDE
 10
50.566115
 20
39.25581
 30
0.0
  0
VERTEX
  5
189
  8
GUIDE
 10
50.626155
 20
39.11084
 30
0.0
  0
VERTEX
  5
18A
  8
GUIDE
 10
50.708145
 20
38.97705
 30
0.0
  0
VERTEX
  5
18B
  8
GUIDE
 10
50.810055
 20
38.85773
 30
0.0
  0
VERTEX
  5
18C
  8
GUIDE
 10
50.929385
 20
38.75581
 30
0.0
  0
VERTEX
  5
18D
  8
GUIDE
 10
51.063175
 20
38.67383
 30
0.0
  0
VERTEX
  5
18E
  8
GUIDE
 10
51.208155
 20
38.61378
 30
0.0
  0
VERTEX
  5
18F
  8
GUIDE
 10
51.360735
 20
38.57715
 30
0.0
  0
VERTEX
  5
190
  8
GUIDE
 10
51.517185
 20
38.56484
 30
0.0
  0
VERTEX
  5
191
  8
GUIDE
 10
51.517165
 20
38.56484
 30
0.0
  0
VERTEX
  5
192
  8
GUIDE
 10
61.117165
 20
38.56484
 30
0.0
  0
SEQEND
  5
242
  8
GUIDE
  0
ARC
  5
119
  8
GUIDE
 10
60.286095
 20
36.32744
 30
0.0
 40
2.38677
 50
347.59819
 51
69.622742
  0
LINE
  5
11A
  8
GUIDE
 10
70.117165
 20
84.31484
 30
0.0
 11
67.117165
 21
84.31484
 31
0.0
  0
LINE
  5
11B
  8
GUIDE
 10
58.117165
 20
84.31484
 30
0.0
 11
58.117165
 21
74.31484
 31
0.0
  0
LINE
  5
11C
  8
GUIDE
 10
70.117165
 20
84.31484
 30
0.0
 11
70.117165
 21
74.31484
 31
0.0
  0
LINE
  5
11D
  8
GUIDE
 10
58.117165
 20
74.31484
 30
0.0
 11
51.517165
 21
42.81484
 31
0.0
  0
LINE
  5
11E
  8
GUIDE
 10
70.117165
 20
74.31484
 30
0.0
 11
76.71716499999999
 21
42.81484
 31
0.0
  0
LINE
  5
11F
  8
GUIDE
 10
61.117165
 20
84.31484
 30
0.0
 11
61.117165
 21
74.31484
 31
0.0
  0
LINE
  5
120
  8
GUIDE
 10
67.117165
 20
84.31484
 30
0.0
 11
67.117165
 21
74.31484
 31
0.0
  0
ARC
  5
121
  8
GUIDE
 10
59.705725
 20
79.31484
 30
0.0
 40
3.5
 50
116.992554
 51
243.007431
  0
ARC
  5
122
  8
GUIDE
 10
62.261235
 20
79.31484
 30
0.0
 40
9.095050000000001
 50
329.741226
 51
30.258774
  0
LINE
  5
123
  8
GUIDE
 10
58.117165
 20
74.31484
 30
0.0
 11
58.117165
 21
42.81484
 31
0.0
  0
LINE
  5
124
  8
GUIDE
 10
70.117165
 20
74.31484
 30
0.0
 11
70.117165
 21
42.81484
 31
0.0
  0
LINE
  5
125
  8
GUIDE
 10
67.117165
 20
82.31484
 30
0.0
 11
61.117165
 21
82.31484
 31
0.0
  0
LINE
  5
126
  8
GUIDE
 10
61.117165
 20
74.31484
 30
0.0
 11
61.117165
 21
42.81484
 31
0.0
  0
LINE
  5
127
  8
GUIDE
 10
67.117165
 20
74.31484
 30
0.0
 11
67.117165
 21
42.81484
 31
0.0
  0
LINE
  5
128
  8
GUIDE
 10
61.117165
 20
84.31484
 30
0.0
 11
58.117165
 21
84.31484
 31
0.0
  0
LINE
  5
129
  8
GUIDE
 10
47.617165
 20
-31.18516
 30
0.0
 11
47.617165
 21
42.81484
 31
0.0
  0
LINE
  5
12A
  8
GUIDE
 10
80.617165
 20
-31.18516
 30
0.0
 11
80.617165
 21
42.81484
 31
0.0
  0
LINE
  5
12B
  8
GUIDE
 10
47.617165
 20
42.81484
 30
0.0
 11
50.517165
 21
42.81484
 31
0.0
  0
LINE
  5
12C
  8
GUIDE
 10
47.617165
 20
-31.18516
 30
0.0
 11
50.517165
 21
-31.18516
 31
0.0
  0
LINE
  5
12D
  8
GUIDE
 10
50.517165
 20
-28.18516
 30
0.0
 11
50.517165
 21
39.56484
 31
0.0
  0
LINE
  5
12E
  8
GUIDE
 10
80.617165
 20
42.81484
 30
0.0
 11
77.71716499999999
 21
42.81484
 31
0.0
  0
LINE
  5
12F
  8
GUIDE
 10
80.617165
 20
-31.18516
 30
0.0
 11
77.71716499999999
 21
-31.18516
 31
0.0
  0
LINE
  5
130
  8
GUIDE
 10
77.71716499999999
 20
-27.73154
 30
0.0
 11
77.71716499999999
 21
39.56484
 31
0.0
  0
LINE
  5
131
  8
GUIDE
 10
19.082835
 20
38.06484
 30
0.0
 11
22.082835
 21
38.06484
 31
0.0
  0
LINE
  5
132
  8
GUIDE
 10
19.082835
 20
-26.43516
 30
0.0
 11
22.082835
 21
-26.43516
 31
0.0
  0
LINE
  5
133
  8
GUIDE
 10
19.032835
 20
-52.31484
 30
0.0
 11
-77.46716499999999
 21
-52.31484
 31
0.0
  0
LINE
  5
134
  8
GUIDE
 10
19.032835
 20
-85.31484
 30
0.0
 11
-77.46716499999999
 21
-85.31484
 31
0.0
  0
LINE
  5
135
  8
GUIDE
 10
19.032835
 20
-52.31484
 30
0.0
 11
19.032835
 21
-55.21484
 31
0.0
  0
LINE
  5
136
  8
GUIDE
 10
19.032835
 20
-82.41484
 30
0.0
 11
19.032835
 21
-85.31484
 31
0.0
  0
LINE
  5
137
  8
GUIDE
 10
61.117165
 20
72.81484
 30
0.0
 11
67.117165
 21
72.81484
 31
0.0
  0
LINE
  5
138
  8
GUIDE
 10
-80.567165
 20
-67.31484
 30
0.0
 11
-80.567165
 21
-70.31484
 31
0.0
  0
LINE
  5
139
  8
GUIDE
 10
-77.46716499999999
 20
-55.21484
 30
0.0
 11
-77.46716499999999
 21
-67.31484
 31
0.0
  0
LINE
  5
13A
  8
GUIDE
 10
-80.567165
 20
-67.31484
 30
0.0
 11
-77.46716499999999
 21
-67.31484
 31
0.0
  0
LINE
  5
13B
  8
GUIDE
 10
-80.567165
 20
-70.31484
 30
0.0
 11
-77.46716499999999
 21
-70.31484
 31
0.0
  0
LINE
  5
13C
  8
GUIDE
 10
-77.46716499999999
 20
-70.31484
 30
0.0
 11
-77.46716499999999
 21
-82.41484
 31
0.0
  0
LINE
  5
13D
  8
GUIDE
 10
-77.46716499999999
 20
-85.31484
 30
0.0
 11
-77.46716499999999
 21
-82.41484
 31
0.0
  0
LINE
  5
13E
  8
GUIDE
 10
-77.46716499999999
 20
-55.21484
 30
0.0
 11
-77.46716499999999
 21
-52.31484
 31
0.0
  0
LINE
  5
13F
  8
GUIDE
 10
-111.567165
 20
-67.31484
 30
0.0
 11
-111.567165
 21
-70.31484
 31
0.0
  0
ARC
  5
140
  8
GUIDE
 10
-74.51134
 20
-105.294749
 30
0.0
 40
53.0623
 50
93.19306899999999
 51
134.294846
  0
ARC
  5
141
  8
GUIDE
 10
-74.51134
 20
-32.334931
 30
0.0
 40
53.0623
 50
225.705154
 51
266.806931
  0
LINE
  5
142
  8
GUIDE
 10
-111.617165
 20
-31.18516
 30
0.0
 11
-111.617165
 21
42.81484
 31
0.0
  0
LINE
  5
143
  8
GUIDE
 10
-80.617165
 20
42.81484
 30
0.0
 11
-111.617165
 21
42.81484
 31
0.0
  0
LINE
  5
144
  8
GUIDE
 10
-80.617165
 20
-31.18516
 30
0.0
 11
-111.617165
 21
-31.18516
 31
0.0
  0
LINE
  5
145
  8
AXIS
 62
     1
 10
-30.767165
 20
-47.81484
 30
0.0
 11
-30.767165
 21
-59.81484
 31
0.0
  0
ENDSEC
  0
EOF
