  0
SECTION
  2
HEADER
  9
$ACADVER
  1
AC1014
  9
$ACADMAINTVER
 70
     9
  9
$DWGCODEPAGE
  3
ANSI_1252
  9
$INSBASE
 10
0.0
 20
0.0
 30
0.0
  9
$EXTMIN
 10
-82.43289322187303
 20
-92.72992997736668
 30
-0.0015258207003583
  9
$EXTMAX
 10
82.43289398604441
 20
92.72993108669357
 30
0.0000000349246037
  9
$LIMMIN
 10
0.0
 20
0.0
  9
$LIMMAX
 10
12.0
 20
9.0
  9
$ORTHOMODE
 70
     0
  9
$REGENMODE
 70
     1
  9
$FILLMODE
 70
     1
  9
$QTEXTMODE
 70
     0
  9
$MIRRTEXT
 70
     1
  9
$DRAGMODE
 70
     2
  9
$LTSCALE
 40
0.864644
  9
$OSMODE
 70
    37
  9
$ATTMODE
 70
     1
  9
$TEXTSIZE
 40
0.2
  9
$TRACEWID
 40
0.05
  9
$TEXTSTYLE
  7
STANDARD
  9
$CLAYER
  8
0
  9
$CELTYPE
  6
CONTINUOUS
  9
$CECOLOR
 62
   256
  9
$CELTSCALE
 40
1.0
  9
$DELOBJ
 70
     1
  9
$DISPSILH
 70
     0
  9
$DIMSCALE
 40
1.0
  9
$DIMASZ
 40
0.18
  9
$DIMEXO
 40
0.0625
  9
$DIMDLI
 40
0.38
  9
$DIMRND
 40
0.0
  9
$DIMDLE
 40
0.0
  9
$DIMEXE
 40
0.18
  9
$DIMTP
 40
0.0
  9
$DIMTM
 40
0.0
  9
$DIMTXT
 40
0.18
  9
$DIMCEN
 40
0.09
  9
$DIMTSZ
 40
0.0
  9
$DIMTOL
 70
     0
  9
$DIMLIM
 70
     0
  9
$DIMTIH
 70
     1
  9
$DIMTOH
 70
     1
  9
$DIMSE1
 70
     0
  9
$DIMSE2
 70
     0
  9
$DIMTAD
 70
     0
  9
$DIMZIN
 70
     0
  9
$DIMBLK
  1

  9
$DIMASO
 70
     1
  9
$DIMSHO
 70
     1
  9
$DIMPOST
  1

  9
$DIMAPOST
  1

  9
$DIMALT
 70
     0
  9
$DIMALTD
 70
     2
  9
$DIMALTF
 40
25.4
  9
$DIMLFAC
 40
1.0
  9
$DIMTOFL
 70
     0
  9
$DIMTVP
 40
0.0
  9
$DIMTIX
 70
     0
  9
$DIMSOXD
 70
     0
  9
$DIMSAH
 70
     0
  9
$DIMBLK1
  1

  9
$DIMBLK2
  1

  9
$DIMSTYLE
  2
STANDARD
  9
$DIMCLRD
 70
     0
  9
$DIMCLRE
 70
     0
  9
$DIMCLRT
 70
     0
  9
$DIMTFAC
 40
1.0
  9
$DIMGAP
 40
0.09
  9
$DIMJUST
 70
     0
  9
$DIMSD1
 70
     0
  9
$DIMSD2
 70
     0
  9
$DIMTOLJ
 70
     1
  9
$DIMTZIN
 70
     0
  9
$DIMALTZ
 70
     0
  9
$DIMALTTZ
 70
     0
  9
$DIMFIT
 70
     5
  9
$DIMUPT
 70
     0
  9
$DIMUNIT
 70
     2
  9
$DIMDEC
 70
     4
  9
$DIMTDEC
 70
     4
  9
$DIMALTU
 70
     2
  9
$DIMALTTD
 70
     2
  9
$DIMTXSTY
  7
STANDARD
  9
$DIMAUNIT
 70
     0
  9
$LUNITS
 70
     2
  9
$LUPREC
 70
     4
  9
$SKETCHINC
 40
0.1
  9
$FILLETRAD
 40
0.5
  9
$AUNITS
 70
     0
  9
$AUPREC
 70
     0
  9
$MENU
  1
.
  9
$ELEVATION
 40
0.0
  9
$PELEVATION
 40
0.0
  9
$THICKNESS
 40
0.0
  9
$LIMCHECK
 70
     0
  9
$CHAMFERA
 40
0.5
  9
$CHAMFERB
 40
0.5
  9
$CHAMFERC
 40
0.0
  9
$CHAMFERD
 40
0.0
  9
$SKPOLY
 70
     0
  9
$TDCREATE
 40
2453592.82881956
  9
$TDUPDATE
 40
2453594.777159965
  9
$TDINDWG
 40
0.0001739931
  9
$TDUSRTIMER
 40
0.0001739931
  9
$USRTIMER
 70
     1
  9
$ANGBASE
 50
0.0
  9
$ANGDIR
 70
     0
  9
$PDMODE
 70
     0
  9
$PDSIZE
 40
0.0
  9
$PLINEWID
 40
0.0
  9
$COORDS
 70
     1
  9
$SPLFRAME
 70
     0
  9
$SPLINETYPE
 70
     6
  9
$SPLINESEGS
 70
     8
  9
$ATTDIA
 70
     0
  9
$ATTREQ
 70
     1
  9
$HANDLING
 70
     1
  9
$HANDSEED
  5
25D
  9
$SURFTAB1
 70
     6
  9
$SURFTAB2
 70
     6
  9
$SURFTYPE
 70
     6
  9
$SURFU
 70
     6
  9
$SURFV
 70
     6
  9
$UCSNAME
  2

  9
$UCSORG
 10
0.0
 20
0.0
 30
0.0
  9
$UCSXDIR
 10
1.0
 20
0.0
 30
0.0
  9
$UCSYDIR
 10
0.0
 20
1.0
 30
0.0
  9
$PUCSNAME
  2

  9
$PUCSORG
 10
0.0
 20
0.0
 30
0.0
  9
$PUCSXDIR
 10
1.0
 20
0.0
 30
0.0
  9
$PUCSYDIR
 10
0.0
 20
1.0
 30
0.0
  9
$USERI1
 70
     0
  9
$USERI2
 70
     0
  9
$USERI3
 70
     0
  9
$USERI4
 70
     0
  9
$USERI5
 70
     0
  9
$USERR1
 40
0.0
  9
$USERR2
 40
0.0
  9
$USERR3
 40
0.0
  9
$USERR4
 40
0.0
  9
$USERR5
 40
0.0
  9
$WORLDVIEW
 70
     0
  9
$SHADEDGE
 70
     3
  9
$SHADEDIF
 70
    70
  9
$TILEMODE
 70
     1
  9
$MAXACTVP
 70
    48
  9
$PINSBASE
 10
0.0
 20
0.0
 30
0.0
  9
$PLIMCHECK
 70
     0
  9
$PEXTMIN
 10
1.000000000000000E+20
 20
1.000000000000000E+20
 30
1.000000000000000E+20
  9
$PEXTMAX
 10
-1.000000000000000E+20
 20
-1.000000000000000E+20
 30
-1.000000000000000E+20
  9
$PLIMMIN
 10
0.0
 20
0.0
  9
$PLIMMAX
 10
12.0
 20
9.0
  9
$UNITMODE
 70
     0
  9
$VISRETAIN
 70
     1
  9
$PLINEGEN
 70
     0
  9
$PSLTSCALE
 70
     1
  9
$TREEDEPTH
 70
  3020
  9
$PICKSTYLE
 70
     1
  9
$CMLSTYLE
  2
STANDARD
  9
$CMLJUST
 70
     0
  9
$CMLSCALE
 40
1.0
  9
$PROXYGRAPHICS
 70
     1
  9
$MEASUREMENT
 70
     0
  0
ENDSEC
  0
SECTION
  2
CLASSES
  0
CLASS
  1
DICTIONARYVAR
  2
AcDbDictionaryVar
  3
ObjectDBX Classes
 90
        0
280
     0
281
     0
  0
CLASS
  1
LWPOLYLINE
  2
AcDbPolyline
  3
AutoCAD 2000
 90
        0
280
     0
281
     1
  0
CLASS
  1
XRECORD
  2
AcDbXrecord
  3
AutoCAD 2000
 90
        0
280
     0
281
     0
  0
CLASS
  1
HATCH
  2
AcDbHatch
  3
AutoCAD 2000
 90
        0
280
     0
281
     1
  0
CLASS
  1
ACDBPLACEHOLDER
  2
AcDbPlaceHolder
  3
ObjectDBX Classes
 90
        0
280
     0
281
     0
  0
CLASS
  1
LAYOUT
  2
AcDbLayout
  3
ObjectDBX Classes
 90
        0
280
     0
281
     0
  0
ENDSEC
  0
SECTION
  2
TABLES
  0
TABLE
  2
VPORT
  5
208
330
0
100
AcDbSymbolTable
 70
     3
  0
VPORT
  5
238
102
{ACAD_XDICTIONARY
360
25B
102
}
330
208
100
AcDbSymbolTableRecord
100
AcDbViewportTableRecord
  2
*ACTIVE
 70
     0
 10
0.0
 20
0.0
 11
1.0
 21
1.0
 12
0.0000003820857017
 22
0.0000005546634441
 13
0.0
 23
0.0
 14
0.5
 24
0.5
 15
0.5
 25
0.5
 16
0.0
 26
0.0
 36
1.0
 17
0.0
 27
0.0
 37
0.0
 40
187.5594066610119
 41
1.748582230623819
 42
50.0
 43
0.0
 44
0.0
 50
0.0
 51
0.0
 71
     0
 72
   100
 73
     1
 74
     3
 75
     0
 76
     0
 77
     0
 78
     0
  0
ENDTAB
  0
TABLE
  2
LTYPE
  5
205
330
0
100
AcDbSymbolTable
 70
     9
  0
LTYPE
  5
211
330
205
100
AcDbSymbolTableRecord
100
AcDbLinetypeTableRecord
  2
BYBLOCK
 70
     0
  3

 72
    65
 73
     0
 40
0.0
  0
LTYPE
  5
212
330
205
100
AcDbSymbolTableRecord
100
AcDbLinetypeTableRecord
  2
BYLAYER
 70
     0
  3

 72
    65
 73
     0
 40
0.0
  0
LTYPE
  5
213
330
205
100
AcDbSymbolTableRecord
100
AcDbLinetypeTableRecord
  2
CONTINUOUS
 70
     0
  3
Solid Line
 72
    65
 73
     0
 40
0.0
  0
LTYPE
  5
222
330
205
100
AcDbSymbolTableRecord
100
AcDbLinetypeTableRecord
  2
MCDASH1
 70
     0
  3
MiniCad+ Generated
 72
    65
 73
     4
 40
1.156519
 49
0.578259
 74
     0
 49
-0.28913
 74
     0
 49
0.0
 74
     0
 49
-0.28913
 74
     0
  0
LTYPE
  5
223
330
205
100
AcDbSymbolTableRecord
100
AcDbLinetypeTableRecord
  2
MCDASH2
 70
     0
  3
MiniCad+ Generated
 72
    65
 73
     2
 40
3.527692
 49
2.469229
 74
     0
 49
-1.058463
 74
     0
  0
LTYPE
  5
224
330
205
100
AcDbSymbolTableRecord
100
AcDbLinetypeTableRecord
  2
MCDASH3
 70
     0
  3
MiniCad+ Generated
 72
    65
 73
     2
 40
6.35
 49
5.291537
 74
     0
 49
-1.058463
 74
     0
  0
LTYPE
  5
225
330
205
100
AcDbSymbolTableRecord
100
AcDbLinetypeTableRecord
  2
MCDASH4
 70
     0
  3
MiniCad+ Generated
 72
    65
 73
     2
 40
7.760767
 49
6.702692
 74
     0
 49
-1.058075
 74
     0
  0
LTYPE
  5
226
330
205
100
AcDbSymbolTableRecord
100
AcDbLinetypeTableRecord
  2
MCDASH5
 70
     0
  3
MiniCad+ Generated
 72
    65
 73
     2
 40
1.058075
 49
0.352692
 74
     0
 49
-0.705383
 74
     0
  0
LTYPE
  5
227
330
205
100
AcDbSymbolTableRecord
100
AcDbLinetypeTableRecord
  2
MCDASH6
 70
     0
  3
MiniCad+ Generated
 72
    65
 73
     4
 40
5.291538
 49
3.175
 74
     0
 49
-1.058075
 74
     0
 49
0.352692
 74
     0
 49
-0.705771
 74
     0
  0
LTYPE
  5
228
330
205
100
AcDbSymbolTableRecord
100
AcDbLinetypeTableRecord
  2
MCDASH7
 70
     0
  3
MiniCad+ Generated
 72
    65
 73
     6
 40
9.525001
 49
3.175
 74
     0
 49
-1.058075
 74
     0
 49
3.175
 74
     0
 49
-1.058463
 74
     0
 49
0.352692
 74
     0
 49
-0.705771
 74
     0
  0
LTYPE
  5
229
330
205
100
AcDbSymbolTableRecord
100
AcDbLinetypeTableRecord
  2
MCDASH8
 70
     0
  3
MiniCad+ Generated
 72
    65
 73
     6
 40
6.350001000000001
 49
3.175
 74
     0
 49
-1.058075
 74
     0
 49
0.352692
 74
     0
 49
-0.705771
 74
     0
 49
0.352692
 74
     0
 49
-0.705771
 74
     0
  0
ENDTAB
  0
TABLE
  2
LAYER
  5
202
330
0
100
AcDbSymbolTable
 70
     3
  0
LAYER
  5
20E
330
202
100
AcDbSymbolTableRecord
100
AcDbLayerTableRecord
  2
0
 70
     0
 62
     7
  6
CONTINUOUS
  0
LAYER
  5
22D
330
202
100
AcDbSymbolTableRecord
100
AcDbLayerTableRecord
  2
GUIDE
 70
     0
 62
     7
  6
CONTINUOUS
  0
LAYER
  5
22E
330
202
100
AcDbSymbolTableRecord
100
AcDbLayerTableRecord
  2
AXIS
 70
     0
 62
     1
  6
CONTINUOUS
  0
ENDTAB
  0
TABLE
  2
STYLE
  5
203
330
0
100
AcDbSymbolTable
 70
     1
  0
STYLE
  5
20F
330
203
100
AcDbSymbolTableRecord
100
AcDbTextStyleTableRecord
  2
STANDARD
 70
     0
 40
0.0
 41
1.0
 50
0.0
 71
     0
 42
0.2
  3
txt
  4

  0
ENDTAB
  0
TABLE
  2
VIEW
  5
206
330
0
100
AcDbSymbolTable
 70
     0
  0
ENDTAB
  0
TABLE
  2
UCS
  5
207
330
0
100
AcDbSymbolTable
 70
     0
  0
ENDTAB
  0
TABLE
  2
APPID
  5
209
330
0
100
AcDbSymbolTable
 70
     1
  0
APPID
  5
210
330
209
100
AcDbSymbolTableRecord
100
AcDbRegAppTableRecord
  2
ACAD
 70
     0
  0
ENDTAB
  0
TABLE
  2
DIMSTYLE
  5
20A
330
0
100
AcDbSymbolTable
 70
     1
  0
DIMSTYLE
105
22B
330
20A
100
AcDbSymbolTableRecord
100
AcDbDimStyleTableRecord
  2
STANDARD
 70
     0
  3

  4

  5

  6

  7

 40
1.0
 41
0.18
 42
0.0625
 43
0.38
 44
0.18
 45
0.0
 46
0.0
 47
0.0
 48
0.0
140
0.18
141
0.09
142
0.0
143
25.4
144
1.0
145
0.0
146
1.0
147
0.09
 71
     0
 72
     0
 73
     1
 74
     1
 75
     0
 76
     0
 77
     0
 78
     0
170
     0
171
     2
172
     0
173
     0
174
     0
175
     0
176
     0
177
     0
178
     0
270
     2
271
     4
272
     4
273
     2
274
     2
340
20F
275
     0
280
     0
281
     0
282
     0
283
     1
284
     0
285
     0
286
     0
287
     5
288
     0
  0
ENDTAB
  0
TABLE
  2
BLOCK_RECORD
  5
201
330
0
100
AcDbSymbolTable
 70
     6
  0
BLOCK_RECORD
  5
217
330
201
100
AcDbSymbolTableRecord
100
AcDbBlockTableRecord
  2
*MODEL_SPACE
  0
BLOCK_RECORD
  5
214
330
201
100
AcDbSymbolTableRecord
100
AcDbBlockTableRecord
  2
*PAPER_SPACE
  0
BLOCK_RECORD
  5
21C
330
201
100
AcDbSymbolTableRecord
100
AcDbBlockTableRecord
  2
$ARROW1$
  0
BLOCK_RECORD
  5
21D
330
201
100
AcDbSymbolTableRecord
100
AcDbBlockTableRecord
  2
$ARROW2$
  0
BLOCK_RECORD
  5
21E
330
201
100
AcDbSymbolTableRecord
100
AcDbBlockTableRecord
  2
$ARROW3$
  0
BLOCK_RECORD
  5
21F
330
201
100
AcDbSymbolTableRecord
100
AcDbBlockTableRecord
  2
$ARROW4$
  0
BLOCK_RECORD
  5
220
330
201
100
AcDbSymbolTableRecord
100
AcDbBlockTableRecord
  2
$ARROW5$
  0
BLOCK_RECORD
  5
221
330
201
100
AcDbSymbolTableRecord
100
AcDbBlockTableRecord
  2
A$CD241
  0
ENDTAB
  0
ENDSEC
  0
SECTION
  2
BLOCKS
  0
BLOCK
  5
231
330
217
100
AcDbEntity
  8
0
100
AcDbBlockBegin
  2
*MODEL_SPACE
 70
     0
 71
     0
 10
0.0
 20
0.0
 30
0.0
  3
*MODEL_SPACE
  1

  0
ENDBLK
  5
232
330
217
100
AcDbEntity
  8
0
100
AcDbBlockEnd
  0
BLOCK
  5
22F
330
214
100
AcDbEntity
 67
     1
  8
0
100
AcDbBlockBegin
  2
*PAPER_SPACE
 70
     0
 71
     0
 10
0.0
 20
0.0
 30
0.0
  3
*PAPER_SPACE
  1

  0
ENDBLK
  5
230
330
214
100
AcDbEntity
 67
     1
  8
0
100
AcDbBlockEnd
  0
BLOCK
  5
2D
330
21C
100
AcDbEntity
  8
0
100
AcDbBlockBegin
  2
$ARROW1$
 70
     0
 71
     0
 10
0.0
 20
0.0
 30
0.0
  3
$ARROW1$
  1

  0
LWPOLYLINE
  5
2F
330
21C
100
AcDbEntity
  8
0
 62
     1
100
AcDbPolyline
 90
        3
 70
     1
 43
0.0
 10
-25.4
 20
4.318
 10
-25.4
 20
-4.318
 10
0.0
 20
0.0
  0
ENDBLK
  5
34
330
21C
100
AcDbEntity
  8
0
100
AcDbBlockEnd
  0
BLOCK
  5
35
330
21D
100
AcDbEntity
  8
0
100
AcDbBlockBegin
  2
$ARROW2$
 70
     0
 71
     0
 10
0.0
 20
0.0
 30
0.0
  3
$ARROW2$
  1

  0
LWPOLYLINE
  5
37
330
21D
100
AcDbEntity
  8
0
 62
     1
100
AcDbPolyline
 90
        3
 70
     1
 43
0.0
 10
-25.4
 20
12.7
 10
-25.4
 20
-12.7
 10
0.0
 20
0.0
  0
ENDBLK
  5
3C
330
21D
100
AcDbEntity
  8
0
100
AcDbBlockEnd
  0
BLOCK
  5
3D
330
21E
100
AcDbEntity
  8
0
100
AcDbBlockBegin
  2
$ARROW3$
 70
     0
 71
     0
 10
0.0
 20
0.0
 30
0.0
  3
$ARROW3$
  1

  0
LWPOLYLINE
  5
3F
330
21E
100
AcDbEntity
  8
0
 62
     1
100
AcDbPolyline
 90
       38
 70
     1
 43
0.5051250000000001
 10
-6.35
 20
0.0
 10
-6.253499
 20
-1.102835
 10
-5.966995
 20
-2.171976
 10
-5.499192
 20
-3.175123
 10
-4.864305
 20
-4.08179
 10
-4.081641
 20
-4.86443
 10
-3.174956
 20
-5.499289
 10
-2.171794
 20
-5.967061
 10
-1.102644
 20
-6.253533
 10
0.000097
 20
-6.35
 10
0.0
 20
-6.35
 10
1.10274
 20
-6.253516
 10
2.171885
 20
-5.967028
 10
3.175039
 20
-5.49924
 10
4.081716
 20
-4.864367
 10
4.86443
 20
-4.081641
 10
5.499289
 20
-3.174956
 10
5.967061
 20
-2.171794
 10
6.253533
 20
-1.102644
 10
6.35
 20
0.0
 10
6.253533
 20
1.102644
 10
5.967028
 20
2.171885
 10
5.49924
 20
3.175039
 10
4.864367
 20
4.081716
 10
4.081716
 20
4.864367
 10
3.175039
 20
5.49924
 10
2.171794
 20
5.967061
 10
1.102644
 20
6.253533
 10
0.0
 20
6.35
 10
-1.102644
 20
6.253533
 10
-2.171885
 20
5.967028
 10
-3.175039
 20
5.49924
 10
-4.081716
 20
4.864367
 10
-4.864367
 20
4.081716
 10
-5.499289
 20
3.174956
 10
-5.967061
 20
2.171794
 10
-6.253533
 20
1.102644
 10
-6.35
 20
0.0
  0
ENDBLK
  5
67
330
21E
100
AcDbEntity
  8
0
100
AcDbBlockEnd
  0
BLOCK
  5
68
330
21F
100
AcDbEntity
  8
0
100
AcDbBlockBegin
  2
$ARROW4$
 70
     0
 71
     0
 10
0.0
 20
0.0
 30
0.0
  3
$ARROW4$
  1

  0
LINE
  5
6A
330
21F
100
AcDbEntity
  8
0
100
AcDbLine
 10
12.7
 20
12.7
 30
0.0
 11
-12.7
 21
-12.7
 31
0.0
  0
ENDBLK
  5
6B
330
21F
100
AcDbEntity
  8
0
100
AcDbBlockEnd
  0
BLOCK
  5
6C
330
220
100
AcDbEntity
  8
0
100
AcDbBlockBegin
  2
$ARROW5$
 70
     0
 71
     0
 10
0.0
 20
0.0
 30
0.0
  3
$ARROW5$
  1

  0
LINE
  5
6E
330
220
100
AcDbEntity
  8
0
100
AcDbLine
 10
12.7
 20
12.7
 30
0.0
 11
-12.7
 21
-12.7
 31
0.0
  0
LINE
  5
6F
330
220
100
AcDbEntity
  8
0
100
AcDbLine
 10
-12.7
 20
12.7
 30
0.0
 11
12.7
 21
-12.7
 31
0.0
  0
ENDBLK
  5
70
330
220
100
AcDbEntity
  8
0
100
AcDbBlockEnd
  0
BLOCK
  5
71
330
221
100
AcDbEntity
  8
0
100
AcDbBlockBegin
  2
A$CD241
 70
     0
 71
     0
 10
0.0
 20
0.0
 30
0.0
  3
A$CD241
  1

  0
LWPOLYLINE
  5
73
330
221
100
AcDbEntity
  8
0
 62
     1
100
AcDbPolyline
 90
       47
 70
     1
 43
0.0
 10
16.36815
 20
1.74689
 10
16.36815
 20
32.24689
 10
16.38046
 20
32.40331
 10
16.41709
 20
32.55589
 10
16.47713
 20
32.70086
 10
16.55911
 20
32.83466
 10
16.66103
 20
32.95399
 10
16.66104
 20
32.954
 10
16.78035
 20
33.0559
 10
16.91414
 20
33.13789
 10
17.05911
 20
33.19794
 10
17.2117
 20
33.23458
 10
17.36813
 20
33.24689
 10
17.36815
 20
33.24689
 10
26.86815
 20
33.24689
 10
27.02458
 20
33.23458
 10
27.17716
 20
33.19795
 10
27.32214
 20
33.1379
 10
27.45594
 20
33.05591
 10
27.57526
 20
32.954
 10
27.67717
 20
32.83468
 10
27.75916
 20
32.70089
 10
27.8192
 20
32.55592
 10
27.85584
 20
32.40334
 10
27.86815
 20
32.24689
 10
27.86815
 20
1.74689
 10
27.85584
 20
1.59046
 10
27.81921
 20
1.43788
 10
27.75916
 20
1.2929
 10
27.67718
 20
1.15911
 10
27.57526
 20
1.03978
 10
27.45594
 20
0.93787
 10
27.32215
 20
0.85588
 10
27.17718
 20
0.79584
 10
27.0246
 20
0.7592
 10
26.86815
 20
0.7468900000000001
 10
17.36815
 20
0.7468900000000001
 10
17.21172
 20
0.7592
 10
17.05914
 20
0.79583
 10
16.91416
 20
0.85588
 10
16.78037
 20
0.93786
 10
16.66104
 20
1.03978
 10
16.55913
 20
1.1591
 10
16.47714
 20
1.29289
 10
16.4171
 20
1.43786
 10
16.38046
 20
1.59044
 10
16.36815
 20
1.74689
  0
LWPOLYLINE
  5
A4
330
221
100
AcDbEntity
  8
0
 62
     1
100
AcDbPolyline
 90
        4
 70
     1
 43
0.0
 10
19.61815
 20
33.24689
 10
19.61815
 20
33.89689
 10
24.61815
 20
33.89689
 10
24.61815
 20
33.24689
  0
LWPOLYLINE
  5
AA
330
221
100
AcDbEntity
  8
0
 62
     1
100
AcDbPolyline
 90
        4
 70
     1
 43
0.0
 10
19.61815
 20
0.09689
 10
19.61815
 20
0.7468900000000001
 10
24.61815
 20
0.7468900000000001
 10
24.61815
 20
0.09689
  0
ENDBLK
  5
B0
330
221
100
AcDbEntity
  8
0
100
AcDbBlockEnd
  0
ENDSEC
  0
SECTION
  2
ENTITIES
  0
LINE
  5
B1
330
217
100
AcDbEntity
  8
GUIDE
100
AcDbLine
 10
-82.37372499999999
 20
-74.71326000000001
 30
0.0
 11
-82.37372499999999
 21
-77.71326000000001
 31
0.0
  0
LINE
  5
B2
330
217
100
AcDbEntity
  8
GUIDE
100
AcDbLine
 10
17.226275
 20
-62.61326
 30
0.0
 11
17.226275
 21
-89.81326
 31
0.0
  0
LINE
  5
B3
330
217
100
AcDbEntity
  8
GUIDE
100
AcDbLine
 10
20.226275
 20
-74.71326000000001
 30
0.0
 11
20.226275
 21
-77.71326000000001
 31
0.0
  0
LINE
  5
B4
330
217
100
AcDbEntity
  8
GUIDE
100
AcDbLine
 10
-55.913665
 20
-70.21326000000001
 30
0.0
 11
-55.913665
 21
-72.21326000000001
 31
0.0
  0
LINE
  5
B5
330
217
100
AcDbEntity
  8
GUIDE
100
AcDbLine
 10
-9.233775
 20
-70.21326000000001
 30
0.0
 11
-9.233775
 21
-72.21326000000001
 31
0.0
  0
LINE
  5
B6
330
217
100
AcDbEntity
  8
GUIDE
100
AcDbLine
 10
-79.273725
 20
-89.81326
 30
0.0
 11
17.226275
 21
-89.81326
 31
0.0
  0
LINE
  5
B7
330
217
100
AcDbEntity
  8
GUIDE
100
AcDbLine
 10
-79.273725
 20
-62.61326
 30
0.0
 11
17.226275
 21
-62.61326
 31
0.0
  0
LINE
  5
B8
330
217
100
AcDbEntity
  8
GUIDE
100
AcDbLine
 10
-55.913665
 20
-70.21326000000001
 30
0.0
 11
-9.233775
 21
-70.21326000000001
 31
0.0
  0
LINE
  5
B9
330
217
100
AcDbEntity
  8
GUIDE
100
AcDbLine
 10
-55.913665
 20
-82.21326000000001
 30
0.0
 11
-9.233775
 21
-82.21326000000001
 31
0.0
  0
LINE
  5
BA
330
217
100
AcDbEntity
  8
GUIDE
100
AcDbLine
 10
-55.913665
 20
-72.21326000000001
 30
0.0
 11
-9.233775
 21
-72.21326000000001
 31
0.0
  0
LINE
  5
BB
330
217
100
AcDbEntity
  8
GUIDE
100
AcDbLine
 10
-55.913665
 20
-80.21326000000001
 30
0.0
 11
-9.233775
 21
-80.21326000000001
 31
0.0
  0
LINE
  5
BC
330
217
100
AcDbEntity
  8
GUIDE
100
AcDbLine
 10
-55.913665
 20
-80.21326000000001
 30
0.0
 11
-55.913665
 21
-82.21326000000001
 31
0.0
  0
LINE
  5
BD
330
217
100
AcDbEntity
  8
GUIDE
100
AcDbLine
 10
-9.233775
 20
-80.21326000000001
 30
0.0
 11
-9.233775
 21
-82.21326000000001
 31
0.0
  0
LINE
  5
BE
330
217
100
AcDbEntity
  8
GUIDE
100
AcDbLine
 10
-36.073725
 20
-72.21326000000001
 30
0.0
 11
-36.073725
 21
-80.21326000000001
 31
0.0
  0
LINE
  5
BF
330
217
100
AcDbEntity
  8
GUIDE
100
AcDbLine
 10
-29.073725
 20
-72.21326000000001
 30
0.0
 11
-29.073725
 21
-80.21326000000001
 31
0.0
  0
LINE
  5
C0
330
217
100
AcDbEntity
  8
GUIDE
100
AcDbLine
 10
17.226275
 20
-77.71326000000001
 30
0.0
 11
20.226275
 21
-77.71326000000001
 31
0.0
  0
LINE
  5
C1
330
217
100
AcDbEntity
  8
GUIDE
100
AcDbLine
 10
17.226275
 20
-74.71326000000001
 30
0.0
 11
20.226275
 21
-74.71326000000001
 31
0.0
  0
LINE
  5
C2
330
217
100
AcDbEntity
  8
GUIDE
100
AcDbLine
 10
-79.273725
 20
-62.61326
 30
0.0
 11
-79.273725
 21
-74.71326000000001
 31
0.0
  0
LINE
  5
C3
330
217
100
AcDbEntity
  8
GUIDE
100
AcDbLine
 10
-82.37372499999999
 20
-74.71326000000001
 30
0.0
 11
-79.273725
 21
-74.71326000000001
 31
0.0
  0
LINE
  5
C4
330
217
100
AcDbEntity
  8
GUIDE
100
AcDbLine
 10
-82.37372499999999
 20
-77.71326000000001
 30
0.0
 11
-79.273725
 21
-77.71326000000001
 31
0.0
  0
LINE
  5
C5
330
217
100
AcDbEntity
  8
GUIDE
100
AcDbLine
 10
-79.273725
 20
-77.71326000000001
 30
0.0
 11
-79.273725
 21
-89.81326
 31
0.0
  0
LINE
  5
C6
330
217
100
AcDbEntity
  8
GUIDE
100
AcDbLine
 10
-37.573725
 20
-70.21326000000001
 30
0.0
 11
-27.573725
 21
-70.21326000000001
 31
0.0
  0
ARC
  5
C7
330
217
100
AcDbEntity
  8
GUIDE
100
AcDbCircle
 10
-32.573725
 20
-80.6247
 30
0.0
 40
3.5
100
AcDbArc
 50
206.992554
 51
333.007431
  0
ARC
  5
C8
330
217
100
AcDbEntity
  8
GUIDE
100
AcDbCircle
 10
-32.573725
 20
-78.06919000000001
 30
0.0
 40
9.095050000000001
100
AcDbArc
 50
59.741226
 51
120.258774
  0
LINE
  5
C9
330
217
100
AcDbEntity
  8
GUIDE
100
AcDbLine
 10
-82.42372500000001
 20
40.21326
 30
0.0
 11
17.276275
 21
40.21326
 31
0.0
  0
LINE
  5
CA
330
217
100
AcDbEntity
  8
GUIDE
100
AcDbLine
 10
17.276275
 20
40.21326
 30
0.0
 11
17.276275
 21
-33.78674
 31
0.0
  0
LINE
  5
CB
330
217
100
AcDbEntity
  8
GUIDE
100
AcDbLine
 10
-82.42372500000001
 20
-33.78674
 30
0.0
 11
-82.42372500000001
 21
40.21326
 31
0.0
  0
LINE
  5
CC
330
217
100
AcDbEntity
  8
GUIDE
100
AcDbLine
 10
20.276275
 20
35.46326
 30
0.0
 11
20.276275
 21
-29.03674
 31
0.0
  0
CIRCLE
  5
CD
330
217
100
AcDbEntity
  8
GUIDE
100
AcDbCircle
 10
-32.523725
 20
86.71326000000001
 30
0.0
 40
3.5
  0
LINE
  5
CE
330
217
100
AcDbEntity
  8
GUIDE
100
AcDbLine
 10
-53.127175
 20
41.98379
 30
0.0
 11
-38.302955
 21
88.32585
 31
0.0
  0
ARC
  5
CF
330
217
100
AcDbEntity
  8
GUIDE
100
AcDbCircle
 10
-55.863665
 20
43.21326
 30
0.0
 40
3.0
100
AcDbArc
 50
270.0
 51
335.806305
  0
ARC
  5
D0
330
217
100
AcDbEntity
  8
GUIDE
100
AcDbCircle
 10
-9.183775000000001
 20
43.21326
 30
0.0
 40
3.0
100
AcDbArc
 50
204.193695
 51
270.0
  0
ARC
  5
D1
330
217
100
AcDbEntity
  8
GUIDE
100
AcDbCircle
 10
-32.523725
 20
86.71326000000001
 30
0.0
 40
6.0
100
AcDbArc
 50
15.59079
 51
164.40921
  0
LINE
  5
D2
330
217
100
AcDbEntity
  8
GUIDE
100
AcDbLine
 10
-11.920265
 20
41.98379
 30
0.0
 11
-26.744485
 21
88.32585
 31
0.0
  0
LINE
  5
D3
330
217
100
AcDbEntity
  8
GUIDE
100
AcDbLine
 10
-35.987825
 20
87.21326000000001
 30
0.0
 11
-29.059615
 21
87.21326000000001
 31
0.0
  0
LINE
  5
D4
330
217
100
AcDbEntity
  8
GUIDE
100
AcDbLine
 10
-35.987825
 20
86.21326000000001
 30
0.0
 11
-29.023725
 21
86.21326000000001
 31
0.0
  0
LINE
  5
D5
330
217
100
AcDbEntity
  8
GUIDE
100
AcDbLine
 10
67.42372500000001
 20
33.21326
 30
0.0
 11
67.42372500000001
 21
-27.29934
 31
0.0
  0
ARC
  5
D6
330
217
100
AcDbEntity
  8
GUIDE
100
AcDbCircle
 10
69.754795
 20
33.72586
 30
0.0
 40
2.38677
100
AcDbArc
 50
110.377258
 51
192.40181
  0
ARC
  5
D7
330
217
100
AcDbEntity
  8
GUIDE
100
AcDbCircle
 10
69.754795
 20
-27.29934
 30
0.0
 40
2.38677
100
AcDbArc
 50
167.59819
 51
249.622742
  0
LWPOLYLINE
  5
D8
330
217
100
AcDbEntity
  8
GUIDE
100
AcDbPolyline
 90
       13
 70
     0
 43
0.0
 10
79.523725
 20
40.21326
 10
79.523725
 20
36.96326
 10
79.511415
 20
36.80683
 10
79.474785
 20
36.65425
 10
79.41473499999999
 20
36.50927
 10
79.33275500000001
 20
36.37548
 10
79.230835
 20
36.25615
 10
79.111515
 20
36.15424
 10
78.97772500000001
 20
36.07225
 10
78.83275500000001
 20
36.01221
 10
78.68017500000001
 20
35.97557
 10
78.523725
 20
35.96326
 10
68.92372500000001
 20
35.96326
  0
LWPOLYLINE
  5
E7
330
217
100
AcDbEntity
  8
GUIDE
100
AcDbPolyline
 90
       15
 70
     0
 43
0.0
 10
68.92372500000001
 20
-29.53674
 10
78.523725
 20
-29.53674
 10
78.691535
 20
-29.58221
 10
78.851325
 20
-29.6507
 10
78.99997500000001
 20
-29.74086
 10
79.13455500000001
 20
-29.85094
 10
79.252425
 20
-29.97876
 10
79.25243500000001
 20
-29.97877
 10
79.351265
 20
-30.12181
 10
79.429115
 20
-30.27727
 10
79.484455
 20
-30.44209
 10
79.516205
 20
-30.61303
 10
79.523725
 20
-30.78675
 10
79.523725
 20
-30.78674
 10
79.523725
 20
-33.78674
  0
LINE
  5
F8
330
217
100
AcDbEntity
  8
GUIDE
100
AcDbLine
 10
79.523725
 20
40.21326
 30
0.0
 11
52.323725
 21
40.21326
 31
0.0
  0
LINE
  5
F9
330
217
100
AcDbEntity
  8
GUIDE
100
AcDbLine
 10
64.42372500000001
 20
33.21326
 30
0.0
 11
64.42372500000001
 21
-27.29934
 31
0.0
  0
LWPOLYLINE
  5
FA
330
217
100
AcDbEntity
  8
GUIDE
100
AcDbPolyline
 90
       15
 70
     0
 43
0.0
 10
62.923725
 20
-29.53674
 10
53.323725
 20
-29.53674
 10
53.155885
 20
-29.58222
 10
52.996085
 20
-29.65071
 10
52.847445
 20
-29.74089
 10
52.712865
 20
-29.85096
 10
52.595025
 20
-29.97876
 10
52.595015
 20
-29.97877
 10
52.496175
 20
-30.12183
 10
52.418325
 20
-30.27729
 10
52.362995
 20
-30.44211
 10
52.331245
 20
-30.61305
 10
52.323725
 20
-30.78675
 10
52.323725
 20
-30.78674
 10
52.323725
 20
-33.78674
  0
ARC
  5
10B
330
217
100
AcDbEntity
  8
GUIDE
100
AcDbCircle
 10
62.092655
 20
-27.29934
 30
0.0
 40
2.38677
100
AcDbArc
 50
290.377258
 51
12.40181
  0
LWPOLYLINE
  5
10C
330
217
100
AcDbEntity
  8
GUIDE
100
AcDbPolyline
 90
       14
 70
     0
 43
0.0
 10
52.323725
 20
40.21326
 10
52.323725
 20
36.96326
 10
52.336035
 20
36.80681
 10
52.372675
 20
36.65423
 10
52.432715
 20
36.50926
 10
52.514705
 20
36.37547
 10
52.616615
 20
36.25615
 10
52.735945
 20
36.15423
 10
52.869735
 20
36.07225
 10
53.014715
 20
36.0122
 10
53.167295
 20
35.97557
 10
53.323745
 20
35.96326
 10
53.323725
 20
35.96326
 10
62.923725
 20
35.96326
  0
ARC
  5
11C
330
217
100
AcDbEntity
  8
GUIDE
100
AcDbCircle
 10
62.092655
 20
33.72586
 30
0.0
 40
2.38677
100
AcDbArc
 50
347.59819
 51
69.622742
  0
LINE
  5
11D
330
217
100
AcDbEntity
  8
GUIDE
100
AcDbLine
 10
71.92372500000001
 20
91.71326000000001
 30
0.0
 11
69.92372500000001
 21
91.71326000000001
 31
0.0
  0
LINE
  5
11E
330
217
100
AcDbEntity
  8
GUIDE
100
AcDbLine
 10
59.923725
 20
91.71326000000001
 30
0.0
 11
59.923725
 21
81.71326000000001
 31
0.0
  0
LINE
  5
11F
330
217
100
AcDbEntity
  8
GUIDE
100
AcDbLine
 10
71.92372500000001
 20
91.71326000000001
 30
0.0
 11
71.92372500000001
 21
81.71326000000001
 31
0.0
  0
LINE
  5
120
330
217
100
AcDbEntity
  8
GUIDE
100
AcDbLine
 10
59.923725
 20
81.71326000000001
 30
0.0
 11
53.323725
 21
40.21326
 31
0.0
  0
LINE
  5
121
330
217
100
AcDbEntity
  8
GUIDE
100
AcDbLine
 10
71.92372500000001
 20
81.71326000000001
 30
0.0
 11
78.523725
 21
40.21326
 31
0.0
  0
LINE
  5
122
330
217
100
AcDbEntity
  8
GUIDE
100
AcDbLine
 10
61.923725
 20
91.71326000000001
 30
0.0
 11
61.923725
 21
81.71326000000001
 31
0.0
  0
LINE
  5
123
330
217
100
AcDbEntity
  8
GUIDE
100
AcDbLine
 10
69.92372500000001
 20
91.71326000000001
 30
0.0
 11
69.92372500000001
 21
81.71326000000001
 31
0.0
  0
ARC
  5
124
330
217
100
AcDbEntity
  8
GUIDE
100
AcDbCircle
 10
61.512285
 20
86.71326000000001
 30
0.0
 40
3.5
100
AcDbArc
 50
116.992554
 51
243.007431
  0
ARC
  5
125
330
217
100
AcDbEntity
  8
GUIDE
100
AcDbCircle
 10
64.067795
 20
86.71326000000001
 30
0.0
 40
9.095050000000001
100
AcDbArc
 50
329.741226
 51
30.258774
  0
LINE
  5
126
330
217
100
AcDbEntity
  8
GUIDE
100
AcDbLine
 10
59.923725
 20
81.71326000000001
 30
0.0
 11
59.923725
 21
40.21326
 31
0.0
  0
LINE
  5
127
330
217
100
AcDbEntity
  8
GUIDE
100
AcDbLine
 10
71.92372500000001
 20
81.71326000000001
 30
0.0
 11
71.92372500000001
 21
40.21326
 31
0.0
  0
LINE
  5
128
330
217
100
AcDbEntity
  8
GUIDE
100
AcDbLine
 10
69.92372500000001
 20
89.71326000000001
 30
0.0
 11
61.923725
 21
89.71326000000001
 31
0.0
  0
LINE
  5
129
330
217
100
AcDbEntity
  8
GUIDE
100
AcDbLine
 10
61.923725
 20
81.71326000000001
 30
0.0
 11
61.923725
 21
40.21326
 31
0.0
  0
LINE
  5
12A
330
217
100
AcDbEntity
  8
GUIDE
100
AcDbLine
 10
69.92372500000001
 20
81.71326000000001
 30
0.0
 11
69.92372500000001
 21
40.21326
 31
0.0
  0
LINE
  5
12B
330
217
100
AcDbEntity
  8
GUIDE
100
AcDbLine
 10
61.923725
 20
91.71326000000001
 30
0.0
 11
59.923725
 21
91.71326000000001
 31
0.0
  0
LINE
  5
12C
330
217
100
AcDbEntity
  8
GUIDE
100
AcDbLine
 10
17.276275
 20
-29.03674
 30
0.0
 11
20.276275
 21
-29.03674
 31
0.0
  0
LINE
  5
12D
330
217
100
AcDbEntity
  8
GUIDE
100
AcDbLine
 10
17.276275
 20
35.46326
 30
0.0
 11
20.276275
 21
35.46326
 31
0.0
  0
LINE
  5
12E
330
217
100
AcDbEntity
  8
GUIDE
100
AcDbLine
 10
49.423725
 20
-33.78674
 30
0.0
 11
49.423725
 21
40.21326
 31
0.0
  0
LINE
  5
12F
330
217
100
AcDbEntity
  8
GUIDE
100
AcDbLine
 10
82.42372500000001
 20
-33.78674
 30
0.0
 11
82.42372500000001
 21
40.21326
 31
0.0
  0
LINE
  5
130
330
217
100
AcDbEntity
  8
GUIDE
100
AcDbLine
 10
49.423725
 20
40.21326
 30
0.0
 11
52.323725
 21
40.21326
 31
0.0
  0
LINE
  5
131
330
217
100
AcDbEntity
  8
GUIDE
100
AcDbLine
 10
49.423725
 20
-33.78674
 30
0.0
 11
52.323725
 21
-33.78674
 31
0.0
  0
LINE
  5
132
330
217
100
AcDbEntity
  8
GUIDE
100
AcDbLine
 10
82.42372500000001
 20
-33.78674
 30
0.0
 11
79.523725
 21
-33.78674
 31
0.0
  0
LINE
  5
133
330
217
100
AcDbEntity
  8
GUIDE
100
AcDbLine
 10
82.42372500000001
 20
40.21326
 30
0.0
 11
79.523725
 21
40.21326
 31
0.0
  0
LINE
  5
134
330
217
100
AcDbEntity
  8
GUIDE
100
AcDbLine
 10
79.523725
 20
36.54905
 30
0.0
 11
79.523725
 21
-30.78674
 31
0.0
  0
LINE
  5
135
330
217
100
AcDbEntity
  8
GUIDE
100
AcDbLine
 10
52.323725
 20
36.96326
 30
0.0
 11
52.323725
 21
-30.78674
 31
0.0
  0
LINE
  5
136
330
217
100
AcDbEntity
  8
GUIDE
100
AcDbLine
 10
17.226275
 20
-59.71326
 30
0.0
 11
-79.273725
 21
-59.71326
 31
0.0
  0
LINE
  5
137
330
217
100
AcDbEntity
  8
GUIDE
100
AcDbLine
 10
17.226275
 20
-92.71326000000001
 30
0.0
 11
-79.273725
 21
-92.71326000000001
 31
0.0
  0
LINE
  5
138
330
217
100
AcDbEntity
  8
GUIDE
100
AcDbLine
 10
-79.273725
 20
-62.61326
 30
0.0
 11
-79.273725
 21
-59.71326
 31
0.0
  0
LINE
  5
139
330
217
100
AcDbEntity
  8
GUIDE
100
AcDbLine
 10
17.226275
 20
-62.61326
 30
0.0
 11
17.226275
 21
-59.71326
 31
0.0
  0
LINE
  5
13A
330
217
100
AcDbEntity
  8
GUIDE
100
AcDbLine
 10
17.226275
 20
-89.81326
 30
0.0
 11
17.226275
 21
-92.71326000000001
 31
0.0
  0
LINE
  5
13B
330
217
100
AcDbEntity
  8
GUIDE
100
AcDbLine
 10
-79.273725
 20
-89.81326
 30
0.0
 11
-79.273725
 21
-92.71326000000001
 31
0.0
  0
LINE
  5
13C
330
217
100
AcDbEntity
  8
GUIDE
100
AcDbLine
 10
69.92372500000001
 20
80.21326000000001
 30
0.0
 11
61.923725
 21
80.21326000000001
 31
0.0
  0
LINE
  5
13D
330
217
100
AcDbEntity
  8
GUIDE
100
AcDbLine
 10
-82.42372500000001
 20
-33.78674
 30
0.0
 11
17.276275
 21
-33.78674
 31
0.0
  0
LINE
  5
13E
330
217
100
AcDbEntity
  8
GUIDE
100
AcDbLine
 10
-58.073725
 20
-33.78674
 30
0.0
 11
-58.073725
 21
-42.28674
 31
0.0
  0
LINE
  5
13F
330
217
100
AcDbEntity
  8
GUIDE
100
AcDbLine
 10
-7.073725
 20
-33.78674
 30
0.0
 11
-7.073725
 21
-42.28674
 31
0.0
  0
LINE
  5
140
330
217
100
AcDbEntity
  8
GUIDE
100
AcDbLine
 10
-58.073725
 20
-42.28674
 30
0.0
 11
-7.073725
 21
-42.28674
 31
0.0
  0
LINE
  5
141
330
217
100
AcDbEntity
  8
GUIDE
100
AcDbLine
 10
-58.073725
 20
-35.98674
 30
0.0
 11
-7.073725
 21
-35.98674
 31
0.0
  0
LINE
  5
142
330
217
100
AcDbEntity
  8
GUIDE
100
AcDbLine
 10
52.323725
 20
-33.78674
 30
0.0
 11
79.523725
 21
-33.78674
 31
0.0
  0
LINE
  5
143
330
217
100
AcDbEntity
  8
GUIDE
100
AcDbLine
 10
57.923725
 20
-42.28674
 30
0.0
 11
73.92372500000001
 21
-42.28674
 31
0.0
  0
LINE
  5
144
330
217
100
AcDbEntity
  8
GUIDE
100
AcDbLine
 10
57.923725
 20
-35.98674
 30
0.0
 11
57.923725
 21
-42.28674
 31
0.0
  0
LINE
  5
145
330
217
100
AcDbEntity
  8
GUIDE
100
AcDbLine
 10
61.273725
 20
-33.78674
 30
0.0
 11
61.273725
 21
-35.98674
 31
0.0
  0
LINE
  5
146
330
217
100
AcDbEntity
  8
GUIDE
100
AcDbLine
 10
73.92372500000001
 20
-35.98674
 30
0.0
 11
73.92372500000001
 21
-42.28674
 31
0.0
  0
LINE
  5
147
330
217
100
AcDbEntity
  8
GUIDE
100
AcDbLine
 10
70.573725
 20
-33.78674
 30
0.0
 11
70.573725
 21
-35.98674
 31
0.0
  0
LINE
  5
148
330
217
100
AcDbEntity
  8
GUIDE
100
AcDbLine
 10
57.923725
 20
-35.98674
 30
0.0
 11
61.273725
 21
-35.98674
 31
0.0
  0
LINE
  5
149
330
217
100
AcDbEntity
  8
GUIDE
100
AcDbLine
 10
70.573725
 20
-35.98674
 30
0.0
 11
73.92372500000001
 21
-35.98674
 31
0.0
  0
LINE
  5
14A
330
217
100
AcDbEntity
  8
AXIS
 62
     1
100
AcDbLine
 10
-32.573725
 20
-70.21326000000001
 30
0.0
 11
-32.573725
 21
-82.21326000000001
 31
0.0
  0
ENDSEC
  0
SECTION
  2
OBJECTS
  0
DICTIONARY
  5
20C
330
0
100
AcDbDictionary
  3
ACAD_GROUP
350
20D
  3
ACAD_LAYOUT
350
239
  3
ACAD_MLINESTYLE
350
21A
  3
ACDBHEADERROUNDTRIPXREC
350
23C
  3
ACDBVARIABLEDICTIONARY
350
233
  0
DICTIONARY
  5
25B
330
238
100
AcDbDictionary
280
     1
  3
ACAD_XREC_ROUNDTRIP
360
25C
  0
DICTIONARY
  5
20D
102
{ACAD_REACTORS
330
20C
102
}
330
20C
100
AcDbDictionary
  0
DICTIONARY
  5
239
102
{ACAD_REACTORS
330
20C
102
}
330
20C
100
AcDbDictionary
  0
DICTIONARY
  5
21A
102
{ACAD_REACTORS
330
20C
102
}
330
20C
100
AcDbDictionary
  3
STANDARD
350
21B
  0
DICTIONARY
  5
23C
102
{ACAD_REACTORS
330
20C
102
}
330
20C
100
AcDbDictionary
  3
CEPSNTYPE
350
244
  3
DIMSTYLEDATA
350
25A
  3
FINGERPRINTGUID
350
245
  3
HYPERLINKBASE
350
23F
  3
INSUNITS
350
243
  3
LAYOUTDICT
350
241
  3
LWETCUNION
350
242
  3
PSVPSCALE
350
247
  3
PUCSBASE
350
24A
  3
PUCSORGBACK
350
250
  3
PUCSORGBOTTOM
350
24C
  3
PUCSORGFRONT
350
24F
  3
PUCSORGLEFT
350
24D
  3
PUCSORGRIGHT
350
24E
  3
PUCSORGTOP
350
24B
  3
PUCSORTHOREF
350
248
  3
PUCSORTHOVIEW
350
249
  3
STYLESHEET
350
240
  3
TSTACKALIGN
350
23D
  3
TSTACKSIZE
350
23E
  3
UCSBASE
350
253
  3
UCSORGBACK
350
259
  3
UCSORGBOTTOM
350
255
  3
UCSORGFRONT
350
258
  3
UCSORGLEFT
350
256
  3
UCSORGRIGHT
350
257
  3
UCSORGTOP
350
254
  3
UCSORTHOREF
350
251
  3
UCSORTHOVIEW
350
252
  3
VERSIONGUID
350
246
  0
DICTIONARY
  5
233
102
{ACAD_REACTORS
330
20C
102
}
330
20C
100
AcDbDictionary
  3
DIMADEC
350
234
  0
XRECORD
  5
25C
102
{ACAD_REACTORS
330
25B
102
}
330
25B
100
AcDbXrecord
102
UCS
 74
     0
 71
     1
 10
0.0
 20
0.0
 30
0.0
 10
1.0
 20
0.0
 30
0.0
 10
0.0
 20
1.0
 30
0.0
146
0.0
 79
     0
102
VIEW
281
     0
  0
MLINESTYLE
  5
21B
102
{ACAD_REACTORS
330
21A
102
}
330
21A
100
AcDbMlineStyle
  2
STANDARD
 70
     0
  3

 62
   256
 51
90.0
 52
90.0
 71
     2
 49
0.5
 62
   256
  6
BYLAYER
 49
-0.5
 62
   256
  6
BYLAYER
  0
XRECORD
  5
244
102
{ACAD_REACTORS
330
23C
102
}
330
23C
100
AcDbXrecord
 90
        0
  0
XRECORD
  5
25A
102
{ACAD_REACTORS
330
23C
102
}
330
23C
100
AcDbXrecord
1000
DSTYLE
1002
{
1070
   279
 70
     2
1070
   340
340
20F
1002
}
  0
XRECORD
  5
245
102
{ACAD_REACTORS
330
23C
102
}
330
23C
100
AcDbXrecord
  1
{FAEB1C30-E019-11D5-929B-00C0DF256EC4}
  0
XRECORD
  5
23F
102
{ACAD_REACTORS
330
23C
102
}
330
23C
100
AcDbXrecord
  1

  0
XRECORD
  5
243
102
{ACAD_REACTORS
330
23C
102
}
330
23C
100
AcDbXrecord
 90
        0
  0
XRECORD
  5
241
102
{ACAD_REACTORS
330
23C
102
}
330
23C
100
AcDbXrecord
340
239
  0
XRECORD
  5
242
102
{ACAD_REACTORS
330
23C
102
}
330
23C
100
AcDbXrecord
 90
    10781
  0
XRECORD
  5
247
102
{ACAD_REACTORS
330
23C
102
}
330
23C
100
AcDbXrecord
 40
0.0
  0
XRECORD
  5
24A
102
{ACAD_REACTORS
330
23C
102
}
330
23C
100
AcDbXrecord
340
0
  0
XRECORD
  5
250
102
{ACAD_REACTORS
330
23C
102
}
330
23C
100
AcDbXrecord
 10
0.0
 20
0.0
 30
0.0
  0
XRECORD
  5
24C
102
{ACAD_REACTORS
330
23C
102
}
330
23C
100
AcDbXrecord
 10
0.0
 20
0.0
 30
0.0
  0
XRECORD
  5
24F
102
{ACAD_REACTORS
330
23C
102
}
330
23C
100
AcDbXrecord
 10
0.0
 20
0.0
 30
0.0
  0
XRECORD
  5
24D
102
{ACAD_REACTORS
330
23C
102
}
330
23C
100
AcDbXrecord
 10
0.0
 20
0.0
 30
0.0
  0
XRECORD
  5
24E
102
{ACAD_REACTORS
330
23C
102
}
330
23C
100
AcDbXrecord
 10
0.0
 20
0.0
 30
0.0
  0
XRECORD
  5
24B
102
{ACAD_REACTORS
330
23C
102
}
330
23C
100
AcDbXrecord
 10
0.0
 20
0.0
 30
0.0
  0
XRECORD
  5
248
102
{ACAD_REACTORS
330
23C
102
}
330
23C
100
AcDbXrecord
340
0
  0
XRECORD
  5
249
102
{ACAD_REACTORS
330
23C
102
}
330
23C
100
AcDbXrecord
 70
     0
  0
XRECORD
  5
240
102
{ACAD_REACTORS
330
23C
102
}
330
23C
100
AcDbXrecord
  1

  0
XRECORD
  5
23D
102
{ACAD_REACTORS
330
23C
102
}
330
23C
100
AcDbXrecord
 90
        1
  0
XRECORD
  5
23E
102
{ACAD_REACTORS
330
23C
102
}
330
23C
100
AcDbXrecord
 90
       70
  0
XRECORD
  5
253
102
{ACAD_REACTORS
330
23C
102
}
330
23C
100
AcDbXrecord
340
0
  0
XRECORD
  5
259
102
{ACAD_REACTORS
330
23C
102
}
330
23C
100
AcDbXrecord
 10
0.0
 20
0.0
 30
0.0
  0
XRECORD
  5
255
102
{ACAD_REACTORS
330
23C
102
}
330
23C
100
AcDbXrecord
 10
0.0
 20
0.0
 30
0.0
  0
XRECORD
  5
258
102
{ACAD_REACTORS
330
23C
102
}
330
23C
100
AcDbXrecord
 10
0.0
 20
0.0
 30
0.0
  0
XRECORD
  5
256
102
{ACAD_REACTORS
330
23C
102
}
330
23C
100
AcDbXrecord
 10
0.0
 20
0.0
 30
0.0
  0
XRECORD
  5
257
102
{ACAD_REACTORS
330
23C
102
}
330
23C
100
AcDbXrecord
 10
0.0
 20
0.0
 30
0.0
  0
XRECORD
  5
254
102
{ACAD_REACTORS
330
23C
102
}
330
23C
100
AcDbXrecord
 10
0.0
 20
0.0
 30
0.0
  0
XRECORD
  5
251
102
{ACAD_REACTORS
330
23C
102
}
330
23C
100
AcDbXrecord
340
0
  0
XRECORD
  5
252
102
{ACAD_REACTORS
330
23C
102
}
330
23C
100
AcDbXrecord
 70
     0
  0
XRECORD
  5
246
102
{ACAD_REACTORS
330
23C
102
}
330
23C
100
AcDbXrecord
  1
{FAEB1C32-E019-11D5-929B-00C0DF256EC4}
  0
DICTIONARYVAR
  5
234
102
{ACAD_REACTORS
330
233
102
}
330
233
100
DictionaryVariables
280
     0
  1
0
  0
ENDSEC
  0
EOF
