  0
SECTION
  2
HEADER
  9
$ACADVER
  1
AC1009
  9
$DWGCODEPAGE
  3
ansi_1252
  9
$INSBASE
 10
0.0
 20
0.0
 30
0.0
  9
$EXTMIN
 10
-95.2734
 20
-138.30581
 30
0.0
  9
$EXTMAX
 10
95.2734
 20
138.30581
 30
0.0
  9
$LIMMIN
 10
0.0
 20
0.0
  9
$LIMMAX
 10
12.0
 20
9.0
  9
$ORTHOMODE
 70
     0
  9
$REGENMODE
 70
     1
  9
$FILLMODE
 70
     1
  9
$QTEXTMODE
 70
     0
  9
$MIRRTEXT
 70
     1
  9
$DRAGMODE
 70
     2
  9
$LTSCALE
 40
1.003964
  9
$OSMODE
 70
    37
  9
$ATTMODE
 70
     1
  9
$TEXTSIZE
 40
0.2
  9
$TRACEWID
 40
0.05
  9
$TEXTSTYLE
  7
STANDARD
  9
$CLAYER
  8
0
  9
$CELTYPE
  6
BYBLOCK
  9
$CECOLOR
 62
   256
  9
$DIMSCALE
 40
1.0
  9
$DIMASZ
 40
0.18
  9
$DIMEXO
 40
0.0625
  9
$DIMDLI
 40
0.38
  9
$DIMRND
 40
0.0
  9
$DIMDLE
 40
0.0
  9
$DIMEXE
 40
0.18
  9
$DIMTP
 40
0.0
  9
$DIMTM
 40
0.0
  9
$DIMTXT
 40
0.18
  9
$DIMCEN
 40
0.09
  9
$DIMTSZ
 40
0.0
  9
$DIMTOL
 70
     0
  9
$DIMLIM
 70
     0
  9
$DIMTIH
 70
     1
  9
$DIMTOH
 70
     1
  9
$DIMSE1
 70
     0
  9
$DIMSE2
 70
     0
  9
$DIMTAD
 70
     0
  9
$DIMZIN
 70
     0
  9
$DIMBLK
  1

  9
$DIMASO
 70
     1
  9
$DIMSHO
 70
     1
  9
$DIMPOST
  1

  9
$DIMAPOST
  1

  9
$DIMALT
 70
     0
  9
$DIMALTD
 70
     2
  9
$DIMALTF
 40
25.4
  9
$DIMLFAC
 40
1.0
  9
$DIMTOFL
 70
     0
  9
$DIMTVP
 40
0.0
  9
$DIMTIX
 70
     0
  9
$DIMSOXD
 70
     0
  9
$DIMSAH
 70
     0
  9
$DIMBLK1
  1

  9
$DIMBLK2
  1

  9
$DIMSTYLE
  2
STANDARD
  9
$DIMCLRD
 70
     0
  9
$DIMCLRE
 70
     0
  9
$DIMCLRT
 70
     0
  9
$DIMTFAC
 40
1.0
  9
$DIMGAP
 40
0.09
  9
$LUNITS
 70
     2
  9
$LUPREC
 70
     4
  9
$SKETCHINC
 40
0.1
  9
$FILLETRAD
 40
0.5
  9
$AUNITS
 70
     0
  9
$AUPREC
 70
     0
  9
$MENU
  1
.
  9
$ELEVATION
 40
0.0
  9
$PELEVATION
 40
0.0
  9
$THICKNESS
 40
0.0
  9
$LIMCHECK
 70
     0
  9
$CHAMFERA
 40
0.5
  9
$CHAMFERB
 40
0.5
  9
$SKPOLY
 70
     0
  9
$TDCREATE
 40
2453619.496119838
  9
$TDUPDATE
 40
2453619.496119849
  9
$TDINDWG
 40
0.0000000116
  9
$TDUSRTIMER
 40
0.0000000116
  9
$USRTIMER
 70
     1
  9
$ANGBASE
 50
0.0
  9
$ANGDIR
 70
     0
  9
$PDMODE
 70
     0
  9
$PDSIZE
 40
0.0
  9
$PLINEWID
 40
0.0
  9
$COORDS
 70
     1
  9
$SPLFRAME
 70
     0
  9
$SPLINETYPE
 70
     6
  9
$SPLINESEGS
 70
     8
  9
$ATTDIA
 70
     0
  9
$ATTREQ
 70
     1
  9
$HANDLING
 70
     1
  9
$HANDSEED
  5
17F
  9
$SURFTAB1
 70
     6
  9
$SURFTAB2
 70
     6
  9
$SURFTYPE
 70
     6
  9
$SURFU
 70
     6
  9
$SURFV
 70
     6
  9
$UCSNAME
  2

  9
$UCSORG
 10
0.0
 20
0.0
 30
0.0
  9
$UCSXDIR
 10
1.0
 20
0.0
 30
0.0
  9
$UCSYDIR
 10
0.0
 20
1.0
 30
0.0
  9
$PUCSNAME
  2

  9
$PUCSORG
 10
0.0
 20
0.0
 30
0.0
  9
$PUCSXDIR
 10
1.0
 20
0.0
 30
0.0
  9
$PUCSYDIR
 10
0.0
 20
1.0
 30
0.0
  9
$USERI1
 70
     0
  9
$USERI2
 70
     0
  9
$USERI3
 70
     0
  9
$USERI4
 70
     0
  9
$USERI5
 70
     0
  9
$USERR1
 40
0.0
  9
$USERR2
 40
0.0
  9
$USERR3
 40
0.0
  9
$USERR4
 40
0.0
  9
$USERR5
 40
0.0
  9
$WORLDVIEW
 70
     1
  9
$SHADEDGE
 70
     3
  9
$SHADEDIF
 70
    70
  9
$TILEMODE
 70
     1
  9
$MAXACTVP
 70
    64
  9
$PLIMCHECK
 70
     0
  9
$PEXTMIN
 10
1.000000000000000E+20
 20
1.000000000000000E+20
 30
1.000000000000000E+20
  9
$PEXTMAX
 10
-1.000000000000000E+20
 20
-1.000000000000000E+20
 30
-1.000000000000000E+20
  9
$PLIMMIN
 10
0.0
 20
0.0
  9
$PLIMMAX
 10
12.0
 20
9.0
  9
$UNITMODE
 70
     0
  9
$VISRETAIN
 70
     1
  9
$PLINEGEN
 70
     0
  9
$PSLTSCALE
 70
     1
  0
ENDSEC
  0
SECTION
  2
TABLES
  0
TABLE
  2
VPORT
 70
     1
  0
VPORT
  2
*ACTIVE
 70
     0
 10
0.0
 20
0.0
 11
1.0
 21
1.0
 12
10.42990654205607
 22
4.5
 13
0.0
 23
0.0
 14
0.5
 24
0.5
 15
0.5
 25
0.5
 16
0.0
 26
0.0
 36
1.0
 17
0.0
 27
0.0
 37
0.0
 40
9.0
 41
1.972972972850329
 42
50.0
 43
0.0
 44
0.0
 50
0.0
 51
0.0
 71
     0
 72
   100
 73
     1
 74
     3
 75
     0
 76
     0
 77
     0
 78
     0
  0
ENDTAB
  0
TABLE
  2
LTYPE
 70
    10
  0
LTYPE
  2
CONTINUOUS
 70
     0
  3
Solid Line
 72
    65
 73
     0
 40
0.0
  0
LTYPE
  2
MCDASH1
 70
     0
  3
MiniCad+ Generated
 72
    65
 73
     6
 40
9.067664000000001
 49
2.590927
 49
-1.29527
 49
2.590927
 49
-1.29527
 49
0.0
 49
-1.29527
  0
LTYPE
  2
MCDASH2
 70
     0
  3
MiniCad+ Generated
 72
    65
 73
     4
 40
10.362934
 49
6.477124
 49
-1.29527
 49
1.29527
 49
-1.29527
  0
LTYPE
  2
MCDASH3
 70
     0
  3
MiniCad+ Generated
 72
    65
 73
     4
 40
5.181467
 49
2.590927
 49
-1.29527
 49
0.0
 49
-1.29527
  0
LTYPE
  2
MCDASH4
 70
     0
  3
MiniCad+ Generated
 72
    65
 73
     2
 40
3.886197
 49
2.590927
 49
-1.29527
  0
LTYPE
  2
MCDASH5
 70
     0
  3
MiniCad+ Generated
 72
    65
 73
     6
 40
6.476737
 49
2.590927
 49
-1.29527
 49
0.0
 49
-1.29527
 49
0.0
 49
-1.29527
  0
LTYPE
  2
MCDASH6
 70
     0
  3
MiniCad+ Generated
 72
    65
 73
     4
 40
2.59054
 49
0.0
 49
-1.29527
 49
0.0
 49
-1.29527
  0
LTYPE
  2
MCDASH7
 70
     0
  3
MiniCad+ Generated
 72
    65
 73
     2
 40
1.942905
 49
1.29527
 49
-0.647635
  0
LTYPE
  2
MCDASH8
 70
     0
  3
MiniCad+ Generated
 72
    65
 73
     6
 40
12.953474
 49
6.477124
 49
-1.29527
 49
1.29527
 49
-1.29527
 49
1.29527
 49
-1.29527
  0
LTYPE
  2
MCDASH9
 70
     0
  3
MiniCad+ Generated
 72
    65
 73
     2
 40
6.135672000000001
 49
4.090448
 49
-2.045224
  0
ENDTAB
  0
TABLE
  2
LAYER
 70
     2
  0
LAYER
  2
0
 70
     0
 62
     7
  6
CONTINUOUS
  0
LAYER
  2
1
 70
     0
 62
     7
  6
CONTINUOUS
  0
ENDTAB
  0
TABLE
  2
STYLE
 70
     1
  0
STYLE
  2
STANDARD
 70
     0
 40
0.0
 41
1.0
 50
0.0
 71
     0
 42
0.2
  3
txt
  4

  0
ENDTAB
  0
TABLE
  2
VIEW
 70
     0
  0
ENDTAB
  0
TABLE
  2
UCS
 70
     0
  0
ENDTAB
  0
TABLE
  2
APPID
 70
     1
  0
APPID
  2
ACAD
 70
     0
  0
ENDTAB
  0
TABLE
  2
DIMSTYLE
 70
     1
  0
DIMSTYLE
  2
STANDARD
 70
     0
  3

  4

  5

  6

  7

 40
1.0
 41
0.18
 42
0.0625
 43
0.38
 44
0.18
 45
0.0
 46
0.0
 47
0.0
 48
0.0
140
0.18
141
0.09
142
0.0
143
25.4
144
1.0
145
0.0
146
1.0
147
0.09
 71
     0
 72
     0
 73
     1
 74
     1
 75
     0
 76
     0
 77
     0
 78
     0
170
     0
171
     2
172
     0
173
     0
174
     0
175
     0
176
     0
177
     0
178
     0
  0
ENDTAB
  0
ENDSEC
  0
SECTION
  2
BLOCKS
  0
BLOCK
  8
0
  2
$MODEL_SPACE
 70
     0
 10
0.0
 20
0.0
 30
0.0
  3
$MODEL_SPACE
  1

  0
ENDBLK
  5
17A
  8
0
  0
BLOCK
 67
     1
  8
0
  2
$PAPER_SPACE
 70
     0
 10
0.0
 20
0.0
 30
0.0
  3
$PAPER_SPACE
  1

  0
ENDBLK
  5
178
 67
     1
  8
0
  0
BLOCK
  8
0
  2
$ARROW1$
 70
     0
 10
0.0
 20
0.0
 30
0.0
  3
$ARROW1$
  1

  0
SOLID
  5
2F
  8
0
 62
     0
 10
-25.4
 20
4.318
 30
0.0
 11
-25.4
 21
-4.318
 31
0.0
 12
0.0
 22
0.0
 32
0.0
 13
0.0
 23
0.0
 33
0.0
  0
ENDBLK
  5
165
  8
0
  0
BLOCK
  8
0
  2
$ARROW2$
 70
     0
 10
0.0
 20
0.0
 30
0.0
  3
$ARROW2$
  1

  0
SOLID
  5
33
  8
0
 62
     0
 10
-25.4
 20
12.7
 30
0.0
 11
-25.4
 21
-12.7
 31
0.0
 12
0.0
 22
0.0
 32
0.0
 13
0.0
 23
0.0
 33
0.0
  0
ENDBLK
  5
167
  8
0
  0
BLOCK
  8
0
  2
$ARROW3$
 70
     0
 10
0.0
 20
0.0
 30
0.0
  3
$ARROW3$
  1

  0
POLYLINE
  5
37
  8
0
  6
BYBLOCK
 62
     0
 66
     1
 10
0.0
 20
0.0
 30
0.0
 70
     1
 40
0.5
 41
0.5
  0
VERTEX
  5
103
  8
0
  6
BYBLOCK
 62
     0
 10
-6.35
 20
0.0
 30
0.0
 42
1.0
  0
VERTEX
  5
104
  8
0
  6
BYBLOCK
 62
     0
 10
6.35
 20
0.0
 30
0.0
 42
1.0
  0
SEQEND
  5
168
  8
0
  6
BYBLOCK
 62
     0
  0
ENDBLK
  5
16A
  8
0
  0
BLOCK
  8
0
  2
$ARROW4$
 70
     0
 10
0.0
 20
0.0
 30
0.0
  3
$ARROW4$
  1

  0
LINE
  5
3E
  8
0
  6
BYBLOCK
 62
     0
 10
12.7
 20
12.7
 30
0.0
 11
-12.7
 21
-12.7
 31
0.0
  0
ENDBLK
  5
16C
  8
0
  0
BLOCK
  8
0
  2
$ARROW5$
 70
     0
 10
0.0
 20
0.0
 30
0.0
  3
$ARROW5$
  1

  0
LINE
  5
42
  8
0
  6
BYBLOCK
 62
     0
 10
12.7
 20
12.7
 30
0.0
 11
-12.7
 21
-12.7
 31
0.0
  0
LINE
  5
43
  8
0
  6
BYBLOCK
 62
     0
 10
-12.7
 20
12.7
 30
0.0
 11
12.7
 21
-12.7
 31
0.0
  0
ENDBLK
  5
16E
  8
0
  0
BLOCK
  8
0
  2
SIMBOLO_N__2
 70
     0
 10
0.0
 20
0.0
 30
0.0
  3
SIMBOLO_N__2
  1

  0
LINE
  5
47
  8
0
 62
     6
 10
15.0
 20
5.57
 30
0.0
 11
15.0
 21
-7.95246
 31
0.0
  0
LINE
  5
48
  8
0
 62
     6
 10
-15.0
 20
5.37993
 30
0.0
 11
-15.0
 21
-7.95246
 31
0.0
  0
LINE
  5
49
  8
0
 62
     6
 10
-15.75
 20
-27.0
 30
0.0
 11
-23.25
 21
-27.0
 31
0.0
  0
LINE
  5
4A
  8
0
 62
     6
 10
15.75
 20
-27.0
 30
0.0
 11
-15.75
 21
-27.0
 31
0.0
  0
LINE
  5
4B
  8
0
 62
     6
 10
-15.0
 20
5.37993
 30
0.0
 11
-14.78201
 21
11.75
 31
0.0
  0
LINE
  5
4C
  8
0
 62
     6
 10
-23.25
 20
-27.0
 30
0.0
 11
-31.75
 21
-27.0
 31
0.0
  0
LINE
  5
4D
  8
0
 62
     6
 10
-31.75
 20
-27.0
 30
0.0
 11
-37.5
 21
-27.0
 31
0.0
  0
LINE
  5
4E
  8
0
  6
MCDASH7
 10
-34.25
 20
-22.50146
 30
0.0
 11
-20.75
 21
-22.50146
 31
0.0
  0
LINE
  5
4F
  8
0
  6
MCDASH7
 10
-34.25
 20
-14.47774
 30
0.0
 11
-34.25
 21
-22.50146
 31
0.0
  0
LINE
  5
50
  8
0
  6
MCDASH7
 10
-31.75
 20
-27.0
 30
0.0
 11
-31.75
 21
-22.50146
 31
0.0
  0
LINE
  5
51
  8
0
  6
MCDASH7
 10
-23.25
 20
-27.0
 30
0.0
 11
-23.25
 21
-22.50146
 31
0.0
  0
LINE
  5
52
  8
0
  6
MCDASH7
 10
-20.75
 20
-22.50146
 30
0.0
 11
-20.75
 21
-13.05883
 31
0.0
  0
LINE
  5
53
  8
0
 62
     6
 10
1.25
 20
25.0
 30
0.0
 11
11.24135
 21
25.0
 31
0.0
  0
LINE
  5
54
  8
0
 62
     6
 10
1.25
 20
7.90174
 30
0.0
 11
1.25
 21
25.0
 31
0.0
  0
LINE
  5
55
  8
0
 62
     6
 10
-1.25
 20
7.90174
 30
0.0
 11
-1.25
 21
25.0
 31
0.0
  0
LINE
  5
56
  8
0
 62
     6
 10
-11.23921
 20
25.0
 30
0.0
 11
-1.25
 21
25.0
 31
0.0
  0
LINE
  5
57
  8
0
 62
     6
 10
-37.5
 20
-27.0
 30
0.0
 11
-37.33252
 21
-17.405
 31
0.0
  0
LINE
  5
58
  8
0
 62
     6
 10
-14.78201
 20
11.75
 30
0.0
 11
-14.23508
 21
22.15744
 31
0.0
  0
LINE
  5
59
  8
0
 62
     6
 10
14.77657
 20
12.0
 30
0.0
 11
15.0
 21
5.57
 31
0.0
  0
LINE
  5
5A
  8
0
 62
     6
 10
14.23713
 20
22.15907
 30
0.0
 11
14.24557
 21
22.0
 31
0.0
  0
LINE
  5
5B
  8
0
 62
     6
 10
-34.25
 20
-14.47774
 30
0.0
 11
-20.75
 21
-13.05883
 31
0.0
  0
LINE
  5
5C
  8
0
 62
     6
 10
-34.64771
 20
-14.51954
 30
0.0
 11
-34.25
 21
-14.47774
 31
0.0
  0
LINE
  5
5D
  8
0
 62
     6
 10
14.24557
 20
22.0
 30
0.0
 11
14.77657
 21
12.0
 31
0.0
  0
LINE
  5
5E
  8
0
 62
     6
 10
23.25
 20
-27.0
 30
0.0
 11
15.75
 21
-27.0
 31
0.0
  0
LINE
  5
5F
  8
0
 62
     6
 10
31.75
 20
-27.0
 30
0.0
 11
23.25
 21
-27.0
 31
0.0
  0
LINE
  5
60
  8
0
 62
     6
 10
37.5
 20
-27.0
 30
0.0
 11
31.75
 21
-27.0
 31
0.0
  0
LINE
  5
61
  8
0
  6
MCDASH7
 10
20.75
 20
-22.50146
 30
0.0
 11
34.25
 21
-22.50146
 31
0.0
  0
LINE
  5
62
  8
0
  6
MCDASH7
 10
34.25
 20
-22.50146
 30
0.0
 11
34.25
 21
-14.47774
 31
0.0
  0
LINE
  5
63
  8
0
  6
MCDASH7
 10
31.75
 20
-22.50146
 30
0.0
 11
31.75
 21
-27.0
 31
0.0
  0
LINE
  5
64
  8
0
  6
MCDASH7
 10
23.25
 20
-22.50146
 30
0.0
 11
23.25
 21
-27.0
 31
0.0
  0
LINE
  5
65
  8
0
  6
MCDASH7
 10
20.75
 20
-13.05883
 30
0.0
 11
20.75
 21
-22.50146
 31
0.0
  0
LINE
  5
66
  8
0
 62
     6
 10
37.33252
 20
-17.405
 30
0.0
 11
37.5
 21
-27.0
 31
0.0
  0
LINE
  5
67
  8
0
 62
     6
 10
19.47736
 20
-12.92507
 30
0.0
 11
20.75
 21
-13.05883
 31
0.0
  0
LINE
  5
68
  8
0
 62
     6
 10
34.25
 20
-14.47774
 30
0.0
 11
34.64771
 21
-14.51954
 31
0.0
  0
LINE
  5
69
  8
0
 62
     6
 10
-20.75
 20
-13.05883
 30
0.0
 11
-19.47736
 21
-12.92507
 31
0.0
  0
LINE
  5
6A
  8
0
 62
     6
 10
20.75
 20
-13.05883
 30
0.0
 11
34.25
 21
-14.47774
 31
0.0
  0
ARC
  5
6B
  8
0
 62
     6
 10
-20.0
 20
-7.95246
 30
0.0
 40
5.0
 50
276.0
 51
0.0
  0
ARC
  5
6C
  8
0
 62
     6
 10
-11.23921
 20
22.0
 30
0.0
 40
3.0
 50
175.219803
 51
176.991714
  0
ARC
  5
6D
  8
0
 62
     6
 10
11.24135
 20
22.0
 30
0.0
 40
3.0
 50
3.039536
 51
90.0
  0
ARC
  5
6E
  8
0
 62
     6
 10
-11.23921
 20
22.0
 30
0.0
 40
3.0
 50
90.0
 51
175.219803
  0
ARC
  5
6F
  8
0
 62
     6
 10
20.0
 20
-7.95246
 30
0.0
 40
5.0
 50
180.0
 51
264.0
  0
ARC
  5
70
  8
0
 62
     6
 10
-34.33412
 20
-17.50311
 30
0.0
 40
3.0
 50
96.00000000000001
 51
178.125977
  0
ARC
  5
71
  8
0
 62
     6
 10
34.33413
 20
-17.50311
 30
0.0
 40
3.0
 50
1.874023
 51
84.0
  0
ARC
  5
72
  8
0
 62
     6
 10
0.0
 20
0.0
 30
0.0
 40
8.0
 50
151.045746
 51
208.954254
  0
ARC
  5
73
  8
0
 62
     6
 10
0.0
 20
0.0
 30
0.0
 40
8.0
 50
241.044998
 51
298.954498
  0
ARC
  5
74
  8
0
 62
     6
 10
0.0
 20
0.0
 30
0.0
 40
8.0
 50
331.045242
 51
28.954758
  0
LINE
  5
75
  8
0
 62
     6
 10
-7.0
 20
-7.0
 30
0.0
 11
-7.0
 21
-3.87296
 31
0.0
  0
LINE
  5
76
  8
0
 62
     6
 10
-7.0
 20
3.87285
 30
0.0
 11
-7.0
 21
7.0
 31
0.0
  0
LINE
  5
77
  8
0
 62
     6
 10
7.0
 20
-7.0
 30
0.0
 11
3.87298
 21
-7.0
 31
0.0
  0
LINE
  5
78
  8
0
 62
     6
 10
-3.87296
 20
-7.0
 30
0.0
 11
-7.0
 21
-7.0
 31
0.0
  0
LINE
  5
79
  8
0
 62
     6
 10
7.0
 20
7.0
 30
0.0
 11
7.0
 21
3.87296
 31
0.0
  0
LINE
  5
7A
  8
0
 62
     6
 10
7.0
 20
-3.87298
 30
0.0
 11
7.0
 21
-7.0
 31
0.0
  0
LINE
  5
7B
  8
0
 62
     6
 10
-7.0
 20
7.0
 30
0.0
 11
-3.87306
 21
7.0
 31
0.0
  0
LINE
  5
7C
  8
0
 62
     6
 10
3.87285
 20
7.0
 30
0.0
 11
7.0
 21
7.0
 31
0.0
  0
ARC
  5
7D
  8
0
 62
     6
 10
0.0
 20
0.0
 30
0.0
 40
8.0
 50
61.04550199999999
 51
81.01068100000001
  0
ARC
  5
7E
  8
0
 62
     6
 10
0.0
 20
0.0
 30
0.0
 40
8.0
 50
98.989319
 51
118.955002
  0
ENDBLK
  5
170
  8
0
  0
BLOCK
  8
0
  2
SIMBOLO_N__3
 70
     0
 10
0.0
 20
0.0
 30
0.0
  3
SIMBOLO_N__3
  1

  0
LINE
  5
82
  8
0
 62
     6
 10
-11.1066
 20
-19.425
 30
0.0
 11
11.10661
 21
-19.425
 31
0.0
  0
LINE
  5
83
  8
0
 62
     6
 10
-11.1066
 20
19.425
 30
0.0
 11
11.10661
 21
19.425
 31
0.0
  0
LINE
  5
84
  8
0
 62
     6
 10
-17.5
 20
20.0
 30
0.0
 11
11.10661
 21
20.0
 31
0.0
  0
LINE
  5
85
  8
0
 62
     6
 10
-14.0
 20
-20.0
 30
0.0
 11
-13.5
 21
-20.0
 31
0.0
  0
LINE
  5
86
  8
0
 62
     6
 10
14.10661
 20
16.425
 30
0.0
 11
14.10661
 21
-16.425
 31
0.0
  0
LINE
  5
87
  8
0
 62
     6
 10
-14.1066
 20
16.425
 30
0.0
 11
-14.1066
 21
-16.425
 31
0.0
  0
LINE
  5
88
  8
0
 62
     6
 10
1.25
 20
20.0
 30
0.0
 11
1.25
 21
-20.0
 31
0.0
  0
LINE
  5
89
  8
0
 62
     6
 10
-1.25
 20
20.0
 30
0.0
 11
-1.25
 21
-20.0
 31
0.0
  0
LINE
  5
8A
  8
0
 62
     6
 10
13.98542
 20
-20.0
 30
0.0
 11
13.48542
 21
-20.0
 31
0.0
  0
LINE
  5
8B
  8
0
 62
     6
 10
13.48542
 20
20.0
 30
0.0
 11
13.98542
 21
20.0
 31
0.0
  0
LINE
  5
8C
  8
0
 62
     6
 10
16.29491
 20
17.0
 30
0.0
 11
16.29491
 21
-17.0
 31
0.0
  0
LINE
  5
8D
  8
0
 62
     6
 10
-16.29482
 20
17.0
 30
0.0
 11
-16.29482
 21
-17.0
 31
0.0
  0
LINE
  5
8E
  8
0
 62
     6
 10
13.48542
 20
-20.0
 30
0.0
 11
13.98542
 21
-20.0
 31
0.0
  0
LINE
  5
8F
  8
0
 62
     6
 10
11.10661
 20
-20.0
 30
0.0
 11
13.48542
 21
-20.0
 31
0.0
  0
LINE
  5
90
  8
0
 62
     6
 10
-17.5
 20
-20.0
 30
0.0
 11
-14.0
 21
-20.0
 31
0.0
  0
LINE
  5
91
  8
0
 62
     6
 10
-14.0
 20
-20.0
 30
0.0
 11
-13.5
 21
-20.0
 31
0.0
  0
LINE
  5
92
  8
0
 62
     6
 10
11.10661
 20
20.0
 30
0.0
 11
13.48542
 21
20.0
 31
0.0
  0
LINE
  5
93
  8
0
 62
     6
 10
13.48542
 20
20.0
 30
0.0
 11
13.98542
 21
20.0
 31
0.0
  0
LINE
  5
94
  8
0
 62
     6
 10
-13.5
 20
-20.0
 30
0.0
 11
11.10661
 21
-20.0
 31
0.0
  0
LINE
  5
95
  8
0
 62
     6
 10
-14.0
 20
-20.0
 30
0.0
 11
-13.5
 21
-20.0
 31
0.0
  0
LINE
  5
96
  8
0
 62
     6
 10
13.48542
 20
-20.0
 30
0.0
 11
13.98542
 21
-20.0
 31
0.0
  0
LINE
  5
97
  8
0
 62
     6
 10
13.98542
 20
-20.0
 30
0.0
 11
17.5
 21
-20.0
 31
0.0
  0
LINE
  5
98
  8
0
 62
     6
 10
13.98542
 20
20.0
 30
0.0
 11
17.5
 21
20.0
 31
0.0
  0
LINE
  5
99
  8
0
 62
     6
 10
13.48542
 20
20.0
 30
0.0
 11
13.98542
 21
20.0
 31
0.0
  0
ARC
  5
9A
  8
0
 62
     6
 10
-17.5
 20
0.0
 30
0.0
 40
20.0
 50
90.0
 51
270.0
  0
ARC
  5
9B
  8
0
 62
     6
 10
17.5
 20
0.0
 30
0.0
 40
20.0
 50
270.0
 51
90.0
  0
CIRCLE
  5
9C
  8
0
 62
     6
 10
-27.5
 20
0.0
 30
0.0
 40
6.5
  0
CIRCLE
  5
9D
  8
0
 62
     6
 10
-27.5
 20
0.0
 30
0.0
 40
4.25
  0
CIRCLE
  5
9E
  8
0
 62
     6
 10
27.5
 20
0.0
 30
0.0
 40
6.5
  0
CIRCLE
  5
9F
  8
0
 62
     6
 10
27.5
 20
0.0
 30
0.0
 40
4.25
  0
ARC
  5
A0
  8
0
 62
     6
 10
-13.29482
 20
-17.0
 30
0.0
 40
3.0
 50
180.0
 51
270.0
  0
ARC
  5
A1
  8
0
 62
     6
 10
-11.1066
 20
-16.425
 30
0.0
 40
3.0
 50
180.0
 51
270.0
  0
ARC
  5
A2
  8
0
 62
     6
 10
11.10661
 20
-16.425
 30
0.0
 40
3.0
 50
270.0
 51
0.0
  0
ARC
  5
A3
  8
0
 62
     6
 10
13.29491
 20
-17.0
 30
0.0
 40
3.0
 50
270.0
 51
0.0
  0
ARC
  5
A4
  8
0
 62
     6
 10
11.10661
 20
16.425
 30
0.0
 40
3.0
 50
0.0
 51
90.0
  0
ARC
  5
A5
  8
0
 62
     6
 10
13.29491
 20
17.0
 30
0.0
 40
3.0
 50
0.0
 51
90.0
  0
ARC
  5
A6
  8
0
 62
     6
 10
-13.29482
 20
17.0
 30
0.0
 40
3.0
 50
90.0
 51
180.0
  0
ARC
  5
A7
  8
0
 62
     6
 10
-11.1066
 20
16.425
 30
0.0
 40
3.0
 50
90.0
 51
180.0
  0
LINE
  5
A8
  8
0
  6
MCDASH7
 10
-7.99999
 20
20.0
 30
0.0
 11
-7.99999
 21
-20.0
 31
0.0
  0
LINE
  5
A9
  8
0
  6
MCDASH7
 10
8.00001
 20
20.0
 30
0.0
 11
8.00001
 21
-20.0
 31
0.0
  0
ENDBLK
  5
172
  8
0
  0
BLOCK
  8
0
  2
SIMBOLO_N__4
 70
     0
 10
0.0
 20
0.0
 30
0.0
  3
SIMBOLO_N__4
  1

  0
LINE
  5
AD
  8
0
 62
     6
 10
-20.0
 20
0.0
 30
0.0
 11
20.0
 21
0.0
 31
0.0
  0
LINE
  5
AE
  8
0
 62
     6
 10
-20.0
 20
0.0
 30
0.0
 11
-20.0
 21
32.0
 31
0.0
  0
LINE
  5
AF
  8
0
 62
     6
 10
0.0
 20
52.0
 30
0.0
 11
0.0
 21
52.0
 31
0.0
  0
LINE
  5
B0
  8
0
 62
     6
 10
20.0
 20
0.0
 30
0.0
 11
20.0
 21
32.0
 31
0.0
  0
LINE
  5
B1
  8
0
 62
     6
 10
20.0
 20
12.48046
 30
0.0
 11
-20.0
 21
12.48046
 31
0.0
  0
LINE
  5
B2
  8
0
 62
     6
 10
-20.0
 20
32.57
 30
0.0
 11
20.0
 21
32.57
 31
0.0
  0
ARC
  5
B3
  8
0
 62
     6
 10
0.0
 20
32.0
 30
0.0
 40
20.0
 50
90.0
 51
180.0
  0
ARC
  5
B4
  8
0
 62
     6
 10
0.0
 20
32.0
 30
0.0
 40
20.0
 50
0.0
 51
90.0
  0
LINE
  5
B5
  8
0
  6
MCDASH7
 62
     6
 10
-6.75
 20
4.49854
 30
0.0
 11
6.75
 21
4.49854
 31
0.0
  0
LINE
  5
B6
  8
0
  6
MCDASH7
 62
     6
 10
4.25
 20
4.49854
 30
0.0
 11
4.25
 21
0.0
 31
0.0
  0
LINE
  5
B7
  8
0
  6
MCDASH7
 62
     6
 10
-4.25
 20
4.49854
 30
0.0
 11
-4.25
 21
0.0
 31
0.0
  0
LINE
  5
B8
  8
0
  6
MCDASH7
 62
     6
 10
-6.75
 20
10.42496
 30
0.0
 11
-6.75
 21
4.49854
 31
0.0
  0
LINE
  5
B9
  8
0
  6
MCDASH7
 62
     6
 10
6.75
 20
4.49854
 30
0.0
 11
6.75
 21
10.42496
 31
0.0
  0
LINE
  5
BA
  8
0
  6
MCDASH7
 10
-20.0
 20
19.0
 30
0.0
 11
20.0
 21
19.0
 31
0.0
  0
POLYLINE
  5
BB
  8
0
 62
     6
 66
     1
 10
0.0
 20
0.0
 30
0.0
 70
     1
  0
VERTEX
  5
106
  8
0
 62
     6
 10
4.2
 20
46.42462
 30
0.0
  0
VERTEX
  5
107
  8
0
 62
     6
 10
0.0
 20
48.84948
 30
0.0
  0
VERTEX
  5
108
  8
0
 62
     6
 10
-4.2
 20
46.42462
 30
0.0
  0
VERTEX
  5
109
  8
0
 62
     6
 10
-4.2
 20
41.57486
 30
0.0
  0
VERTEX
  5
10A
  8
0
 62
     6
 10
0.0
 20
39.15
 30
0.0
  0
VERTEX
  5
10B
  8
0
 62
     6
 10
4.2
 20
41.57486
 30
0.0
  0
SEQEND
  5
173
  8
0
 62
     6
  0
ARC
  5
C3
  8
0
 62
     6
 10
0.0
 20
43.99974
 30
0.0
 40
2.4
 50
180.0
 51
90.0
  0
CIRCLE
  5
C4
  8
0
 62
     6
 10
0.0
 20
43.99974
 30
0.0
 40
1.8
  0
LINE
  5
C5
  8
0
  6
MCDASH7
 10
-19.36492
 20
35.0
 30
0.0
 11
19.36492
 21
35.0
 31
0.0
  0
POLYLINE
  5
C6
  8
0
 62
     6
 66
     1
 10
0.0
 20
0.0
 30
0.0
 70
     1
  0
VERTEX
  5
10D
  8
0
 62
     6
 10
0.0
 20
8.36946
 30
0.0
  0
VERTEX
  5
10E
  8
0
 62
     6
 10
-1.1722
 20
8.400690000000001
 30
0.0
  0
VERTEX
  5
10F
  8
0
 62
     6
 10
-2.3087
 20
8.49343
 30
0.0
  0
VERTEX
  5
110
  8
0
 62
     6
 10
-3.37504
 20
8.64485
 30
0.0
  0
VERTEX
  5
111
  8
0
 62
     6
 10
-4.33883
 20
8.85036
 30
0.0
  0
VERTEX
  5
112
  8
0
 62
     6
 10
-5.17085
 20
9.103730000000001
 30
0.0
  0
VERTEX
  5
113
  8
0
 62
     6
 10
-5.8457
 20
9.397220000000001
 30
0.0
  0
VERTEX
  5
114
  8
0
 62
     6
 10
-6.34294
 20
9.72195
 30
0.0
  0
VERTEX
  5
115
  8
0
 62
     6
 10
-6.64746
 20
10.06803
 30
0.0
  0
VERTEX
  5
116
  8
0
 62
     6
 10
-6.75
 20
10.42496
 30
0.0
  0
VERTEX
  5
117
  8
0
 62
     6
 10
-6.64746
 20
10.78189
 30
0.0
  0
VERTEX
  5
118
  8
0
 62
     6
 10
-6.3429
 20
11.128
 30
0.0
  0
VERTEX
  5
119
  8
0
 62
     6
 10
-5.84565
 20
11.45272
 30
0.0
  0
VERTEX
  5
11A
  8
0
 62
     6
 10
-5.17078
 20
11.74621
 30
0.0
  0
VERTEX
  5
11B
  8
0
 62
     6
 10
-4.33883
 20
11.99956
 30
0.0
  0
VERTEX
  5
11C
  8
0
 62
     6
 10
-3.37504
 20
12.20507
 30
0.0
  0
VERTEX
  5
11D
  8
0
 62
     6
 10
-2.3086
 20
12.3565
 30
0.0
  0
VERTEX
  5
11E
  8
0
 62
     6
 10
-1.1721
 20
12.44923
 30
0.0
  0
VERTEX
  5
11F
  8
0
 62
     6
 10
0.0
 20
12.48046
 30
0.0
  0
VERTEX
  5
120
  8
0
 62
     6
 10
1.1721
 20
12.44923
 30
0.0
  0
VERTEX
  5
121
  8
0
 62
     6
 10
2.3086
 20
12.3565
 30
0.0
  0
VERTEX
  5
122
  8
0
 62
     6
 10
3.37504
 20
12.20507
 30
0.0
  0
VERTEX
  5
123
  8
0
 62
     6
 10
4.33883
 20
11.99956
 30
0.0
  0
VERTEX
  5
124
  8
0
 62
     6
 10
5.17078
 20
11.74621
 30
0.0
  0
VERTEX
  5
125
  8
0
 62
     6
 10
5.84565
 20
11.45272
 30
0.0
  0
VERTEX
  5
126
  8
0
 62
     6
 10
6.3429
 20
11.128
 30
0.0
  0
VERTEX
  5
127
  8
0
 62
     6
 10
6.64746
 20
10.78189
 30
0.0
  0
VERTEX
  5
128
  8
0
 62
     6
 10
6.75
 20
10.42496
 30
0.0
  0
VERTEX
  5
129
  8
0
 62
     6
 10
6.64746
 20
10.06803
 30
0.0
  0
VERTEX
  5
12A
  8
0
 62
     6
 10
6.34294
 20
9.72195
 30
0.0
  0
VERTEX
  5
12B
  8
0
 62
     6
 10
5.8457
 20
9.397220000000001
 30
0.0
  0
VERTEX
  5
12C
  8
0
 62
     6
 10
5.17085
 20
9.103730000000001
 30
0.0
  0
VERTEX
  5
12D
  8
0
 62
     6
 10
4.33883
 20
8.85036
 30
0.0
  0
VERTEX
  5
12E
  8
0
 62
     6
 10
3.37504
 20
8.64485
 30
0.0
  0
VERTEX
  5
12F
  8
0
 62
     6
 10
2.3087
 20
8.49343
 30
0.0
  0
VERTEX
  5
130
  8
0
 62
     6
 10
1.17212
 20
8.400690000000001
 30
0.0
  0
SEQEND
  5
174
  8
0
 62
     6
  0
LINE
  5
EC
  8
0
 62
     6
 10
-20.0
 20
9.59502
 30
0.0
 11
-6.17532
 21
9.59502
 31
0.0
  0
LINE
  5
ED
  8
0
 62
     6
 10
6.17532
 20
9.59502
 30
0.0
 11
20.0
 21
9.59502
 31
0.0
  0
ENDBLK
  5
176
  8
0
  0
ENDSEC
  0
SECTION
  2
ENTITIES
  0
INSERT
  5
EF
  8
1
  2
SIMBOLO_N__2
 10
-33.57917
 20
34.04837
 30
0.0
  0
INSERT
  5
F0
  8
1
  2
SIMBOLO_N__3
 10
-33.57917
 20
-33.95163
 30
0.0
  0
INSERT
  5
F1
  8
1
  2
SIMBOLO_N__4
 10
55.92083
 20
7.04837
 30
0.0
  0
ENDSEC
  0
EOF
