  0
SECTION
  2
HEADER
  9
$ACADVER
  1
AC1009
  9
$DWGCODEPAGE
  3
ansi_1252
  9
$INSBASE
 10
0.0
 20
0.0
 30
0.0
  9
$EXTMIN
 10
-95.2734
 20
-138.30581
 30
0.0
  9
$EXTMAX
 10
95.2734
 20
138.30581
 30
0.0
  9
$LIMMIN
 10
0.0
 20
0.0
  9
$LIMMAX
 10
12.0
 20
9.0
  9
$ORTHOMODE
 70
     0
  9
$REGENMODE
 70
     1
  9
$FILLMODE
 70
     1
  9
$QTEXTMODE
 70
     0
  9
$MIRRTEXT
 70
     1
  9
$DRAGMODE
 70
     2
  9
$LTSCALE
 40
1.003964
  9
$OSMODE
 70
    37
  9
$ATTMODE
 70
     1
  9
$TEXTSIZE
 40
0.2
  9
$TRACEWID
 40
0.05
  9
$TEXTSTYLE
  7
STANDARD
  9
$CLAYER
  8
0
  9
$CELTYPE
  6
BYBLOCK
  9
$CECOLOR
 62
   256
  9
$DIMSCALE
 40
1.0
  9
$DIMASZ
 40
0.18
  9
$DIMEXO
 40
0.0625
  9
$DIMDLI
 40
0.38
  9
$DIMRND
 40
0.0
  9
$DIMDLE
 40
0.0
  9
$DIMEXE
 40
0.18
  9
$DIMTP
 40
0.0
  9
$DIMTM
 40
0.0
  9
$DIMTXT
 40
0.18
  9
$DIMCEN
 40
0.09
  9
$DIMTSZ
 40
0.0
  9
$DIMTOL
 70
     0
  9
$DIMLIM
 70
     0
  9
$DIMTIH
 70
     1
  9
$DIMTOH
 70
     1
  9
$DIMSE1
 70
     0
  9
$DIMSE2
 70
     0
  9
$DIMTAD
 70
     0
  9
$DIMZIN
 70
     0
  9
$DIMBLK
  1

  9
$DIMASO
 70
     1
  9
$DIMSHO
 70
     1
  9
$DIMPOST
  1

  9
$DIMAPOST
  1

  9
$DIMALT
 70
     0
  9
$DIMALTD
 70
     2
  9
$DIMALTF
 40
25.4
  9
$DIMLFAC
 40
1.0
  9
$DIMTOFL
 70
     0
  9
$DIMTVP
 40
0.0
  9
$DIMTIX
 70
     0
  9
$DIMSOXD
 70
     0
  9
$DIMSAH
 70
     0
  9
$DIMBLK1
  1

  9
$DIMBLK2
  1

  9
$DIMSTYLE
  2
STANDARD
  9
$DIMCLRD
 70
     0
  9
$DIMCLRE
 70
     0
  9
$DIMCLRT
 70
     0
  9
$DIMTFAC
 40
1.0
  9
$DIMGAP
 40
0.09
  9
$LUNITS
 70
     2
  9
$LUPREC
 70
     4
  9
$SKETCHINC
 40
0.1
  9
$FILLETRAD
 40
0.5
  9
$AUNITS
 70
     0
  9
$AUPREC
 70
     0
  9
$MENU
  1
.
  9
$ELEVATION
 40
0.0
  9
$PELEVATION
 40
0.0
  9
$THICKNESS
 40
0.0
  9
$LIMCHECK
 70
     0
  9
$CHAMFERA
 40
0.5
  9
$CHAMFERB
 40
0.5
  9
$SKPOLY
 70
     0
  9
$TDCREATE
 40
2453619.496119028
  9
$TDUPDATE
 40
2453619.496119039
  9
$TDINDWG
 40
0.0000000116
  9
$TDUSRTIMER
 40
0.0000000116
  9
$USRTIMER
 70
     1
  9
$ANGBASE
 50
0.0
  9
$ANGDIR
 70
     0
  9
$PDMODE
 70
     0
  9
$PDSIZE
 40
0.0
  9
$PLINEWID
 40
0.0
  9
$COORDS
 70
     1
  9
$SPLFRAME
 70
     0
  9
$SPLINETYPE
 70
     6
  9
$SPLINESEGS
 70
     8
  9
$ATTDIA
 70
     0
  9
$ATTREQ
 70
     1
  9
$HANDLING
 70
     1
  9
$HANDSEED
  5
1D8
  9
$SURFTAB1
 70
     6
  9
$SURFTAB2
 70
     6
  9
$SURFTYPE
 70
     6
  9
$SURFU
 70
     6
  9
$SURFV
 70
     6
  9
$UCSNAME
  2

  9
$UCSORG
 10
0.0
 20
0.0
 30
0.0
  9
$UCSXDIR
 10
1.0
 20
0.0
 30
0.0
  9
$UCSYDIR
 10
0.0
 20
1.0
 30
0.0
  9
$PUCSNAME
  2

  9
$PUCSORG
 10
0.0
 20
0.0
 30
0.0
  9
$PUCSXDIR
 10
1.0
 20
0.0
 30
0.0
  9
$PUCSYDIR
 10
0.0
 20
1.0
 30
0.0
  9
$USERI1
 70
     0
  9
$USERI2
 70
     0
  9
$USERI3
 70
     0
  9
$USERI4
 70
     0
  9
$USERI5
 70
     0
  9
$USERR1
 40
0.0
  9
$USERR2
 40
0.0
  9
$USERR3
 40
0.0
  9
$USERR4
 40
0.0
  9
$USERR5
 40
0.0
  9
$WORLDVIEW
 70
     1
  9
$SHADEDGE
 70
     3
  9
$SHADEDIF
 70
    70
  9
$TILEMODE
 70
     1
  9
$MAXACTVP
 70
    64
  9
$PLIMCHECK
 70
     0
  9
$PEXTMIN
 10
1.000000000000000E+20
 20
1.000000000000000E+20
 30
1.000000000000000E+20
  9
$PEXTMAX
 10
-1.000000000000000E+20
 20
-1.000000000000000E+20
 30
-1.000000000000000E+20
  9
$PLIMMIN
 10
0.0
 20
0.0
  9
$PLIMMAX
 10
12.0
 20
9.0
  9
$UNITMODE
 70
     0
  9
$VISRETAIN
 70
     1
  9
$PLINEGEN
 70
     0
  9
$PSLTSCALE
 70
     1
  0
ENDSEC
  0
SECTION
  2
TABLES
  0
TABLE
  2
VPORT
 70
     1
  0
VPORT
  2
*ACTIVE
 70
     0
 10
0.0
 20
0.0
 11
1.0
 21
1.0
 12
10.42990654205607
 22
4.5
 13
0.0
 23
0.0
 14
0.5
 24
0.5
 15
0.5
 25
0.5
 16
0.0
 26
0.0
 36
1.0
 17
0.0
 27
0.0
 37
0.0
 40
9.0
 41
1.972972972850329
 42
50.0
 43
0.0
 44
0.0
 50
0.0
 51
0.0
 71
     0
 72
   100
 73
     1
 74
     3
 75
     0
 76
     0
 77
     0
 78
     0
  0
ENDTAB
  0
TABLE
  2
LTYPE
 70
    10
  0
LTYPE
  2
CONTINUOUS
 70
     0
  3
Solid Line
 72
    65
 73
     0
 40
0.0
  0
LTYPE
  2
MCDASH1
 70
     0
  3
MiniCad+ Generated
 72
    65
 73
     6
 40
9.067664000000001
 49
2.590927
 49
-1.29527
 49
2.590927
 49
-1.29527
 49
0.0
 49
-1.29527
  0
LTYPE
  2
MCDASH2
 70
     0
  3
MiniCad+ Generated
 72
    65
 73
     4
 40
10.362934
 49
6.477124
 49
-1.29527
 49
1.29527
 49
-1.29527
  0
LTYPE
  2
MCDASH3
 70
     0
  3
MiniCad+ Generated
 72
    65
 73
     4
 40
5.181467
 49
2.590927
 49
-1.29527
 49
0.0
 49
-1.29527
  0
LTYPE
  2
MCDASH4
 70
     0
  3
MiniCad+ Generated
 72
    65
 73
     2
 40
3.886197
 49
2.590927
 49
-1.29527
  0
LTYPE
  2
MCDASH5
 70
     0
  3
MiniCad+ Generated
 72
    65
 73
     6
 40
6.476737
 49
2.590927
 49
-1.29527
 49
0.0
 49
-1.29527
 49
0.0
 49
-1.29527
  0
LTYPE
  2
MCDASH6
 70
     0
  3
MiniCad+ Generated
 72
    65
 73
     4
 40
2.59054
 49
0.0
 49
-1.29527
 49
0.0
 49
-1.29527
  0
LTYPE
  2
MCDASH7
 70
     0
  3
MiniCad+ Generated
 72
    65
 73
     2
 40
1.942905
 49
1.29527
 49
-0.647635
  0
LTYPE
  2
MCDASH8
 70
     0
  3
MiniCad+ Generated
 72
    65
 73
     6
 40
12.953474
 49
6.477124
 49
-1.29527
 49
1.29527
 49
-1.29527
 49
1.29527
 49
-1.29527
  0
LTYPE
  2
MCDASH9
 70
     0
  3
MiniCad+ Generated
 72
    65
 73
     2
 40
6.135672000000001
 49
4.090448
 49
-2.045224
  0
ENDTAB
  0
TABLE
  2
LAYER
 70
     2
  0
LAYER
  2
0
 70
     0
 62
     7
  6
CONTINUOUS
  0
LAYER
  2
1
 70
     0
 62
     7
  6
CONTINUOUS
  0
ENDTAB
  0
TABLE
  2
STYLE
 70
     1
  0
STYLE
  2
STANDARD
 70
     0
 40
0.0
 41
1.0
 50
0.0
 71
     0
 42
0.2
  3
txt
  4

  0
ENDTAB
  0
TABLE
  2
VIEW
 70
     0
  0
ENDTAB
  0
TABLE
  2
UCS
 70
     0
  0
ENDTAB
  0
TABLE
  2
APPID
 70
     1
  0
APPID
  2
ACAD
 70
     0
  0
ENDTAB
  0
TABLE
  2
DIMSTYLE
 70
     1
  0
DIMSTYLE
  2
STANDARD
 70
     0
  3

  4

  5

  6

  7

 40
1.0
 41
0.18
 42
0.0625
 43
0.38
 44
0.18
 45
0.0
 46
0.0
 47
0.0
 48
0.0
140
0.18
141
0.09
142
0.0
143
25.4
144
1.0
145
0.0
146
1.0
147
0.09
 71
     0
 72
     0
 73
     1
 74
     1
 75
     0
 76
     0
 77
     0
 78
     0
170
     0
171
     2
172
     0
173
     0
174
     0
175
     0
176
     0
177
     0
178
     0
  0
ENDTAB
  0
ENDSEC
  0
SECTION
  2
BLOCKS
  0
BLOCK
  8
0
  2
$MODEL_SPACE
 70
     0
 10
0.0
 20
0.0
 30
0.0
  3
$MODEL_SPACE
  1

  0
ENDBLK
  5
1D3
  8
0
  0
BLOCK
 67
     1
  8
0
  2
$PAPER_SPACE
 70
     0
 10
0.0
 20
0.0
 30
0.0
  3
$PAPER_SPACE
  1

  0
ENDBLK
  5
1D1
 67
     1
  8
0
  0
BLOCK
  8
0
  2
$ARROW1$
 70
     0
 10
0.0
 20
0.0
 30
0.0
  3
$ARROW1$
  1

  0
POLYLINE
  5
2F
  8
0
 66
     1
 10
0.0
 20
0.0
 30
0.0
 70
     1
  0
VERTEX
  5
12E
  8
0
 10
-25.4
 20
4.318
 30
0.0
  0
VERTEX
  5
12F
  8
0
 10
-25.4
 20
-4.318
 30
0.0
  0
VERTEX
  5
130
  8
0
 10
0.0
 20
0.0
 30
0.0
  0
SEQEND
  5
1BB
  8
0
  0
ENDBLK
  5
1BD
  8
0
  0
BLOCK
  8
0
  2
$ARROW2$
 70
     0
 10
0.0
 20
0.0
 30
0.0
  3
$ARROW2$
  1

  0
POLYLINE
  5
37
  8
0
 66
     1
 10
0.0
 20
0.0
 30
0.0
 70
     1
  0
VERTEX
  5
132
  8
0
 10
-25.4
 20
12.7
 30
0.0
  0
VERTEX
  5
133
  8
0
 10
-25.4
 20
-12.7
 30
0.0
  0
VERTEX
  5
134
  8
0
 10
0.0
 20
0.0
 30
0.0
  0
SEQEND
  5
1BE
  8
0
  0
ENDBLK
  5
1C0
  8
0
  0
BLOCK
  8
0
  2
$ARROW3$
 70
     0
 10
0.0
 20
0.0
 30
0.0
  3
$ARROW3$
  1

  0
POLYLINE
  5
3F
  8
0
 66
     1
 10
0.0
 20
0.0
 30
0.0
 70
     1
 40
0.510014
 41
0.510014
  0
VERTEX
  5
136
  8
0
 10
-6.35
 20
0.0
 30
0.0
  0
VERTEX
  5
137
  8
0
 10
-6.2535
 20
-1.10284
 30
0.0
  0
VERTEX
  5
138
  8
0
 10
-5.96699
 20
-2.17198
 30
0.0
  0
VERTEX
  5
139
  8
0
 10
-5.49919
 20
-3.17512
 30
0.0
  0
VERTEX
  5
13A
  8
0
 10
-4.86431
 20
-4.08179
 30
0.0
  0
VERTEX
  5
13B
  8
0
 10
-4.08164
 20
-4.86443
 30
0.0
  0
VERTEX
  5
13C
  8
0
 10
-3.17496
 20
-5.49929
 30
0.0
  0
VERTEX
  5
13D
  8
0
 10
-2.17179
 20
-5.96706
 30
0.0
  0
VERTEX
  5
13E
  8
0
 10
-1.10264
 20
-6.25353
 30
0.0
  0
VERTEX
  5
13F
  8
0
 10
0.0001
 20
-6.35
 30
0.0
  0
VERTEX
  5
140
  8
0
 10
0.0
 20
-6.35
 30
0.0
  0
VERTEX
  5
141
  8
0
 10
1.10274
 20
-6.25352
 30
0.0
  0
VERTEX
  5
142
  8
0
 10
2.17188
 20
-5.96703
 30
0.0
  0
VERTEX
  5
143
  8
0
 10
3.17504
 20
-5.49924
 30
0.0
  0
VERTEX
  5
144
  8
0
 10
4.08172
 20
-4.86437
 30
0.0
  0
VERTEX
  5
145
  8
0
 10
4.86443
 20
-4.08164
 30
0.0
  0
VERTEX
  5
146
  8
0
 10
5.49929
 20
-3.17496
 30
0.0
  0
VERTEX
  5
147
  8
0
 10
5.96706
 20
-2.17179
 30
0.0
  0
VERTEX
  5
148
  8
0
 10
6.25353
 20
-1.10264
 30
0.0
  0
VERTEX
  5
149
  8
0
 10
6.35
 20
0.0
 30
0.0
  0
VERTEX
  5
14A
  8
0
 10
6.25353
 20
1.10264
 30
0.0
  0
VERTEX
  5
14B
  8
0
 10
5.96703
 20
2.17188
 30
0.0
  0
VERTEX
  5
14C
  8
0
 10
5.49924
 20
3.17504
 30
0.0
  0
VERTEX
  5
14D
  8
0
 10
4.86437
 20
4.08172
 30
0.0
  0
VERTEX
  5
14E
  8
0
 10
4.08172
 20
4.86437
 30
0.0
  0
VERTEX
  5
14F
  8
0
 10
3.17504
 20
5.49924
 30
0.0
  0
VERTEX
  5
150
  8
0
 10
2.17179
 20
5.96706
 30
0.0
  0
VERTEX
  5
151
  8
0
 10
1.10264
 20
6.25353
 30
0.0
  0
VERTEX
  5
152
  8
0
 10
0.0
 20
6.35
 30
0.0
  0
VERTEX
  5
153
  8
0
 10
-1.10264
 20
6.25353
 30
0.0
  0
VERTEX
  5
154
  8
0
 10
-2.17188
 20
5.96703
 30
0.0
  0
VERTEX
  5
155
  8
0
 10
-3.17504
 20
5.49924
 30
0.0
  0
VERTEX
  5
156
  8
0
 10
-4.08172
 20
4.86437
 30
0.0
  0
VERTEX
  5
157
  8
0
 10
-4.86437
 20
4.08172
 30
0.0
  0
VERTEX
  5
158
  8
0
 10
-5.49929
 20
3.17496
 30
0.0
  0
VERTEX
  5
159
  8
0
 10
-5.96706
 20
2.17179
 30
0.0
  0
VERTEX
  5
15A
  8
0
 10
-6.25353
 20
1.10264
 30
0.0
  0
VERTEX
  5
15B
  8
0
 10
-6.35
 20
0.0
 30
0.0
  0
SEQEND
  5
1C1
  8
0
  0
ENDBLK
  5
1C3
  8
0
  0
BLOCK
  8
0
  2
$ARROW4$
 70
     0
 10
0.0
 20
0.0
 30
0.0
  3
$ARROW4$
  1

  0
LINE
  5
6A
  8
0
 10
12.7
 20
12.7
 30
0.0
 11
-12.7
 21
-12.7
 31
0.0
  0
ENDBLK
  5
1C5
  8
0
  0
BLOCK
  8
0
  2
$ARROW5$
 70
     0
 10
0.0
 20
0.0
 30
0.0
  3
$ARROW5$
  1

  0
LINE
  5
6E
  8
0
 10
12.7
 20
12.7
 30
0.0
 11
-12.7
 21
-12.7
 31
0.0
  0
LINE
  5
6F
  8
0
 10
-12.7
 20
12.7
 30
0.0
 11
12.7
 21
-12.7
 31
0.0
  0
ENDBLK
  5
1C7
  8
0
  0
BLOCK
  8
0
  2
SIMBOLO_N__2
 70
     0
 10
0.0
 20
0.0
 30
0.0
  3
SIMBOLO_N__2
  1

  0
LINE
  5
73
  8
0
 62
     6
 10
15.0
 20
5.57
 30
0.0
 11
15.0
 21
-7.95246
 31
0.0
  0
LINE
  5
74
  8
0
 62
     6
 10
-15.0
 20
5.37993
 30
0.0
 11
-15.0
 21
-7.95246
 31
0.0
  0
LINE
  5
75
  8
0
 62
     6
 10
-15.75
 20
-27.0
 30
0.0
 11
-23.25
 21
-27.0
 31
0.0
  0
LINE
  5
76
  8
0
 62
     6
 10
15.75
 20
-27.0
 30
0.0
 11
-15.75
 21
-27.0
 31
0.0
  0
LINE
  5
77
  8
0
 62
     6
 10
-15.0
 20
5.37993
 30
0.0
 11
-14.78201
 21
11.75
 31
0.0
  0
LINE
  5
78
  8
0
 62
     6
 10
-23.25
 20
-27.0
 30
0.0
 11
-31.75
 21
-27.0
 31
0.0
  0
LINE
  5
79
  8
0
 62
     6
 10
-31.75
 20
-27.0
 30
0.0
 11
-37.5
 21
-27.0
 31
0.0
  0
LINE
  5
7A
  8
0
  6
MCDASH7
 10
-34.25
 20
-22.50146
 30
0.0
 11
-20.75
 21
-22.50146
 31
0.0
  0
LINE
  5
7B
  8
0
  6
MCDASH7
 10
-34.25
 20
-14.47774
 30
0.0
 11
-34.25
 21
-22.50146
 31
0.0
  0
LINE
  5
7C
  8
0
  6
MCDASH7
 10
-31.75
 20
-27.0
 30
0.0
 11
-31.75
 21
-22.50146
 31
0.0
  0
LINE
  5
7D
  8
0
  6
MCDASH7
 10
-23.25
 20
-27.0
 30
0.0
 11
-23.25
 21
-22.50146
 31
0.0
  0
LINE
  5
7E
  8
0
  6
MCDASH7
 10
-20.75
 20
-22.50146
 30
0.0
 11
-20.75
 21
-13.05883
 31
0.0
  0
LINE
  5
7F
  8
0
 62
     6
 10
1.25
 20
25.0
 30
0.0
 11
11.24135
 21
25.0
 31
0.0
  0
LINE
  5
80
  8
0
 62
     6
 10
1.25
 20
9.92156
 30
0.0
 11
1.25
 21
25.0
 31
0.0
  0
LINE
  5
81
  8
0
 62
     6
 10
-1.25
 20
9.92156
 30
0.0
 11
-1.25
 21
25.0
 31
0.0
  0
LINE
  5
82
  8
0
 62
     6
 10
-11.23921
 20
25.0
 30
0.0
 11
-1.25
 21
25.0
 31
0.0
  0
LINE
  5
83
  8
0
 62
     6
 10
-37.5
 20
-27.0
 30
0.0
 11
-37.33252
 21
-17.405
 31
0.0
  0
LINE
  5
84
  8
0
 62
     6
 10
-14.78201
 20
11.75
 30
0.0
 11
-14.23508
 21
22.15744
 31
0.0
  0
LINE
  5
85
  8
0
 62
     6
 10
14.77657
 20
12.0
 30
0.0
 11
15.0
 21
5.57
 31
0.0
  0
LINE
  5
86
  8
0
 62
     6
 10
14.23713
 20
22.15907
 30
0.0
 11
14.24557
 21
22.0
 31
0.0
  0
LINE
  5
87
  8
0
 62
     6
 10
-34.25
 20
-14.47774
 30
0.0
 11
-20.75
 21
-13.05883
 31
0.0
  0
LINE
  5
88
  8
0
 62
     6
 10
-34.64771
 20
-14.51954
 30
0.0
 11
-34.25
 21
-14.47774
 31
0.0
  0
LINE
  5
89
  8
0
 62
     6
 10
-9.0
 20
4.35889
 30
0.0
 11
-9.0
 21
9.0
 31
0.0
  0
LINE
  5
8A
  8
0
 62
     6
 10
-9.0
 20
9.0
 30
0.0
 11
-4.3589
 21
9.0
 31
0.0
  0
LINE
  5
8B
  8
0
 62
     6
 10
4.3589
 20
9.0
 30
0.0
 11
9.0
 21
9.0
 31
0.0
  0
LINE
  5
8C
  8
0
 62
     6
 10
9.0
 20
9.0
 30
0.0
 11
9.0
 21
4.35889
 31
0.0
  0
LINE
  5
8D
  8
0
 62
     6
 10
9.0
 20
-4.3589
 30
0.0
 11
9.0
 21
-9.0
 31
0.0
  0
LINE
  5
8E
  8
0
 62
     6
 10
9.0
 20
-9.0
 30
0.0
 11
4.3589
 21
-9.0
 31
0.0
  0
LINE
  5
8F
  8
0
 62
     6
 10
-4.3589
 20
-9.0
 30
0.0
 11
-9.0
 21
-9.0
 31
0.0
  0
LINE
  5
90
  8
0
 62
     6
 10
-9.0
 20
-9.0
 30
0.0
 11
-9.0
 21
-4.3589
 31
0.0
  0
LINE
  5
91
  8
0
 62
     6
 10
14.24557
 20
22.0
 30
0.0
 11
14.77657
 21
12.0
 31
0.0
  0
LINE
  5
92
  8
0
 62
     6
 10
23.25
 20
-27.0
 30
0.0
 11
15.75
 21
-27.0
 31
0.0
  0
LINE
  5
93
  8
0
 62
     6
 10
31.75
 20
-27.0
 30
0.0
 11
23.25
 21
-27.0
 31
0.0
  0
LINE
  5
94
  8
0
 62
     6
 10
37.5
 20
-27.0
 30
0.0
 11
31.75
 21
-27.0
 31
0.0
  0
LINE
  5
95
  8
0
  6
MCDASH7
 10
20.75
 20
-22.50146
 30
0.0
 11
34.25
 21
-22.50146
 31
0.0
  0
LINE
  5
96
  8
0
  6
MCDASH7
 10
34.25
 20
-22.50146
 30
0.0
 11
34.25
 21
-14.47774
 31
0.0
  0
LINE
  5
97
  8
0
  6
MCDASH7
 10
31.75
 20
-22.50146
 30
0.0
 11
31.75
 21
-27.0
 31
0.0
  0
LINE
  5
98
  8
0
  6
MCDASH7
 10
23.25
 20
-22.50146
 30
0.0
 11
23.25
 21
-27.0
 31
0.0
  0
LINE
  5
99
  8
0
  6
MCDASH7
 10
20.75
 20
-13.05883
 30
0.0
 11
20.75
 21
-22.50146
 31
0.0
  0
LINE
  5
9A
  8
0
 62
     6
 10
37.33252
 20
-17.405
 30
0.0
 11
37.5
 21
-27.0
 31
0.0
  0
LINE
  5
9B
  8
0
 62
     6
 10
19.47736
 20
-12.92507
 30
0.0
 11
20.75
 21
-13.05883
 31
0.0
  0
LINE
  5
9C
  8
0
 62
     6
 10
34.25
 20
-14.47774
 30
0.0
 11
34.64771
 21
-14.51954
 31
0.0
  0
LINE
  5
9D
  8
0
 62
     6
 10
-20.75
 20
-13.05883
 30
0.0
 11
-19.47736
 21
-12.92507
 31
0.0
  0
LINE
  5
9E
  8
0
 62
     6
 10
20.75
 20
-13.05883
 30
0.0
 11
34.25
 21
-14.47774
 31
0.0
  0
ARC
  5
9F
  8
0
 62
     6
 10
0.0
 20
0.0
 30
0.0
 40
10.0
 50
97.180756
 51
115.841934
  0
ARC
  5
A0
  8
0
 62
     6
 10
0.0
 20
0.0
 30
0.0
 40
10.0
 50
334.158066
 51
25.841934
  0
ARC
  5
A1
  8
0
 62
     6
 10
0.0
 20
0.0
 30
0.0
 40
10.0
 50
244.158066
 51
295.841934
  0
ARC
  5
A2
  8
0
 62
     6
 10
0.0
 20
0.0
 30
0.0
 40
10.0
 50
154.158066
 51
205.841934
  0
ARC
  5
A3
  8
0
 62
     6
 10
0.0
 20
0.0
 30
0.0
 40
10.0
 50
64.15806600000001
 51
82.819244
  0
ARC
  5
A4
  8
0
 62
     6
 10
-20.0
 20
-7.95246
 30
0.0
 40
5.0
 50
276.0
 51
0.0
  0
ARC
  5
A5
  8
0
 62
     6
 10
-11.23921
 20
22.0
 30
0.0
 40
3.0
 50
175.219803
 51
176.991714
  0
ARC
  5
A6
  8
0
 62
     6
 10
11.24135
 20
22.0
 30
0.0
 40
3.0
 50
3.039536
 51
90.0
  0
ARC
  5
A7
  8
0
 62
     6
 10
-11.23921
 20
22.0
 30
0.0
 40
3.0
 50
90.0
 51
175.219803
  0
ARC
  5
A8
  8
0
 62
     6
 10
20.0
 20
-7.95246
 30
0.0
 40
5.0
 50
180.0
 51
264.0
  0
ARC
  5
A9
  8
0
 62
     6
 10
-34.33412
 20
-17.50311
 30
0.0
 40
3.0
 50
96.00000000000001
 51
178.125977
  0
ARC
  5
AA
  8
0
 62
     6
 10
34.33413
 20
-17.50311
 30
0.0
 40
3.0
 50
1.874023
 51
84.0
  0
ENDBLK
  5
1C9
  8
0
  0
BLOCK
  8
0
  2
SIMBOLO_N__3
 70
     0
 10
0.0
 20
0.0
 30
0.0
  3
SIMBOLO_N__3
  1

  0
LINE
  5
AE
  8
0
 62
     6
 10
-11.1066
 20
-19.425
 30
0.0
 11
11.10661
 21
-19.425
 31
0.0
  0
LINE
  5
AF
  8
0
 62
     6
 10
-11.1066
 20
19.425
 30
0.0
 11
11.10661
 21
19.425
 31
0.0
  0
LINE
  5
B0
  8
0
 62
     6
 10
-17.5
 20
20.0
 30
0.0
 11
11.10661
 21
20.0
 31
0.0
  0
LINE
  5
B1
  8
0
 62
     6
 10
-14.0
 20
-20.0
 30
0.0
 11
-13.5
 21
-20.0
 31
0.0
  0
LINE
  5
B2
  8
0
 62
     6
 10
14.10661
 20
16.425
 30
0.0
 11
14.10661
 21
-16.425
 31
0.0
  0
LINE
  5
B3
  8
0
 62
     6
 10
-14.1066
 20
16.425
 30
0.0
 11
-14.1066
 21
-16.425
 31
0.0
  0
LINE
  5
B4
  8
0
 62
     6
 10
1.25
 20
20.0
 30
0.0
 11
1.25
 21
-20.0
 31
0.0
  0
LINE
  5
B5
  8
0
 62
     6
 10
-1.25
 20
20.0
 30
0.0
 11
-1.25
 21
-20.0
 31
0.0
  0
LINE
  5
B6
  8
0
 62
     6
 10
13.98542
 20
-20.0
 30
0.0
 11
13.48542
 21
-20.0
 31
0.0
  0
LINE
  5
B7
  8
0
 62
     6
 10
13.48542
 20
20.0
 30
0.0
 11
13.98542
 21
20.0
 31
0.0
  0
LINE
  5
B8
  8
0
 62
     6
 10
16.29491
 20
17.0
 30
0.0
 11
16.29491
 21
-17.0
 31
0.0
  0
LINE
  5
B9
  8
0
 62
     6
 10
-16.29482
 20
17.0
 30
0.0
 11
-16.29482
 21
-17.0
 31
0.0
  0
LINE
  5
BA
  8
0
 62
     6
 10
13.48542
 20
-20.0
 30
0.0
 11
13.98542
 21
-20.0
 31
0.0
  0
LINE
  5
BB
  8
0
 62
     6
 10
11.10661
 20
-20.0
 30
0.0
 11
13.48542
 21
-20.0
 31
0.0
  0
LINE
  5
BC
  8
0
 62
     6
 10
-17.5
 20
-20.0
 30
0.0
 11
-14.0
 21
-20.0
 31
0.0
  0
LINE
  5
BD
  8
0
 62
     6
 10
-14.0
 20
-20.0
 30
0.0
 11
-13.5
 21
-20.0
 31
0.0
  0
LINE
  5
BE
  8
0
 62
     6
 10
11.10661
 20
20.0
 30
0.0
 11
13.48542
 21
20.0
 31
0.0
  0
LINE
  5
BF
  8
0
 62
     6
 10
13.48542
 20
20.0
 30
0.0
 11
13.98542
 21
20.0
 31
0.0
  0
LINE
  5
C0
  8
0
 62
     6
 10
-13.5
 20
-20.0
 30
0.0
 11
11.10661
 21
-20.0
 31
0.0
  0
LINE
  5
C1
  8
0
 62
     6
 10
-14.0
 20
-20.0
 30
0.0
 11
-13.5
 21
-20.0
 31
0.0
  0
LINE
  5
C2
  8
0
 62
     6
 10
13.48542
 20
-20.0
 30
0.0
 11
13.98542
 21
-20.0
 31
0.0
  0
LINE
  5
C3
  8
0
 62
     6
 10
13.98542
 20
-20.0
 30
0.0
 11
17.5
 21
-20.0
 31
0.0
  0
LINE
  5
C4
  8
0
 62
     6
 10
13.98542
 20
20.0
 30
0.0
 11
17.5
 21
20.0
 31
0.0
  0
LINE
  5
C5
  8
0
 62
     6
 10
13.48542
 20
20.0
 30
0.0
 11
13.98542
 21
20.0
 31
0.0
  0
ARC
  5
C6
  8
0
 62
     6
 10
-17.5
 20
0.0
 30
0.0
 40
20.0
 50
90.0
 51
270.0
  0
ARC
  5
C7
  8
0
 62
     6
 10
17.5
 20
0.0
 30
0.0
 40
20.0
 50
270.0
 51
90.0
  0
CIRCLE
  5
C8
  8
0
 62
     6
 10
-27.5
 20
0.0
 30
0.0
 40
6.5
  0
CIRCLE
  5
C9
  8
0
 62
     6
 10
-27.5
 20
0.0
 30
0.0
 40
4.25
  0
CIRCLE
  5
CA
  8
0
 62
     6
 10
27.5
 20
0.0
 30
0.0
 40
6.5
  0
CIRCLE
  5
CB
  8
0
 62
     6
 10
27.5
 20
0.0
 30
0.0
 40
4.25
  0
ARC
  5
CC
  8
0
 62
     6
 10
-13.29482
 20
-17.0
 30
0.0
 40
3.0
 50
180.0
 51
270.0
  0
ARC
  5
CD
  8
0
 62
     6
 10
-11.1066
 20
-16.425
 30
0.0
 40
3.0
 50
180.0
 51
270.0
  0
ARC
  5
CE
  8
0
 62
     6
 10
11.10661
 20
-16.425
 30
0.0
 40
3.0
 50
270.0
 51
0.0
  0
ARC
  5
CF
  8
0
 62
     6
 10
13.29491
 20
-17.0
 30
0.0
 40
3.0
 50
270.0
 51
0.0
  0
ARC
  5
D0
  8
0
 62
     6
 10
11.10661
 20
16.425
 30
0.0
 40
3.0
 50
0.0
 51
90.0
  0
ARC
  5
D1
  8
0
 62
     6
 10
13.29491
 20
17.0
 30
0.0
 40
3.0
 50
0.0
 51
90.0
  0
ARC
  5
D2
  8
0
 62
     6
 10
-13.29482
 20
17.0
 30
0.0
 40
3.0
 50
90.0
 51
180.0
  0
ARC
  5
D3
  8
0
 62
     6
 10
-11.1066
 20
16.425
 30
0.0
 40
3.0
 50
90.0
 51
180.0
  0
LINE
  5
D4
  8
0
  6
MCDASH7
 10
-9.99999
 20
20.0
 30
0.0
 11
-9.99999
 21
-20.0
 31
0.0
  0
LINE
  5
D5
  8
0
  6
MCDASH7
 10
10.00001
 20
20.0
 30
0.0
 11
10.00001
 21
-20.0
 31
0.0
  0
ENDBLK
  5
1CB
  8
0
  0
BLOCK
  8
0
  2
SIMBOLO_N__4
 70
     0
 10
0.0
 20
0.0
 30
0.0
  3
SIMBOLO_N__4
  1

  0
LINE
  5
D9
  8
0
 62
     6
 10
-20.0
 20
0.0
 30
0.0
 11
20.0
 21
0.0
 31
0.0
  0
LINE
  5
DA
  8
0
 62
     6
 10
-20.0
 20
0.0
 30
0.0
 11
-20.0
 21
32.0
 31
0.0
  0
LINE
  5
DB
  8
0
 62
     6
 10
20.0
 20
0.0
 30
0.0
 11
20.0
 21
32.0
 31
0.0
  0
LINE
  5
DC
  8
0
 62
     6
 10
20.0
 20
12.48046
 30
0.0
 11
-20.0
 21
12.48046
 31
0.0
  0
LINE
  5
DD
  8
0
 62
     6
 10
-20.0
 20
32.57
 30
0.0
 11
20.0
 21
32.57
 31
0.0
  0
ARC
  5
DE
  8
0
 62
     6
 10
0.0
 20
32.0
 30
0.0
 40
20.0
 50
90.0
 51
180.0
  0
ARC
  5
DF
  8
0
 62
     6
 10
0.0
 20
32.0
 30
0.0
 40
20.0
 50
0.0
 51
90.0
  0
LINE
  5
E0
  8
0
  6
MCDASH7
 10
-6.75
 20
4.49854
 30
0.0
 11
6.75
 21
4.49854
 31
0.0
  0
LINE
  5
E1
  8
0
  6
MCDASH7
 10
4.25
 20
4.49854
 30
0.0
 11
4.25
 21
0.0
 31
0.0
  0
LINE
  5
E2
  8
0
  6
MCDASH7
 10
-4.25
 20
4.49854
 30
0.0
 11
-4.25
 21
0.0
 31
0.0
  0
LINE
  5
E3
  8
0
  6
MCDASH7
 10
-6.75
 20
10.42496
 30
0.0
 11
-6.75
 21
4.49854
 31
0.0
  0
LINE
  5
E4
  8
0
  6
MCDASH7
 10
6.75
 20
4.49854
 30
0.0
 11
6.75
 21
10.42496
 31
0.0
  0
LINE
  5
E5
  8
0
  6
MCDASH7
 10
-20.0
 20
17.0
 30
0.0
 11
20.0
 21
17.0
 31
0.0
  0
POLYLINE
  5
E6
  8
0
 62
     6
 66
     1
 10
0.0
 20
0.0
 30
0.0
 70
     1
  0
VERTEX
  5
15D
  8
0
 62
     6
 10
4.2
 20
46.42462
 30
0.0
  0
VERTEX
  5
15E
  8
0
 62
     6
 10
0.0
 20
48.84948
 30
0.0
  0
VERTEX
  5
15F
  8
0
 62
     6
 10
-4.2
 20
46.42462
 30
0.0
  0
VERTEX
  5
160
  8
0
 62
     6
 10
-4.2
 20
41.57486
 30
0.0
  0
VERTEX
  5
161
  8
0
 62
     6
 10
0.0
 20
39.15
 30
0.0
  0
VERTEX
  5
162
  8
0
 62
     6
 10
4.2
 20
41.57486
 30
0.0
  0
SEQEND
  5
1CC
  8
0
 62
     6
  0
ARC
  5
EE
  8
0
 62
     6
 10
0.0
 20
43.99974
 30
0.0
 40
2.4
 50
180.0
 51
90.0
  0
CIRCLE
  5
EF
  8
0
 62
     6
 10
0.0
 20
43.99974
 30
0.0
 40
1.8
  0
LINE
  5
F0
  8
0
  6
MCDASH7
 10
-19.36492
 20
37.0
 30
0.0
 11
19.36492
 21
37.0
 31
0.0
  0
POLYLINE
  5
F1
  8
0
 62
     6
 66
     1
 10
0.0
 20
0.0
 30
0.0
 70
     1
  0
VERTEX
  5
164
  8
0
 62
     6
 10
0.0
 20
8.36946
 30
0.0
  0
VERTEX
  5
165
  8
0
 62
     6
 10
-1.1722
 20
8.400690000000001
 30
0.0
  0
VERTEX
  5
166
  8
0
 62
     6
 10
-2.3087
 20
8.49343
 30
0.0
  0
VERTEX
  5
167
  8
0
 62
     6
 10
-3.37504
 20
8.64485
 30
0.0
  0
VERTEX
  5
168
  8
0
 62
     6
 10
-4.33883
 20
8.85036
 30
0.0
  0
VERTEX
  5
169
  8
0
 62
     6
 10
-5.17085
 20
9.103730000000001
 30
0.0
  0
VERTEX
  5
16A
  8
0
 62
     6
 10
-5.8457
 20
9.397220000000001
 30
0.0
  0
VERTEX
  5
16B
  8
0
 62
     6
 10
-6.34294
 20
9.72195
 30
0.0
  0
VERTEX
  5
16C
  8
0
 62
     6
 10
-6.64746
 20
10.06803
 30
0.0
  0
VERTEX
  5
16D
  8
0
 62
     6
 10
-6.75
 20
10.42496
 30
0.0
  0
VERTEX
  5
16E
  8
0
 62
     6
 10
-6.64746
 20
10.78189
 30
0.0
  0
VERTEX
  5
16F
  8
0
 62
     6
 10
-6.3429
 20
11.128
 30
0.0
  0
VERTEX
  5
170
  8
0
 62
     6
 10
-5.84565
 20
11.45272
 30
0.0
  0
VERTEX
  5
171
  8
0
 62
     6
 10
-5.17078
 20
11.74621
 30
0.0
  0
VERTEX
  5
172
  8
0
 62
     6
 10
-4.33883
 20
11.99956
 30
0.0
  0
VERTEX
  5
173
  8
0
 62
     6
 10
-3.37504
 20
12.20507
 30
0.0
  0
VERTEX
  5
174
  8
0
 62
     6
 10
-2.3086
 20
12.3565
 30
0.0
  0
VERTEX
  5
175
  8
0
 62
     6
 10
-1.1721
 20
12.44923
 30
0.0
  0
VERTEX
  5
176
  8
0
 62
     6
 10
0.0
 20
12.48046
 30
0.0
  0
VERTEX
  5
177
  8
0
 62
     6
 10
1.1721
 20
12.44923
 30
0.0
  0
VERTEX
  5
178
  8
0
 62
     6
 10
2.3086
 20
12.3565
 30
0.0
  0
VERTEX
  5
179
  8
0
 62
     6
 10
3.37504
 20
12.20507
 30
0.0
  0
VERTEX
  5
17A
  8
0
 62
     6
 10
4.33883
 20
11.99956
 30
0.0
  0
VERTEX
  5
17B
  8
0
 62
     6
 10
5.17078
 20
11.74621
 30
0.0
  0
VERTEX
  5
17C
  8
0
 62
     6
 10
5.84565
 20
11.45272
 30
0.0
  0
VERTEX
  5
17D
  8
0
 62
     6
 10
6.3429
 20
11.128
 30
0.0
  0
VERTEX
  5
17E
  8
0
 62
     6
 10
6.64746
 20
10.78189
 30
0.0
  0
VERTEX
  5
17F
  8
0
 62
     6
 10
6.75
 20
10.42496
 30
0.0
  0
VERTEX
  5
180
  8
0
 62
     6
 10
6.64746
 20
10.06803
 30
0.0
  0
VERTEX
  5
181
  8
0
 62
     6
 10
6.34294
 20
9.72195
 30
0.0
  0
VERTEX
  5
182
  8
0
 62
     6
 10
5.8457
 20
9.397220000000001
 30
0.0
  0
VERTEX
  5
183
  8
0
 62
     6
 10
5.17085
 20
9.103730000000001
 30
0.0
  0
VERTEX
  5
184
  8
0
 62
     6
 10
4.33883
 20
8.85036
 30
0.0
  0
VERTEX
  5
185
  8
0
 62
     6
 10
3.37504
 20
8.64485
 30
0.0
  0
VERTEX
  5
186
  8
0
 62
     6
 10
2.3087
 20
8.49343
 30
0.0
  0
VERTEX
  5
187
  8
0
 62
     6
 10
1.17212
 20
8.400690000000001
 30
0.0
  0
SEQEND
  5
1CD
  8
0
 62
     6
  0
LINE
  5
117
  8
0
 62
     6
 10
-20.0
 20
9.59502
 30
0.0
 11
-6.17532
 21
9.59502
 31
0.0
  0
LINE
  5
118
  8
0
 62
     6
 10
6.17532
 20
9.59502
 30
0.0
 11
20.0
 21
9.59502
 31
0.0
  0
ENDBLK
  5
1CF
  8
0
  0
ENDSEC
  0
SECTION
  2
ENTITIES
  0
INSERT
  5
11A
  8
1
  2
SIMBOLO_N__2
 10
-35.5
 20
31.5
 30
0.0
  0
INSERT
  5
11B
  8
1
  2
SIMBOLO_N__3
 10
-35.5
 20
-36.5
 30
0.0
  0
INSERT
  5
11C
  8
1
  2
SIMBOLO_N__4
 10
52.25
 20
4.5
 30
0.0
  0
ENDSEC
  0
EOF
