  0
SECTION
  2
HEADER
  9
$ACADVER
  1
AC1009
  9
$DWGCODEPAGE
  3
ansi_1252
  9
$INSBASE
 10
0.0
 20
0.0
 30
0.0
  9
$EXTMIN
 10
-83.62506999999999
 20
-121.39624
 30
0.0
  9
$EXTMAX
 10
83.62506999999999
 20
121.39624
 30
0.0
  9
$LIMMIN
 10
0.0
 20
0.0
  9
$LIMMAX
 10
12.0
 20
9.0
  9
$ORTHOMODE
 70
     0
  9
$REGENMODE
 70
     1
  9
$FILLMODE
 70
     1
  9
$QTEXTMODE
 70
     0
  9
$MIRRTEXT
 70
     1
  9
$DRAGMODE
 70
     2
  9
$LTSCALE
 40
0.881217
  9
$OSMODE
 70
    37
  9
$ATTMODE
 70
     1
  9
$TEXTSIZE
 40
0.2
  9
$TRACEWID
 40
0.05
  9
$TEXTSTYLE
  7
STANDARD
  9
$CLAYER
  8
0
  9
$CELTYPE
  6
BYBLOCK
  9
$CECOLOR
 62
   256
  9
$DIMSCALE
 40
1.0
  9
$DIMASZ
 40
0.18
  9
$DIMEXO
 40
0.0625
  9
$DIMDLI
 40
0.38
  9
$DIMRND
 40
0.0
  9
$DIMDLE
 40
0.0
  9
$DIMEXE
 40
0.18
  9
$DIMTP
 40
0.0
  9
$DIMTM
 40
0.0
  9
$DIMTXT
 40
0.18
  9
$DIMCEN
 40
0.09
  9
$DIMTSZ
 40
0.0
  9
$DIMTOL
 70
     0
  9
$DIMLIM
 70
     0
  9
$DIMTIH
 70
     1
  9
$DIMTOH
 70
     1
  9
$DIMSE1
 70
     0
  9
$DIMSE2
 70
     0
  9
$DIMTAD
 70
     0
  9
$DIMZIN
 70
     0
  9
$DIMBLK
  1

  9
$DIMASO
 70
     1
  9
$DIMSHO
 70
     1
  9
$DIMPOST
  1

  9
$DIMAPOST
  1

  9
$DIMALT
 70
     0
  9
$DIMALTD
 70
     2
  9
$DIMALTF
 40
25.4
  9
$DIMLFAC
 40
1.0
  9
$DIMTOFL
 70
     0
  9
$DIMTVP
 40
0.0
  9
$DIMTIX
 70
     0
  9
$DIMSOXD
 70
     0
  9
$DIMSAH
 70
     0
  9
$DIMBLK1
  1

  9
$DIMBLK2
  1

  9
$DIMSTYLE
  2
STANDARD
  9
$DIMCLRD
 70
     0
  9
$DIMCLRE
 70
     0
  9
$DIMCLRT
 70
     0
  9
$DIMTFAC
 40
1.0
  9
$DIMGAP
 40
0.09
  9
$LUNITS
 70
     2
  9
$LUPREC
 70
     4
  9
$SKETCHINC
 40
0.1
  9
$FILLETRAD
 40
0.5
  9
$AUNITS
 70
     0
  9
$AUPREC
 70
     0
  9
$MENU
  1
.
  9
$ELEVATION
 40
0.0
  9
$PELEVATION
 40
0.0
  9
$THICKNESS
 40
0.0
  9
$LIMCHECK
 70
     0
  9
$CHAMFERA
 40
0.5
  9
$CHAMFERB
 40
0.5
  9
$SKPOLY
 70
     0
  9
$TDCREATE
 40
2453619.496108947
  9
$TDUPDATE
 40
2453619.496108959
  9
$TDINDWG
 40
0.0000000116
  9
$TDUSRTIMER
 40
0.0000000116
  9
$USRTIMER
 70
     1
  9
$ANGBASE
 50
0.0
  9
$ANGDIR
 70
     0
  9
$PDMODE
 70
     0
  9
$PDSIZE
 40
0.0
  9
$PLINEWID
 40
0.0
  9
$COORDS
 70
     1
  9
$SPLFRAME
 70
     0
  9
$SPLINETYPE
 70
     6
  9
$SPLINESEGS
 70
     8
  9
$ATTDIA
 70
     0
  9
$ATTREQ
 70
     1
  9
$HANDLING
 70
     1
  9
$HANDSEED
  5
24E
  9
$SURFTAB1
 70
     6
  9
$SURFTAB2
 70
     6
  9
$SURFTYPE
 70
     6
  9
$SURFU
 70
     6
  9
$SURFV
 70
     6
  9
$UCSNAME
  2

  9
$UCSORG
 10
0.0
 20
0.0
 30
0.0
  9
$UCSXDIR
 10
1.0
 20
0.0
 30
0.0
  9
$UCSYDIR
 10
0.0
 20
1.0
 30
0.0
  9
$PUCSNAME
  2

  9
$PUCSORG
 10
0.0
 20
0.0
 30
0.0
  9
$PUCSXDIR
 10
1.0
 20
0.0
 30
0.0
  9
$PUCSYDIR
 10
0.0
 20
1.0
 30
0.0
  9
$USERI1
 70
     0
  9
$USERI2
 70
     0
  9
$USERI3
 70
     0
  9
$USERI4
 70
     0
  9
$USERI5
 70
     0
  9
$USERR1
 40
0.0
  9
$USERR2
 40
0.0
  9
$USERR3
 40
0.0
  9
$USERR4
 40
0.0
  9
$USERR5
 40
0.0
  9
$WORLDVIEW
 70
     1
  9
$SHADEDGE
 70
     3
  9
$SHADEDIF
 70
    70
  9
$TILEMODE
 70
     1
  9
$MAXACTVP
 70
    64
  9
$PLIMCHECK
 70
     0
  9
$PEXTMIN
 10
1.000000000000000E+20
 20
1.000000000000000E+20
 30
1.000000000000000E+20
  9
$PEXTMAX
 10
-1.000000000000000E+20
 20
-1.000000000000000E+20
 30
-1.000000000000000E+20
  9
$PLIMMIN
 10
0.0
 20
0.0
  9
$PLIMMAX
 10
12.0
 20
9.0
  9
$UNITMODE
 70
     0
  9
$VISRETAIN
 70
     1
  9
$PLINEGEN
 70
     0
  9
$PSLTSCALE
 70
     1
  0
ENDSEC
  0
SECTION
  2
TABLES
  0
TABLE
  2
VPORT
 70
     1
  0
VPORT
  2
*ACTIVE
 70
     0
 10
0.0
 20
0.0
 11
1.0
 21
1.0
 12
10.42990654205607
 22
4.5
 13
0.0
 23
0.0
 14
0.5
 24
0.5
 15
0.5
 25
0.5
 16
0.0
 26
0.0
 36
1.0
 17
0.0
 27
0.0
 37
0.0
 40
9.0
 41
1.972972972850329
 42
50.0
 43
0.0
 44
0.0
 50
0.0
 51
0.0
 71
     0
 72
   100
 73
     1
 74
     3
 75
     0
 76
     0
 77
     0
 78
     0
  0
ENDTAB
  0
TABLE
  2
LTYPE
 70
     9
  0
LTYPE
  2
CONTINUOUS
 70
     0
  3
Solid Line
 72
    65
 73
     0
 40
0.0
  0
LTYPE
  2
MCDASH1
 70
     0
  3
MiniCad+ Generated
 72
    65
 73
     4
 40
1.134815
 49
0.567407
 49
-0.283704
 49
0.0
 49
-0.283704
  0
LTYPE
  2
MCDASH2
 70
     0
  3
MiniCad+ Generated
 72
    65
 73
     2
 40
3.527692
 49
2.469229
 49
-1.058463
  0
LTYPE
  2
MCDASH3
 70
     0
  3
MiniCad+ Generated
 72
    65
 73
     2
 40
6.35
 49
5.291537
 49
-1.058463
  0
LTYPE
  2
MCDASH4
 70
     0
  3
MiniCad+ Generated
 72
    65
 73
     2
 40
7.760767
 49
6.702692
 49
-1.058075
  0
LTYPE
  2
MCDASH5
 70
     0
  3
MiniCad+ Generated
 72
    65
 73
     2
 40
1.058075
 49
0.352692
 49
-0.705383
  0
LTYPE
  2
MCDASH6
 70
     0
  3
MiniCad+ Generated
 72
    65
 73
     4
 40
5.291538
 49
3.175
 49
-1.058075
 49
0.352692
 49
-0.705771
  0
LTYPE
  2
MCDASH7
 70
     0
  3
MiniCad+ Generated
 72
    65
 73
     6
 40
9.525001
 49
3.175
 49
-1.058075
 49
3.175
 49
-1.058463
 49
0.352692
 49
-0.705771
  0
LTYPE
  2
MCDASH8
 70
     0
  3
MiniCad+ Generated
 72
    65
 73
     6
 40
6.350001000000001
 49
3.175
 49
-1.058075
 49
0.352692
 49
-0.705771
 49
0.352692
 49
-0.705771
  0
ENDTAB
  0
TABLE
  2
LAYER
 70
     3
  0
LAYER
  2
0
 70
     0
 62
     7
  6
CONTINUOUS
  0
LAYER
  2
GUIDE
 70
     0
 62
     7
  6
CONTINUOUS
  0
LAYER
  2
AXIS
 70
     0
 62
     1
  6
CONTINUOUS
  0
ENDTAB
  0
TABLE
  2
STYLE
 70
     1
  0
STYLE
  2
STANDARD
 70
     0
 40
0.0
 41
1.0
 50
0.0
 71
     0
 42
0.2
  3
txt
  4

  0
ENDTAB
  0
TABLE
  2
VIEW
 70
     0
  0
ENDTAB
  0
TABLE
  2
UCS
 70
     0
  0
ENDTAB
  0
TABLE
  2
APPID
 70
     1
  0
APPID
  2
ACAD
 70
     0
  0
ENDTAB
  0
TABLE
  2
DIMSTYLE
 70
     1
  0
DIMSTYLE
  2
STANDARD
 70
     0
  3

  4

  5

  6

  7

 40
1.0
 41
0.18
 42
0.0625
 43
0.38
 44
0.18
 45
0.0
 46
0.0
 47
0.0
 48
0.0
140
0.18
141
0.09
142
0.0
143
25.4
144
1.0
145
0.0
146
1.0
147
0.09
 71
     0
 72
     0
 73
     1
 74
     1
 75
     0
 76
     0
 77
     0
 78
     0
170
     0
171
     2
172
     0
173
     0
174
     0
175
     0
176
     0
177
     0
178
     0
  0
ENDTAB
  0
ENDSEC
  0
SECTION
  2
BLOCKS
  0
BLOCK
  8
0
  2
$MODEL_SPACE
 70
     0
 10
0.0
 20
0.0
 30
0.0
  3
$MODEL_SPACE
  1

  0
ENDBLK
  5
249
  8
0
  0
BLOCK
 67
     1
  8
0
  2
$PAPER_SPACE
 70
     0
 10
0.0
 20
0.0
 30
0.0
  3
$PAPER_SPACE
  1

  0
ENDBLK
  5
247
 67
     1
  8
0
  0
BLOCK
  8
0
  2
$ARROW1$
 70
     0
 10
0.0
 20
0.0
 30
0.0
  3
$ARROW1$
  1

  0
SOLID
  5
2F
  8
0
 62
     0
 10
-25.4
 20
4.318
 30
0.0
 11
-25.4
 21
-4.318
 31
0.0
 12
0.0
 22
0.0
 32
0.0
 13
0.0
 23
0.0
 33
0.0
  0
ENDBLK
  5
232
  8
0
  0
BLOCK
  8
0
  2
$ARROW2$
 70
     0
 10
0.0
 20
0.0
 30
0.0
  3
$ARROW2$
  1

  0
SOLID
  5
33
  8
0
 62
     0
 10
-25.4
 20
12.7
 30
0.0
 11
-25.4
 21
-12.7
 31
0.0
 12
0.0
 22
0.0
 32
0.0
 13
0.0
 23
0.0
 33
0.0
  0
ENDBLK
  5
234
  8
0
  0
BLOCK
  8
0
  2
$ARROW3$
 70
     0
 10
0.0
 20
0.0
 30
0.0
  3
$ARROW3$
  1

  0
POLYLINE
  5
37
  8
0
  6
BYBLOCK
 62
     0
 66
     1
 10
0.0
 20
0.0
 30
0.0
 70
     1
 40
0.5
 41
0.5
  0
VERTEX
  5
19E
  8
0
  6
BYBLOCK
 62
     0
 10
-6.35
 20
0.0
 30
0.0
 42
1.0
  0
VERTEX
  5
19F
  8
0
  6
BYBLOCK
 62
     0
 10
6.35
 20
0.0
 30
0.0
 42
1.0
  0
SEQEND
  5
235
  8
0
  6
BYBLOCK
 62
     0
  0
ENDBLK
  5
237
  8
0
  0
BLOCK
  8
0
  2
$ARROW4$
 70
     0
 10
0.0
 20
0.0
 30
0.0
  3
$ARROW4$
  1

  0
LINE
  5
3E
  8
0
  6
BYBLOCK
 62
     0
 10
12.7
 20
12.7
 30
0.0
 11
-12.7
 21
-12.7
 31
0.0
  0
ENDBLK
  5
239
  8
0
  0
BLOCK
  8
0
  2
$ARROW5$
 70
     0
 10
0.0
 20
0.0
 30
0.0
  3
$ARROW5$
  1

  0
LINE
  5
42
  8
0
  6
BYBLOCK
 62
     0
 10
12.7
 20
12.7
 30
0.0
 11
-12.7
 21
-12.7
 31
0.0
  0
LINE
  5
43
  8
0
  6
BYBLOCK
 62
     0
 10
-12.7
 20
12.7
 30
0.0
 11
12.7
 21
-12.7
 31
0.0
  0
ENDBLK
  5
23B
  8
0
  0
BLOCK
  8
0
  2
A$C3232
 70
     0
 10
0.0
 20
0.0
 30
0.0
  3
A$C3232
  1

  0
POLYLINE
  5
47
  8
0
 62
     1
 66
     1
 10
0.0
 20
0.0
 30
0.0
 70
     1
  0
VERTEX
  5
1A1
  8
0
 62
     1
 10
-18.33787
 20
25.14375
 30
0.0
  0
VERTEX
  5
1A2
  8
0
 62
     1
 10
-18.33787
 20
55.64375
 30
0.0
  0
VERTEX
  5
1A3
  8
0
 62
     1
 10
-18.32556
 20
55.80017
 30
0.0
  0
VERTEX
  5
1A4
  8
0
 62
     1
 10
-18.28893
 20
55.95275
 30
0.0
  0
VERTEX
  5
1A5
  8
0
 62
     1
 10
-18.22889
 20
56.09772
 30
0.0
  0
VERTEX
  5
1A6
  8
0
 62
     1
 10
-18.14691
 20
56.23152
 30
0.0
  0
VERTEX
  5
1A7
  8
0
 62
     1
 10
-18.04499
 20
56.35085
 30
0.0
  0
VERTEX
  5
1A8
  8
0
 62
     1
 10
-18.04498
 20
56.35086
 30
0.0
  0
VERTEX
  5
1A9
  8
0
 62
     1
 10
-17.92567
 20
56.45276
 30
0.0
  0
VERTEX
  5
1AA
  8
0
 62
     1
 10
-17.79188
 20
56.53475
 30
0.0
  0
VERTEX
  5
1AB
  8
0
 62
     1
 10
-17.64691
 20
56.5948
 30
0.0
  0
VERTEX
  5
1AC
  8
0
 62
     1
 10
-17.49432
 20
56.63144
 30
0.0
  0
VERTEX
  5
1AD
  8
0
 62
     1
 10
-17.33789
 20
56.64375
 30
0.0
  0
VERTEX
  5
1AE
  8
0
 62
     1
 10
-17.33787
 20
56.64375
 30
0.0
  0
VERTEX
  5
1AF
  8
0
 62
     1
 10
-7.83787
 20
56.64375
 30
0.0
  0
VERTEX
  5
1B0
  8
0
 62
     1
 10
-7.68144
 20
56.63144
 30
0.0
  0
VERTEX
  5
1B1
  8
0
 62
     1
 10
-7.52886
 20
56.59481
 30
0.0
  0
VERTEX
  5
1B2
  8
0
 62
     1
 10
-7.38388
 20
56.53476
 30
0.0
  0
VERTEX
  5
1B3
  8
0
 62
     1
 10
-7.25008
 20
56.45277
 30
0.0
  0
VERTEX
  5
1B4
  8
0
 62
     1
 10
-7.13076
 20
56.35086
 30
0.0
  0
VERTEX
  5
1B5
  8
0
 62
     1
 10
-7.02885
 20
56.23154
 30
0.0
  0
VERTEX
  5
1B6
  8
0
 62
     1
 10
-6.94686
 20
56.09775
 30
0.0
  0
VERTEX
  5
1B7
  8
0
 62
     1
 10
-6.88682
 20
55.95278
 30
0.0
  0
VERTEX
  5
1B8
  8
0
 62
     1
 10
-6.85018
 20
55.8002
 30
0.0
  0
VERTEX
  5
1B9
  8
0
 62
     1
 10
-6.83787
 20
55.64375
 30
0.0
  0
VERTEX
  5
1BA
  8
0
 62
     1
 10
-6.83787
 20
25.14375
 30
0.0
  0
VERTEX
  5
1BB
  8
0
 62
     1
 10
-6.85018
 20
24.98732
 30
0.0
  0
VERTEX
  5
1BC
  8
0
 62
     1
 10
-6.88681
 20
24.83474
 30
0.0
  0
VERTEX
  5
1BD
  8
0
 62
     1
 10
-6.94686
 20
24.68976
 30
0.0
  0
VERTEX
  5
1BE
  8
0
 62
     1
 10
-7.02884
 20
24.55597
 30
0.0
  0
VERTEX
  5
1BF
  8
0
 62
     1
 10
-7.13076
 20
24.43664
 30
0.0
  0
VERTEX
  5
1C0
  8
0
 62
     1
 10
-7.25008
 20
24.33473
 30
0.0
  0
VERTEX
  5
1C1
  8
0
 62
     1
 10
-7.38387
 20
24.25274
 30
0.0
  0
VERTEX
  5
1C2
  8
0
 62
     1
 10
-7.52884
 20
24.1927
 30
0.0
  0
VERTEX
  5
1C3
  8
0
 62
     1
 10
-7.68142
 20
24.15606
 30
0.0
  0
VERTEX
  5
1C4
  8
0
 62
     1
 10
-7.83787
 20
24.14375
 30
0.0
  0
VERTEX
  5
1C5
  8
0
 62
     1
 10
-17.33787
 20
24.14375
 30
0.0
  0
VERTEX
  5
1C6
  8
0
 62
     1
 10
-17.4943
 20
24.15606
 30
0.0
  0
VERTEX
  5
1C7
  8
0
 62
     1
 10
-17.64688
 20
24.19269
 30
0.0
  0
VERTEX
  5
1C8
  8
0
 62
     1
 10
-17.79186
 20
24.25274
 30
0.0
  0
VERTEX
  5
1C9
  8
0
 62
     1
 10
-17.92565
 20
24.33472
 30
0.0
  0
VERTEX
  5
1CA
  8
0
 62
     1
 10
-18.04498
 20
24.43664
 30
0.0
  0
VERTEX
  5
1CB
  8
0
 62
     1
 10
-18.14689
 20
24.55596
 30
0.0
  0
VERTEX
  5
1CC
  8
0
 62
     1
 10
-18.22888
 20
24.68975
 30
0.0
  0
VERTEX
  5
1CD
  8
0
 62
     1
 10
-18.28892
 20
24.83472
 30
0.0
  0
VERTEX
  5
1CE
  8
0
 62
     1
 10
-18.32556
 20
24.9873
 30
0.0
  0
VERTEX
  5
1CF
  8
0
 62
     1
 10
-18.33787
 20
25.14375
 30
0.0
  0
SEQEND
  5
23C
  8
0
 62
     1
  0
POLYLINE
  5
78
  8
0
 62
     1
 66
     1
 10
0.0
 20
0.0
 30
0.0
 70
     1
  0
VERTEX
  5
1D1
  8
0
 62
     1
 10
-18.33787
 20
-7.35625
 30
0.0
  0
VERTEX
  5
1D2
  8
0
 62
     1
 10
-18.33787
 20
23.14375
 30
0.0
  0
VERTEX
  5
1D3
  8
0
 62
     1
 10
-18.32556
 20
23.30017
 30
0.0
  0
VERTEX
  5
1D4
  8
0
 62
     1
 10
-18.28893
 20
23.45275
 30
0.0
  0
VERTEX
  5
1D5
  8
0
 62
     1
 10
-18.22889
 20
23.59772
 30
0.0
  0
VERTEX
  5
1D6
  8
0
 62
     1
 10
-18.14691
 20
23.73152
 30
0.0
  0
VERTEX
  5
1D7
  8
0
 62
     1
 10
-18.04499
 20
23.85085
 30
0.0
  0
VERTEX
  5
1D8
  8
0
 62
     1
 10
-18.04498
 20
23.85086
 30
0.0
  0
VERTEX
  5
1D9
  8
0
 62
     1
 10
-17.92567
 20
23.95276
 30
0.0
  0
VERTEX
  5
1DA
  8
0
 62
     1
 10
-17.79188
 20
24.03475
 30
0.0
  0
VERTEX
  5
1DB
  8
0
 62
     1
 10
-17.64691
 20
24.0948
 30
0.0
  0
VERTEX
  5
1DC
  8
0
 62
     1
 10
-17.49432
 20
24.13144
 30
0.0
  0
VERTEX
  5
1DD
  8
0
 62
     1
 10
-17.33789
 20
24.14375
 30
0.0
  0
VERTEX
  5
1DE
  8
0
 62
     1
 10
-17.33787
 20
24.14375
 30
0.0
  0
VERTEX
  5
1DF
  8
0
 62
     1
 10
-7.83787
 20
24.14375
 30
0.0
  0
VERTEX
  5
1E0
  8
0
 62
     1
 10
-7.68144
 20
24.13144
 30
0.0
  0
VERTEX
  5
1E1
  8
0
 62
     1
 10
-7.52886
 20
24.09481
 30
0.0
  0
VERTEX
  5
1E2
  8
0
 62
     1
 10
-7.38388
 20
24.03476
 30
0.0
  0
VERTEX
  5
1E3
  8
0
 62
     1
 10
-7.25008
 20
23.95277
 30
0.0
  0
VERTEX
  5
1E4
  8
0
 62
     1
 10
-7.13076
 20
23.85086
 30
0.0
  0
VERTEX
  5
1E5
  8
0
 62
     1
 10
-7.02885
 20
23.73154
 30
0.0
  0
VERTEX
  5
1E6
  8
0
 62
     1
 10
-6.94686
 20
23.59775
 30
0.0
  0
VERTEX
  5
1E7
  8
0
 62
     1
 10
-6.88682
 20
23.45278
 30
0.0
  0
VERTEX
  5
1E8
  8
0
 62
     1
 10
-6.85018
 20
23.3002
 30
0.0
  0
VERTEX
  5
1E9
  8
0
 62
     1
 10
-6.83787
 20
23.14375
 30
0.0
  0
VERTEX
  5
1EA
  8
0
 62
     1
 10
-6.83787
 20
-7.35625
 30
0.0
  0
VERTEX
  5
1EB
  8
0
 62
     1
 10
-6.85018
 20
-7.51268
 30
0.0
  0
VERTEX
  5
1EC
  8
0
 62
     1
 10
-6.88681
 20
-7.66526
 30
0.0
  0
VERTEX
  5
1ED
  8
0
 62
     1
 10
-6.94686
 20
-7.81024
 30
0.0
  0
VERTEX
  5
1EE
  8
0
 62
     1
 10
-7.02884
 20
-7.94403
 30
0.0
  0
VERTEX
  5
1EF
  8
0
 62
     1
 10
-7.13076
 20
-8.063359999999999
 30
0.0
  0
VERTEX
  5
1F0
  8
0
 62
     1
 10
-7.25008
 20
-8.16527
 30
0.0
  0
VERTEX
  5
1F1
  8
0
 62
     1
 10
-7.38387
 20
-8.247260000000001
 30
0.0
  0
VERTEX
  5
1F2
  8
0
 62
     1
 10
-7.52884
 20
-8.3073
 30
0.0
  0
VERTEX
  5
1F3
  8
0
 62
     1
 10
-7.68142
 20
-8.34394
 30
0.0
  0
VERTEX
  5
1F4
  8
0
 62
     1
 10
-7.83787
 20
-8.356249999999999
 30
0.0
  0
VERTEX
  5
1F5
  8
0
 62
     1
 10
-17.33787
 20
-8.356249999999999
 30
0.0
  0
VERTEX
  5
1F6
  8
0
 62
     1
 10
-17.4943
 20
-8.34394
 30
0.0
  0
VERTEX
  5
1F7
  8
0
 62
     1
 10
-17.64688
 20
-8.307309999999999
 30
0.0
  0
VERTEX
  5
1F8
  8
0
 62
     1
 10
-17.79186
 20
-8.247260000000001
 30
0.0
  0
VERTEX
  5
1F9
  8
0
 62
     1
 10
-17.92565
 20
-8.165279999999999
 30
0.0
  0
VERTEX
  5
1FA
  8
0
 62
     1
 10
-18.04498
 20
-8.063359999999999
 30
0.0
  0
VERTEX
  5
1FB
  8
0
 62
     1
 10
-18.14689
 20
-7.94404
 30
0.0
  0
VERTEX
  5
1FC
  8
0
 62
     1
 10
-18.22888
 20
-7.81025
 30
0.0
  0
VERTEX
  5
1FD
  8
0
 62
     1
 10
-18.28892
 20
-7.66528
 30
0.0
  0
VERTEX
  5
1FE
  8
0
 62
     1
 10
-18.32556
 20
-7.5127
 30
0.0
  0
VERTEX
  5
1FF
  8
0
 62
     1
 10
-18.33787
 20
-7.35625
 30
0.0
  0
SEQEND
  5
23D
  8
0
 62
     1
  0
ENDBLK
  5
23F
  8
0
  0
ENDSEC
  0
SECTION
  2
ENTITIES
  0
LINE
  5
AA
  8
GUIDE
 10
16.02493
 20
-70.91477999999999
 30
0.0
 11
16.02493
 21
-98.11478
 31
0.0
  0
LINE
  5
AB
  8
GUIDE
 10
19.02493
 20
-83.01478
 30
0.0
 11
19.02493
 21
-86.01478
 31
0.0
  0
LINE
  5
AC
  8
GUIDE
 10
-57.11502
 20
-78.51478
 30
0.0
 11
-57.11502
 21
-81.51478
 31
0.0
  0
LINE
  5
AD
  8
GUIDE
 10
-10.43512
 20
-78.51478
 30
0.0
 11
-10.43512
 21
-81.51478
 31
0.0
  0
LINE
  5
AE
  8
GUIDE
 10
-80.47507
 20
-98.11478
 30
0.0
 11
16.02493
 21
-98.11478
 31
0.0
  0
LINE
  5
AF
  8
GUIDE
 10
-80.47507
 20
-70.91477999999999
 30
0.0
 11
16.02493
 21
-70.91477999999999
 31
0.0
  0
LINE
  5
B0
  8
GUIDE
 10
-57.11502
 20
-78.51478
 30
0.0
 11
-10.43512
 21
-78.51478
 31
0.0
  0
LINE
  5
B1
  8
GUIDE
 10
-57.11502
 20
-90.51478
 30
0.0
 11
-10.43512
 21
-90.51478
 31
0.0
  0
LINE
  5
B2
  8
GUIDE
 10
-57.11502
 20
-81.51478
 30
0.0
 11
-10.43512
 21
-81.51478
 31
0.0
  0
LINE
  5
B3
  8
GUIDE
 10
-57.11502
 20
-87.51478
 30
0.0
 11
-10.43512
 21
-87.51478
 31
0.0
  0
LINE
  5
B4
  8
GUIDE
 10
-57.11502
 20
-87.51478
 30
0.0
 11
-57.11502
 21
-90.51478
 31
0.0
  0
LINE
  5
B5
  8
GUIDE
 10
-10.43512
 20
-87.51478
 30
0.0
 11
-10.43512
 21
-90.51478
 31
0.0
  0
LINE
  5
B6
  8
GUIDE
 10
-37.27507
 20
-81.51478
 30
0.0
 11
-37.27507
 21
-87.51478
 31
0.0
  0
LINE
  5
B7
  8
GUIDE
 10
-30.27507
 20
-81.51478
 30
0.0
 11
-30.27507
 21
-87.51478
 31
0.0
  0
LINE
  5
B8
  8
GUIDE
 10
16.02493
 20
-86.01478
 30
0.0
 11
19.02493
 21
-86.01478
 31
0.0
  0
LINE
  5
B9
  8
GUIDE
 10
16.02493
 20
-83.01478
 30
0.0
 11
19.02493
 21
-83.01478
 31
0.0
  0
LINE
  5
BA
  8
GUIDE
 10
-38.77507
 20
-78.51478
 30
0.0
 11
-28.77507
 21
-78.51478
 31
0.0
  0
ARC
  5
BB
  8
GUIDE
 10
-33.77507
 20
-88.92622
 30
0.0
 40
3.5
 50
206.992554
 51
333.007431
  0
ARC
  5
BC
  8
GUIDE
 10
-33.77507
 20
-86.37071
 30
0.0
 40
9.095050000000001
 50
59.741226
 51
120.258774
  0
ARC
  5
BD
  8
GUIDE
 10
-75.47507
 20
-74.71478000000001
 30
0.0
 40
5.75
 50
150.408157
 51
209.591843
  0
ARC
  5
BE
  8
GUIDE
 10
-75.47507
 20
-74.71478000000001
 30
0.0
 40
5.75
 50
41.366226
 51
138.633774
  0
ARC
  5
BF
  8
GUIDE
 10
-63.37507
 20
-74.71478000000001
 30
0.0
 40
5.75
 50
41.366226
 51
138.633774
  0
ARC
  5
C0
  8
GUIDE
 10
-51.27507
 20
-74.71478000000001
 30
0.0
 40
5.75
 50
41.366226
 51
138.633774
  0
ARC
  5
C1
  8
GUIDE
 10
-39.17507
 20
-74.71478000000001
 30
0.0
 40
5.75
 50
41.366226
 51
138.633774
  0
ARC
  5
C2
  8
GUIDE
 10
-27.07507
 20
-74.71478000000001
 30
0.0
 40
5.75
 50
41.366226
 51
138.633774
  0
ARC
  5
C3
  8
GUIDE
 10
-14.97507
 20
-74.71478000000001
 30
0.0
 40
5.75
 50
41.366226
 51
138.633774
  0
ARC
  5
C4
  8
GUIDE
 10
-2.87507
 20
-74.71478000000001
 30
0.0
 40
5.75
 50
41.366226
 51
138.633774
  0
ARC
  5
C5
  8
GUIDE
 10
9.224930000000001
 20
-74.71478000000001
 30
0.0
 40
5.75
 50
41.366226
 51
138.633774
  0
ARC
  5
C6
  8
GUIDE
 10
-27.07507
 20
-94.31478
 30
0.0
 40
5.75
 50
221.366226
 51
318.633774
  0
ARC
  5
C7
  8
GUIDE
 10
-75.47507
 20
-94.31478
 30
0.0
 40
5.75
 50
221.366226
 51
318.633774
  0
ARC
  5
C8
  8
GUIDE
 10
-51.27507
 20
-94.31478
 30
0.0
 40
5.75
 50
221.366226
 51
318.633774
  0
ARC
  5
C9
  8
GUIDE
 10
-63.37507
 20
-94.31478
 30
0.0
 40
5.75
 50
221.366226
 51
318.633774
  0
ARC
  5
CA
  8
GUIDE
 10
-39.17507
 20
-94.31478
 30
0.0
 40
5.75
 50
221.366226
 51
318.633774
  0
ARC
  5
CB
  8
GUIDE
 10
-2.87507
 20
-94.31478
 30
0.0
 40
5.75
 50
221.366226
 51
318.633774
  0
ARC
  5
CC
  8
GUIDE
 10
-14.97507
 20
-94.31478
 30
0.0
 40
5.75
 50
221.366226
 51
318.633774
  0
ARC
  5
CD
  8
GUIDE
 10
9.224930000000001
 20
-94.31478
 30
0.0
 40
5.75
 50
221.366226
 51
318.633774
  0
ARC
  5
CE
  8
GUIDE
 10
-75.47507
 20
-94.31478
 30
0.0
 40
5.75
 50
150.408157
 51
209.591843
  0
LINE
  5
CF
  8
GUIDE
 10
-80.42507000000001
 20
53.31478
 30
0.0
 11
16.07493
 21
53.31478
 31
0.0
  0
LINE
  5
D0
  8
GUIDE
 10
-80.42507000000001
 20
-12.68522
 30
0.0
 11
16.07493
 21
-12.68522
 31
0.0
  0
LINE
  5
D1
  8
GUIDE
 10
-83.62506999999999
 20
57.56478
 30
0.0
 11
16.07493
 21
57.56478
 31
0.0
  0
LINE
  5
D2
  8
GUIDE
 10
-83.62506999999999
 20
-16.93522
 30
0.0
 11
16.07493
 21
-16.93522
 31
0.0
  0
LINE
  5
D3
  8
GUIDE
 10
16.07493
 20
57.56478
 30
0.0
 11
16.07493
 21
53.31478
 31
0.0
  0
LINE
  5
D4
  8
GUIDE
 10
-83.62506999999999
 20
-16.93522
 30
0.0
 11
-83.62506999999999
 21
57.56478
 31
0.0
  0
LINE
  5
D5
  8
GUIDE
 10
16.07493
 20
-12.68522
 30
0.0
 11
16.07493
 21
-16.93522
 31
0.0
  0
LINE
  5
D6
  8
GUIDE
 10
-74.52507
 20
53.31478
 30
0.0
 11
-74.52507
 21
57.56478
 31
0.0
  0
LINE
  5
D7
  8
GUIDE
 10
-76.52507
 20
53.31478
 30
0.0
 11
-76.52507
 21
57.56478
 31
0.0
  0
LINE
  5
D8
  8
GUIDE
 10
-64.42507000000001
 20
53.31478
 30
0.0
 11
-64.42507000000001
 21
57.56478
 31
0.0
  0
LINE
  5
D9
  8
GUIDE
 10
-62.42507
 20
53.31478
 30
0.0
 11
-62.42507
 21
57.56478
 31
0.0
  0
LINE
  5
DA
  8
GUIDE
 10
-52.42507
 20
53.31478
 30
0.0
 11
-52.42507
 21
57.56478
 31
0.0
  0
LINE
  5
DB
  8
GUIDE
 10
-50.42507
 20
53.31478
 30
0.0
 11
-50.42507
 21
57.56478
 31
0.0
  0
LINE
  5
DC
  8
GUIDE
 10
-40.32507
 20
53.31478
 30
0.0
 11
-40.32507
 21
57.56478
 31
0.0
  0
LINE
  5
DD
  8
GUIDE
 10
-38.32507
 20
53.31478
 30
0.0
 11
-38.32507
 21
57.56478
 31
0.0
  0
LINE
  5
DE
  8
GUIDE
 10
-28.22507
 20
53.31478
 30
0.0
 11
-28.22507
 21
57.56478
 31
0.0
  0
LINE
  5
DF
  8
GUIDE
 10
-26.22507
 20
53.31478
 30
0.0
 11
-26.22507
 21
57.56478
 31
0.0
  0
LINE
  5
E0
  8
GUIDE
 10
-16.12507
 20
53.31478
 30
0.0
 11
-16.12507
 21
57.56478
 31
0.0
  0
LINE
  5
E1
  8
GUIDE
 10
-14.12507
 20
53.31478
 30
0.0
 11
-14.12507
 21
57.56478
 31
0.0
  0
LINE
  5
E2
  8
GUIDE
 10
-16.12507
 20
-16.93522
 30
0.0
 11
-16.12507
 21
-12.68522
 31
0.0
  0
LINE
  5
E3
  8
GUIDE
 10
-14.12507
 20
-16.93522
 30
0.0
 11
-14.12507
 21
-12.68522
 31
0.0
  0
LINE
  5
E4
  8
GUIDE
 10
-28.22507
 20
-12.68522
 30
0.0
 11
-28.22507
 21
-16.93522
 31
0.0
  0
LINE
  5
E5
  8
GUIDE
 10
-26.22507
 20
-12.68522
 30
0.0
 11
-26.22507
 21
-16.93522
 31
0.0
  0
LINE
  5
E6
  8
GUIDE
 10
-38.32507
 20
-12.68522
 30
0.0
 11
-38.32507
 21
-16.93522
 31
0.0
  0
LINE
  5
E7
  8
GUIDE
 10
-40.32507
 20
-12.68522
 30
0.0
 11
-40.32507
 21
-16.93522
 31
0.0
  0
LINE
  5
E8
  8
GUIDE
 10
-52.42507
 20
-16.93522
 30
0.0
 11
-52.42507
 21
-12.68522
 31
0.0
  0
LINE
  5
E9
  8
GUIDE
 10
-50.42507
 20
-16.93522
 30
0.0
 11
-50.42507
 21
-12.68522
 31
0.0
  0
LINE
  5
EA
  8
GUIDE
 10
-62.42507
 20
-12.68522
 30
0.0
 11
-62.42507
 21
-16.93522
 31
0.0
  0
LINE
  5
EB
  8
GUIDE
 10
-64.42507000000001
 20
-12.68522
 30
0.0
 11
-64.42507000000001
 21
-16.93522
 31
0.0
  0
LINE
  5
EC
  8
GUIDE
 10
-74.52507
 20
-12.68522
 30
0.0
 11
-74.52507
 21
-16.93522
 31
0.0
  0
LINE
  5
ED
  8
GUIDE
 10
-76.52507
 20
-12.68522
 30
0.0
 11
-76.52507
 21
-16.93522
 31
0.0
  0
LINE
  5
EE
  8
GUIDE
 10
-80.42507000000001
 20
53.31478
 30
0.0
 11
-80.42507000000001
 21
57.56478
 31
0.0
  0
LINE
  5
EF
  8
GUIDE
 10
-80.42507000000001
 20
-12.68522
 30
0.0
 11
-80.42507000000001
 21
-16.93522
 31
0.0
  0
LINE
  5
F0
  8
GUIDE
 10
15.57493
 20
52.81478
 30
0.0
 11
19.07493
 21
52.81478
 31
0.0
  0
LINE
  5
F1
  8
GUIDE
 10
19.07493
 20
52.81478
 30
0.0
 11
19.07493
 21
-12.18522
 31
0.0
  0
ARC
  5
F2
  8
GUIDE
 10
15.47258
 20
53.44484
 30
0.0
 40
0.63831
 50
191.755997
 51
279.227081
  0
LINE
  5
F3
  8
GUIDE
 10
15.57493
 20
-12.18522
 30
0.0
 11
19.07493
 21
-12.18522
 31
0.0
  0
ARC
  5
F4
  8
GUIDE
 10
15.47258
 20
-12.81527
 30
0.0
 40
0.63831
 50
80.772919
 51
168.244003
  0
LINE
  5
F5
  8
GUIDE
 10
-2.02507
 20
53.31478
 30
0.0
 11
-2.02507
 21
57.56478
 31
0.0
  0
LINE
  5
F6
  8
GUIDE
 10
-4.02507
 20
53.31478
 30
0.0
 11
-4.02507
 21
57.56478
 31
0.0
  0
LINE
  5
F7
  8
GUIDE
 10
10.07493
 20
53.31478
 30
0.0
 11
10.07493
 21
57.56478
 31
0.0
  0
LINE
  5
F8
  8
GUIDE
 10
8.07493
 20
53.31478
 30
0.0
 11
8.07493
 21
57.56478
 31
0.0
  0
LINE
  5
F9
  8
GUIDE
 10
-2.02507
 20
-12.68522
 30
0.0
 11
-2.02507
 21
-16.93522
 31
0.0
  0
LINE
  5
FA
  8
GUIDE
 10
-4.02507
 20
-12.68522
 30
0.0
 11
-4.02507
 21
-16.93522
 31
0.0
  0
LINE
  5
FB
  8
GUIDE
 10
10.07493
 20
-16.93522
 30
0.0
 11
10.07493
 21
-12.68522
 31
0.0
  0
LINE
  5
FC
  8
GUIDE
 10
8.07493
 20
-16.93522
 30
0.0
 11
8.07493
 21
-12.68522
 31
0.0
  0
CIRCLE
  5
FD
  8
GUIDE
 10
-33.72507
 20
94.06478
 30
0.0
 40
3.5
  0
LINE
  5
FE
  8
GUIDE
 10
-54.32852
 20
59.33532
 30
0.0
 11
-39.5043
 21
95.67737
 31
0.0
  0
ARC
  5
FF
  8
GUIDE
 10
-57.06502
 20
60.56478
 30
0.0
 40
3.0
 50
270.0
 51
335.806305
  0
ARC
  5
100
  8
GUIDE
 10
-10.38512
 20
60.56478
 30
0.0
 40
3.0
 50
204.193695
 51
270.0
  0
ARC
  5
101
  8
GUIDE
 10
-33.72507
 20
94.06478
 30
0.0
 40
6.0
 50
15.59079
 51
164.40921
  0
LINE
  5
102
  8
GUIDE
 10
-13.12162
 20
59.33532
 30
0.0
 11
-27.94583
 21
95.67737
 31
0.0
  0
LINE
  5
103
  8
GUIDE
 10
-37.18917
 20
94.56478
 30
0.0
 11
-30.26097
 21
94.56478
 31
0.0
  0
LINE
  5
104
  8
GUIDE
 10
-37.18917
 20
93.56478
 30
0.0
 11
-30.22507
 21
93.56478
 31
0.0
  0
POLYLINE
  5
105
  8
GUIDE
 66
     1
 10
0.0
 20
0.0
 30
0.0
 70
     1
  0
VERTEX
  5
180
  8
GUIDE
 10
-29.72507
 20
52.51478
 30
0.0
  0
VERTEX
  5
181
  8
GUIDE
 10
-29.72507
 20
53.31478
 30
0.0
  0
VERTEX
  5
182
  8
GUIDE
 10
-24.72507
 20
53.31478
 30
0.0
  0
VERTEX
  5
183
  8
GUIDE
 10
-24.72507
 20
52.51478
 30
0.0
  0
SEQEND
  5
240
  8
GUIDE
  0
LINE
  5
10B
  8
GUIDE
 10
-65.92507000000001
 20
53.31478
 30
0.0
 11
-65.92507000000001
 21
52.51478
 31
0.0
  0
LINE
  5
10C
  8
GUIDE
 10
-60.92507
 20
52.51478
 30
0.0
 11
-60.92507
 21
53.31478
 31
0.0
  0
LINE
  5
10D
  8
GUIDE
 10
-60.92507
 20
53.31478
 30
0.0
 11
-65.92507000000001
 21
53.31478
 31
0.0
  0
POLYLINE
  5
10E
  8
GUIDE
 66
     1
 10
0.0
 20
0.0
 30
0.0
 70
     1
  0
VERTEX
  5
185
  8
GUIDE
 10
-78.02507
 20
52.36478
 30
0.0
  0
VERTEX
  5
186
  8
GUIDE
 10
-78.02507
 20
53.31478
 30
0.0
  0
VERTEX
  5
187
  8
GUIDE
 10
-73.02507
 20
53.31478
 30
0.0
  0
VERTEX
  5
188
  8
GUIDE
 10
-73.02507
 20
52.36478
 30
0.0
  0
SEQEND
  5
241
  8
GUIDE
  0
LINE
  5
114
  8
GUIDE
 10
-41.82507
 20
53.31478
 30
0.0
 11
-41.82507
 21
52.51478
 31
0.0
  0
LINE
  5
115
  8
GUIDE
 10
-36.82507
 20
52.51478
 30
0.0
 11
-36.82507
 21
53.31478
 31
0.0
  0
LINE
  5
116
  8
GUIDE
 10
-36.82507
 20
53.31478
 30
0.0
 11
-41.82507
 21
53.31478
 31
0.0
  0
POLYLINE
  5
117
  8
GUIDE
 66
     1
 10
0.0
 20
0.0
 30
0.0
 70
     1
  0
VERTEX
  5
18A
  8
GUIDE
 10
-53.92507
 20
52.51478
 30
0.0
  0
VERTEX
  5
18B
  8
GUIDE
 10
-53.92507
 20
53.31478
 30
0.0
  0
VERTEX
  5
18C
  8
GUIDE
 10
-48.92507
 20
53.31478
 30
0.0
  0
VERTEX
  5
18D
  8
GUIDE
 10
-48.92507
 20
52.51478
 30
0.0
  0
SEQEND
  5
242
  8
GUIDE
  0
POLYLINE
  5
11D
  8
GUIDE
 66
     1
 10
0.0
 20
0.0
 30
0.0
 70
     1
  0
VERTEX
  5
18F
  8
GUIDE
 10
-5.52507
 20
52.51478
 30
0.0
  0
VERTEX
  5
190
  8
GUIDE
 10
-5.52507
 20
53.31478
 30
0.0
  0
VERTEX
  5
191
  8
GUIDE
 10
-0.52507
 20
53.31478
 30
0.0
  0
VERTEX
  5
192
  8
GUIDE
 10
-0.52507
 20
52.51478
 30
0.0
  0
SEQEND
  5
243
  8
GUIDE
  0
LINE
  5
123
  8
GUIDE
 10
-17.62507
 20
53.31478
 30
0.0
 11
-17.62507
 21
52.51478
 31
0.0
  0
LINE
  5
124
  8
GUIDE
 10
-12.62507
 20
52.51478
 30
0.0
 11
-12.62507
 21
53.31478
 31
0.0
  0
LINE
  5
125
  8
GUIDE
 10
-12.62507
 20
53.31478
 30
0.0
 11
-17.62507
 21
53.31478
 31
0.0
  0
LINE
  5
126
  8
GUIDE
 10
6.57493
 20
53.31478
 30
0.0
 11
6.57493
 21
52.51478
 31
0.0
  0
LINE
  5
127
  8
GUIDE
 10
11.57493
 20
52.51478
 30
0.0
 11
11.57493
 21
53.31478
 31
0.0
  0
LINE
  5
128
  8
GUIDE
 10
11.57493
 20
53.31478
 30
0.0
 11
6.57493
 21
53.31478
 31
0.0
  0
INSERT
  5
129
  8
GUIDE
  2
A$C3232
 10
-62.9372
 20
-4.27897
 30
0.0
  0
INSERT
  5
12A
  8
GUIDE
  2
A$C3232
 10
-50.8372
 20
-4.27897
 30
0.0
  0
INSERT
  5
12B
  8
GUIDE
  2
A$C3232
 10
-38.7372
 20
-4.27897
 30
0.0
  0
INSERT
  5
12C
  8
GUIDE
  2
A$C3232
 10
-26.6372
 20
-4.27897
 30
0.0
  0
INSERT
  5
12D
  8
GUIDE
  2
A$C3232
 10
-14.5372
 20
-4.27897
 30
0.0
  0
INSERT
  5
12E
  8
GUIDE
  2
A$C3232
 10
-2.4372
 20
-4.27897
 30
0.0
  0
INSERT
  5
12F
  8
GUIDE
  2
A$C3232
 10
9.662800000000001
 20
-4.27897
 30
0.0
  0
INSERT
  5
130
  8
GUIDE
  2
A$C3232
 10
21.7628
 20
-4.27897
 30
0.0
  0
POLYLINE
  5
131
  8
GUIDE
 66
     1
 10
0.0
 20
0.0
 30
0.0
 70
     1
  0
VERTEX
  5
194
  8
GUIDE
 10
75.16795999999999
 20
52.31478
 30
0.0
  0
VERTEX
  5
195
  8
GUIDE
 10
75.16795999999999
 20
52.81478
 30
0.0
  0
VERTEX
  5
196
  8
GUIDE
 10
80.16795999999999
 20
52.81478
 30
0.0
  0
VERTEX
  5
197
  8
GUIDE
 10
80.16795999999999
 20
52.31478
 30
0.0
  0
SEQEND
  5
244
  8
GUIDE
  0
LINE
  5
137
  8
GUIDE
 10
67.86796
 20
-16.93522
 30
0.0
 11
81.46796000000001
 21
-16.93522
 31
0.0
  0
ARC
  5
138
  8
GUIDE
 10
80.22835000000001
 20
-13.90191
 30
0.0
 40
1.24006
 50
358.460831
 51
78.85878000000001
  0
LINE
  5
139
  8
GUIDE
 10
81.46796000000001
 20
-13.93522
 30
0.0
 11
81.46796000000001
 21
-16.93522
 31
0.0
  0
LINE
  5
13A
  8
GUIDE
 10
81.46796000000001
 20
57.06478
 30
0.0
 11
81.46796000000001
 21
53.81478
 31
0.0
  0
ARC
  5
13B
  8
GUIDE
 10
80.46796000000001
 20
53.81478
 30
0.0
 40
1.0
 50
270.0
 51
0.0
  0
LINE
  5
13C
  8
GUIDE
 10
80.46796000000001
 20
52.81478
 30
0.0
 11
70.86796
 21
52.81478
 31
0.0
  0
ARC
  5
13D
  8
GUIDE
 10
70.86796
 20
51.81478
 30
0.0
 40
1.0
 50
90.0
 51
180.0
  0
LINE
  5
13E
  8
GUIDE
 10
69.86796
 20
51.81478
 30
0.0
 11
69.86796
 21
-11.68522
 31
0.0
  0
ARC
  5
13F
  8
GUIDE
 10
70.86796
 20
-11.68522
 30
0.0
 40
1.0
 50
180.0
 51
270.0
  0
LINE
  5
140
  8
GUIDE
 10
70.86796
 20
-12.68522
 30
0.0
 11
80.46796000000001
 21
-12.68522
 31
0.0
  0
LINE
  5
141
  8
GUIDE
 10
67.86796
 20
-16.93522
 30
0.0
 11
54.26796
 21
-16.93522
 31
0.0
  0
LINE
  5
142
  8
GUIDE
 10
65.86796
 20
51.81478
 30
0.0
 11
65.86796
 21
-11.68522
 31
0.0
  0
LINE
  5
143
  8
GUIDE
 10
64.86796
 20
-12.68522
 30
0.0
 11
55.26796
 21
-12.68522
 31
0.0
  0
ARC
  5
144
  8
GUIDE
 10
64.86796
 20
-11.68522
 30
0.0
 40
1.0
 50
270.0
 51
0.0
  0
LINE
  5
145
  8
GUIDE
 10
54.26796
 20
-13.93522
 30
0.0
 11
54.26796
 21
-16.93522
 31
0.0
  0
ARC
  5
146
  8
GUIDE
 10
55.50758
 20
-13.90191
 30
0.0
 40
1.24006
 50
101.14122
 51
181.539169
  0
LINE
  5
147
  8
GUIDE
 10
55.26796
 20
52.81478
 30
0.0
 11
64.86796
 21
52.81478
 31
0.0
  0
POLYLINE
  5
148
  8
GUIDE
 66
     1
 10
0.0
 20
0.0
 30
0.0
 70
     1
  0
VERTEX
  5
199
  8
GUIDE
 10
60.56796
 20
52.31478
 30
0.0
  0
VERTEX
  5
19A
  8
GUIDE
 10
60.56796
 20
52.81478
 30
0.0
  0
VERTEX
  5
19B
  8
GUIDE
 10
55.56796
 20
52.81478
 30
0.0
  0
VERTEX
  5
19C
  8
GUIDE
 10
55.56796
 20
52.31478
 30
0.0
  0
SEQEND
  5
245
  8
GUIDE
  0
ARC
  5
14E
  8
GUIDE
 10
64.86796
 20
51.81478
 30
0.0
 40
1.0
 50
0.0
 51
90.0
  0
LINE
  5
14F
  8
GUIDE
 10
54.26796
 20
57.06478
 30
0.0
 11
54.26796
 21
53.81478
 31
0.0
  0
ARC
  5
150
  8
GUIDE
 10
55.26796
 20
53.81478
 30
0.0
 40
1.0
 50
180.0
 51
270.0
  0
LINE
  5
151
  8
GUIDE
 10
65.18975
 20
98.68161000000001
 30
0.0
 11
62.18975
 21
98.68161000000001
 31
0.0
  0
LINE
  5
152
  8
GUIDE
 10
62.18975
 20
98.68161000000001
 30
0.0
 11
62.18975
 21
88.68161000000001
 31
0.0
  0
ARC
  5
153
  8
GUIDE
 10
63.77832
 20
93.68161000000001
 30
0.0
 40
3.5
 50
116.992554
 51
243.007431
  0
LINE
  5
154
  8
GUIDE
 10
74.18975
 20
98.68161000000001
 30
0.0
 11
71.18975
 21
98.68161000000001
 31
0.0
  0
LINE
  5
155
  8
GUIDE
 10
71.18975
 20
98.68161000000001
 30
0.0
 11
71.18975
 21
88.68161000000001
 31
0.0
  0
LINE
  5
156
  8
GUIDE
 10
65.18975
 20
98.68161000000001
 30
0.0
 11
65.18975
 21
88.68161000000001
 31
0.0
  0
LINE
  5
157
  8
GUIDE
 10
71.18975
 20
96.68161000000001
 30
0.0
 11
65.18975
 21
96.68161000000001
 31
0.0
  0
ARC
  5
158
  8
GUIDE
 10
66.33383000000001
 20
93.68161000000001
 30
0.0
 40
9.095050000000001
 50
329.741226
 51
30.258774
  0
LINE
  5
159
  8
GUIDE
 10
74.18975
 20
98.68161000000001
 30
0.0
 11
74.18975
 21
88.68161000000001
 31
0.0
  0
LINE
  5
15A
  8
GUIDE
 10
62.18975
 20
88.68161000000001
 30
0.0
 11
62.18975
 21
57.18161
 31
0.0
  0
LINE
  5
15B
  8
GUIDE
 10
62.18975
 20
88.68161000000001
 30
0.0
 11
55.58975
 21
57.18161
 31
0.0
  0
LINE
  5
15C
  8
GUIDE
 10
71.18975
 20
88.68161000000001
 30
0.0
 11
71.18975
 21
57.18161
 31
0.0
  0
LINE
  5
15D
  8
GUIDE
 10
65.18975
 20
88.68161000000001
 30
0.0
 11
65.18975
 21
57.18161
 31
0.0
  0
LINE
  5
15E
  8
GUIDE
 10
74.18975
 20
88.68161000000001
 30
0.0
 11
74.18975
 21
57.18161
 31
0.0
  0
LINE
  5
15F
  8
GUIDE
 10
74.18975
 20
88.68161000000001
 30
0.0
 11
80.78975
 21
57.18161
 31
0.0
  0
INSERT
  5
160
  8
GUIDE
  2
A$C3232
 10
90.25583
 20
-4.32897
 30
0.0
  0
INSERT
  5
161
  8
GUIDE
  2
A$C3232
 10
70.65583
 20
-4.32897
 30
0.0
  0
LINE
  5
162
  8
GUIDE
 10
54.26796
 20
57.06478
 30
0.0
 11
81.46796000000001
 21
57.06478
 31
0.0
  0
LINE
  5
163
  8
GUIDE
 10
-83.57507
 20
-83.01478
 30
0.0
 11
-83.57507
 21
-86.01478
 31
0.0
  0
LINE
  5
164
  8
GUIDE
 10
-80.47507
 20
-70.91477999999999
 30
0.0
 11
-80.47507
 21
-83.01478
 31
0.0
  0
LINE
  5
165
  8
GUIDE
 10
-83.57507
 20
-83.01478
 30
0.0
 11
-80.47507
 21
-83.01478
 31
0.0
  0
LINE
  5
166
  8
GUIDE
 10
-83.57507
 20
-86.01478
 30
0.0
 11
-80.47507
 21
-86.01478
 31
0.0
  0
LINE
  5
167
  8
GUIDE
 10
-80.47507
 20
-86.01478
 30
0.0
 11
-80.47507
 21
-98.11478
 31
0.0
  0
LINE
  5
168
  8
GUIDE
 10
-114.57507
 20
-83.01478
 30
0.0
 11
-114.57507
 21
-86.01478
 31
0.0
  0
ARC
  5
169
  8
GUIDE
 10
-83.19833
 20
-117.34013
 30
0.0
 40
46.50516
 50
86.64308200000001
 51
132.430908
  0
ARC
  5
16A
  8
GUIDE
 10
-83.19833
 20
-51.68943
 30
0.0
 40
46.50516
 50
227.569092
 51
273.356918
  0
LINE
  5
16B
  8
GUIDE
 10
-114.62507
 20
-16.93522
 30
0.0
 11
-114.62507
 21
57.56478
 31
0.0
  0
LINE
  5
16C
  8
GUIDE
 10
-83.62506999999999
 20
57.56478
 30
0.0
 11
-114.62507
 21
57.56478
 31
0.0
  0
LINE
  5
16D
  8
GUIDE
 10
-83.62506999999999
 20
-16.93522
 30
0.0
 11
-114.62507
 21
-16.93522
 31
0.0
  0
LINE
  5
16E
  8
AXIS
 62
     1
 10
-33.77507
 20
-78.51478
 30
0.0
 11
-33.77507
 21
-90.51478
 31
0.0
  0
ENDSEC
  0
EOF
