  0
SECTION
  2
HEADER
  9
$ACADVER
  1
AC1009
  9
$DWGCODEPAGE
  3
ansi_1252
  9
$INSBASE
 10
0.0
 20
0.0
 30
0.0
  9
$EXTMIN
 10
-82.05228
 20
-119.11306
 30
0.0
  9
$EXTMAX
 10
82.05228
 20
119.11306
 30
0.0
  9
$LIMMIN
 10
0.0
 20
0.0
  9
$LIMMAX
 10
12.0
 20
9.0
  9
$ORTHOMODE
 70
     0
  9
$REGENMODE
 70
     1
  9
$FILLMODE
 70
     1
  9
$QTEXTMODE
 70
     0
  9
$MIRRTEXT
 70
     1
  9
$DRAGMODE
 70
     2
  9
$LTSCALE
 40
0.864644
  9
$OSMODE
 70
    37
  9
$ATTMODE
 70
     1
  9
$TEXTSIZE
 40
0.2
  9
$TRACEWID
 40
0.05
  9
$TEXTSTYLE
  7
STANDARD
  9
$CLAYER
  8
0
  9
$CELTYPE
  6
BYBLOCK
  9
$CECOLOR
 62
   256
  9
$DIMSCALE
 40
1.0
  9
$DIMASZ
 40
0.18
  9
$DIMEXO
 40
0.0625
  9
$DIMDLI
 40
0.38
  9
$DIMRND
 40
0.0
  9
$DIMDLE
 40
0.0
  9
$DIMEXE
 40
0.18
  9
$DIMTP
 40
0.0
  9
$DIMTM
 40
0.0
  9
$DIMTXT
 40
0.18
  9
$DIMCEN
 40
0.09
  9
$DIMTSZ
 40
0.0
  9
$DIMTOL
 70
     0
  9
$DIMLIM
 70
     0
  9
$DIMTIH
 70
     1
  9
$DIMTOH
 70
     1
  9
$DIMSE1
 70
     0
  9
$DIMSE2
 70
     0
  9
$DIMTAD
 70
     0
  9
$DIMZIN
 70
     0
  9
$DIMBLK
  1

  9
$DIMASO
 70
     1
  9
$DIMSHO
 70
     1
  9
$DIMPOST
  1

  9
$DIMAPOST
  1

  9
$DIMALT
 70
     0
  9
$DIMALTD
 70
     2
  9
$DIMALTF
 40
25.4
  9
$DIMLFAC
 40
1.0
  9
$DIMTOFL
 70
     0
  9
$DIMTVP
 40
0.0
  9
$DIMTIX
 70
     0
  9
$DIMSOXD
 70
     0
  9
$DIMSAH
 70
     0
  9
$DIMBLK1
  1

  9
$DIMBLK2
  1

  9
$DIMSTYLE
  2
STANDARD
  9
$DIMCLRD
 70
     0
  9
$DIMCLRE
 70
     0
  9
$DIMCLRT
 70
     0
  9
$DIMTFAC
 40
1.0
  9
$DIMGAP
 40
0.09
  9
$LUNITS
 70
     2
  9
$LUPREC
 70
     4
  9
$SKETCHINC
 40
0.1
  9
$FILLETRAD
 40
0.5
  9
$AUNITS
 70
     0
  9
$AUPREC
 70
     0
  9
$MENU
  1
.
  9
$ELEVATION
 40
0.0
  9
$PELEVATION
 40
0.0
  9
$THICKNESS
 40
0.0
  9
$LIMCHECK
 70
     0
  9
$CHAMFERA
 40
0.5
  9
$CHAMFERB
 40
0.5
  9
$SKPOLY
 70
     0
  9
$TDCREATE
 40
2453619.496107789
  9
$TDUPDATE
 40
2453619.496107801
  9
$TDINDWG
 40
0.0000000116
  9
$TDUSRTIMER
 40
0.0000000116
  9
$USRTIMER
 70
     1
  9
$ANGBASE
 50
0.0
  9
$ANGDIR
 70
     0
  9
$PDMODE
 70
     0
  9
$PDSIZE
 40
0.0
  9
$PLINEWID
 40
0.0
  9
$COORDS
 70
     1
  9
$SPLFRAME
 70
     0
  9
$SPLINETYPE
 70
     6
  9
$SPLINESEGS
 70
     8
  9
$ATTDIA
 70
     0
  9
$ATTREQ
 70
     1
  9
$HANDLING
 70
     1
  9
$HANDSEED
  5
317
  9
$SURFTAB1
 70
     6
  9
$SURFTAB2
 70
     6
  9
$SURFTYPE
 70
     6
  9
$SURFU
 70
     6
  9
$SURFV
 70
     6
  9
$UCSNAME
  2

  9
$UCSORG
 10
0.0
 20
0.0
 30
0.0
  9
$UCSXDIR
 10
1.0
 20
0.0
 30
0.0
  9
$UCSYDIR
 10
0.0
 20
1.0
 30
0.0
  9
$PUCSNAME
  2

  9
$PUCSORG
 10
0.0
 20
0.0
 30
0.0
  9
$PUCSXDIR
 10
1.0
 20
0.0
 30
0.0
  9
$PUCSYDIR
 10
0.0
 20
1.0
 30
0.0
  9
$USERI1
 70
     0
  9
$USERI2
 70
     0
  9
$USERI3
 70
     0
  9
$USERI4
 70
     0
  9
$USERI5
 70
     0
  9
$USERR1
 40
0.0
  9
$USERR2
 40
0.0
  9
$USERR3
 40
0.0
  9
$USERR4
 40
0.0
  9
$USERR5
 40
0.0
  9
$WORLDVIEW
 70
     1
  9
$SHADEDGE
 70
     3
  9
$SHADEDIF
 70
    70
  9
$TILEMODE
 70
     1
  9
$MAXACTVP
 70
    64
  9
$PLIMCHECK
 70
     0
  9
$PEXTMIN
 10
1.000000000000000E+20
 20
1.000000000000000E+20
 30
1.000000000000000E+20
  9
$PEXTMAX
 10
-1.000000000000000E+20
 20
-1.000000000000000E+20
 30
-1.000000000000000E+20
  9
$PLIMMIN
 10
0.0
 20
0.0
  9
$PLIMMAX
 10
12.0
 20
9.0
  9
$UNITMODE
 70
     0
  9
$VISRETAIN
 70
     1
  9
$PLINEGEN
 70
     0
  9
$PSLTSCALE
 70
     1
  0
ENDSEC
  0
SECTION
  2
TABLES
  0
TABLE
  2
VPORT
 70
     1
  0
VPORT
  2
*ACTIVE
 70
     0
 10
0.0
 20
0.0
 11
1.0
 21
1.0
 12
10.42990654205607
 22
4.5
 13
0.0
 23
0.0
 14
0.5
 24
0.5
 15
0.5
 25
0.5
 16
0.0
 26
0.0
 36
1.0
 17
0.0
 27
0.0
 37
0.0
 40
9.0
 41
1.972972972850329
 42
50.0
 43
0.0
 44
0.0
 50
0.0
 51
0.0
 71
     0
 72
   100
 73
     1
 74
     3
 75
     0
 76
     0
 77
     0
 78
     0
  0
ENDTAB
  0
TABLE
  2
LTYPE
 70
     9
  0
LTYPE
  2
CONTINUOUS
 70
     0
  3
Solid Line
 72
    65
 73
     0
 40
0.0
  0
LTYPE
  2
MCDASH1
 70
     0
  3
MiniCad+ Generated
 72
    65
 73
     4
 40
1.156519
 49
0.578259
 49
-0.28913
 49
0.0
 49
-0.28913
  0
LTYPE
  2
MCDASH2
 70
     0
  3
MiniCad+ Generated
 72
    65
 73
     2
 40
3.527692
 49
2.469229
 49
-1.058463
  0
LTYPE
  2
MCDASH3
 70
     0
  3
MiniCad+ Generated
 72
    65
 73
     2
 40
6.35
 49
5.291537
 49
-1.058463
  0
LTYPE
  2
MCDASH4
 70
     0
  3
MiniCad+ Generated
 72
    65
 73
     2
 40
7.760767
 49
6.702692
 49
-1.058075
  0
LTYPE
  2
MCDASH5
 70
     0
  3
MiniCad+ Generated
 72
    65
 73
     2
 40
1.058075
 49
0.352692
 49
-0.705383
  0
LTYPE
  2
MCDASH6
 70
     0
  3
MiniCad+ Generated
 72
    65
 73
     4
 40
5.291538
 49
3.175
 49
-1.058075
 49
0.352692
 49
-0.705771
  0
LTYPE
  2
MCDASH7
 70
     0
  3
MiniCad+ Generated
 72
    65
 73
     6
 40
9.525001
 49
3.175
 49
-1.058075
 49
3.175
 49
-1.058463
 49
0.352692
 49
-0.705771
  0
LTYPE
  2
MCDASH8
 70
     0
  3
MiniCad+ Generated
 72
    65
 73
     6
 40
6.350001000000001
 49
3.175
 49
-1.058075
 49
0.352692
 49
-0.705771
 49
0.352692
 49
-0.705771
  0
ENDTAB
  0
TABLE
  2
LAYER
 70
     3
  0
LAYER
  2
0
 70
     0
 62
     7
  6
CONTINUOUS
  0
LAYER
  2
GUIDE
 70
     0
 62
     7
  6
CONTINUOUS
  0
LAYER
  2
AXIS
 70
     0
 62
     1
  6
CONTINUOUS
  0
ENDTAB
  0
TABLE
  2
STYLE
 70
     1
  0
STYLE
  2
STANDARD
 70
     0
 40
0.0
 41
1.0
 50
0.0
 71
     0
 42
0.2
  3
txt
  4

  0
ENDTAB
  0
TABLE
  2
VIEW
 70
     0
  0
ENDTAB
  0
TABLE
  2
UCS
 70
     0
  0
ENDTAB
  0
TABLE
  2
APPID
 70
     1
  0
APPID
  2
ACAD
 70
     0
  0
ENDTAB
  0
TABLE
  2
DIMSTYLE
 70
     1
  0
DIMSTYLE
  2
STANDARD
 70
     0
  3

  4

  5

  6

  7

 40
1.0
 41
0.18
 42
0.0625
 43
0.38
 44
0.18
 45
0.0
 46
0.0
 47
0.0
 48
0.0
140
0.18
141
0.09
142
0.0
143
25.4
144
1.0
145
0.0
146
1.0
147
0.09
 71
     0
 72
     0
 73
     1
 74
     1
 75
     0
 76
     0
 77
     0
 78
     0
170
     0
171
     2
172
     0
173
     0
174
     0
175
     0
176
     0
177
     0
178
     0
  0
ENDTAB
  0
ENDSEC
  0
SECTION
  2
BLOCKS
  0
BLOCK
  8
0
  2
$MODEL_SPACE
 70
     0
 10
0.0
 20
0.0
 30
0.0
  3
$MODEL_SPACE
  1

  0
ENDBLK
  5
312
  8
0
  0
BLOCK
 67
     1
  8
0
  2
$PAPER_SPACE
 70
     0
 10
0.0
 20
0.0
 30
0.0
  3
$PAPER_SPACE
  1

  0
ENDBLK
  5
310
 67
     1
  8
0
  0
BLOCK
  8
0
  2
$ARROW1$
 70
     0
 10
0.0
 20
0.0
 30
0.0
  3
$ARROW1$
  1

  0
SOLID
  5
2F
  8
0
 62
     0
 10
-25.4
 20
4.318
 30
0.0
 11
-25.4
 21
-4.318
 31
0.0
 12
0.0
 22
0.0
 32
0.0
 13
0.0
 23
0.0
 33
0.0
  0
ENDBLK
  5
2F6
  8
0
  0
BLOCK
  8
0
  2
$ARROW2$
 70
     0
 10
0.0
 20
0.0
 30
0.0
  3
$ARROW2$
  1

  0
SOLID
  5
33
  8
0
 62
     0
 10
-25.4
 20
12.7
 30
0.0
 11
-25.4
 21
-12.7
 31
0.0
 12
0.0
 22
0.0
 32
0.0
 13
0.0
 23
0.0
 33
0.0
  0
ENDBLK
  5
2F8
  8
0
  0
BLOCK
  8
0
  2
$ARROW3$
 70
     0
 10
0.0
 20
0.0
 30
0.0
  3
$ARROW3$
  1

  0
POLYLINE
  5
37
  8
0
  6
BYBLOCK
 62
     0
 66
     1
 10
0.0
 20
0.0
 30
0.0
 70
     1
 40
0.5
 41
0.5
  0
VERTEX
  5
288
  8
0
  6
BYBLOCK
 62
     0
 10
-6.35
 20
0.0
 30
0.0
 42
1.0
  0
VERTEX
  5
289
  8
0
  6
BYBLOCK
 62
     0
 10
6.35
 20
0.0
 30
0.0
 42
1.0
  0
SEQEND
  5
2F9
  8
0
  6
BYBLOCK
 62
     0
  0
ENDBLK
  5
2FB
  8
0
  0
BLOCK
  8
0
  2
$ARROW4$
 70
     0
 10
0.0
 20
0.0
 30
0.0
  3
$ARROW4$
  1

  0
LINE
  5
3E
  8
0
  6
BYBLOCK
 62
     0
 10
12.7
 20
12.7
 30
0.0
 11
-12.7
 21
-12.7
 31
0.0
  0
ENDBLK
  5
2FD
  8
0
  0
BLOCK
  8
0
  2
$ARROW5$
 70
     0
 10
0.0
 20
0.0
 30
0.0
  3
$ARROW5$
  1

  0
LINE
  5
42
  8
0
  6
BYBLOCK
 62
     0
 10
12.7
 20
12.7
 30
0.0
 11
-12.7
 21
-12.7
 31
0.0
  0
LINE
  5
43
  8
0
  6
BYBLOCK
 62
     0
 10
-12.7
 20
12.7
 30
0.0
 11
12.7
 21
-12.7
 31
0.0
  0
ENDBLK
  5
2FF
  8
0
  0
BLOCK
  8
0
  2
A$CD241
 70
     0
 10
0.0
 20
0.0
 30
0.0
  3
A$CD241
  1

  0
POLYLINE
  5
47
  8
0
 62
     1
 66
     1
 10
0.0
 20
0.0
 30
0.0
 70
     1
  0
VERTEX
  5
28B
  8
0
 62
     1
 10
16.36815
 20
1.74689
 30
0.0
  0
VERTEX
  5
28C
  8
0
 62
     1
 10
16.36815
 20
32.24689
 30
0.0
  0
VERTEX
  5
28D
  8
0
 62
     1
 10
16.38046
 20
32.40331
 30
0.0
  0
VERTEX
  5
28E
  8
0
 62
     1
 10
16.41709
 20
32.55589
 30
0.0
  0
VERTEX
  5
28F
  8
0
 62
     1
 10
16.47713
 20
32.70086
 30
0.0
  0
VERTEX
  5
290
  8
0
 62
     1
 10
16.55911
 20
32.83466
 30
0.0
  0
VERTEX
  5
291
  8
0
 62
     1
 10
16.66103
 20
32.95399
 30
0.0
  0
VERTEX
  5
292
  8
0
 62
     1
 10
16.66104
 20
32.954
 30
0.0
  0
VERTEX
  5
293
  8
0
 62
     1
 10
16.78035
 20
33.0559
 30
0.0
  0
VERTEX
  5
294
  8
0
 62
     1
 10
16.91414
 20
33.13789
 30
0.0
  0
VERTEX
  5
295
  8
0
 62
     1
 10
17.05911
 20
33.19794
 30
0.0
  0
VERTEX
  5
296
  8
0
 62
     1
 10
17.2117
 20
33.23458
 30
0.0
  0
VERTEX
  5
297
  8
0
 62
     1
 10
17.36813
 20
33.24689
 30
0.0
  0
VERTEX
  5
298
  8
0
 62
     1
 10
17.36815
 20
33.24689
 30
0.0
  0
VERTEX
  5
299
  8
0
 62
     1
 10
26.86815
 20
33.24689
 30
0.0
  0
VERTEX
  5
29A
  8
0
 62
     1
 10
27.02458
 20
33.23458
 30
0.0
  0
VERTEX
  5
29B
  8
0
 62
     1
 10
27.17716
 20
33.19795
 30
0.0
  0
VERTEX
  5
29C
  8
0
 62
     1
 10
27.32214
 20
33.1379
 30
0.0
  0
VERTEX
  5
29D
  8
0
 62
     1
 10
27.45594
 20
33.05591
 30
0.0
  0
VERTEX
  5
29E
  8
0
 62
     1
 10
27.57526
 20
32.954
 30
0.0
  0
VERTEX
  5
29F
  8
0
 62
     1
 10
27.67717
 20
32.83468
 30
0.0
  0
VERTEX
  5
2A0
  8
0
 62
     1
 10
27.75916
 20
32.70089
 30
0.0
  0
VERTEX
  5
2A1
  8
0
 62
     1
 10
27.8192
 20
32.55592
 30
0.0
  0
VERTEX
  5
2A2
  8
0
 62
     1
 10
27.85584
 20
32.40334
 30
0.0
  0
VERTEX
  5
2A3
  8
0
 62
     1
 10
27.86815
 20
32.24689
 30
0.0
  0
VERTEX
  5
2A4
  8
0
 62
     1
 10
27.86815
 20
1.74689
 30
0.0
  0
VERTEX
  5
2A5
  8
0
 62
     1
 10
27.85584
 20
1.59046
 30
0.0
  0
VERTEX
  5
2A6
  8
0
 62
     1
 10
27.81921
 20
1.43788
 30
0.0
  0
VERTEX
  5
2A7
  8
0
 62
     1
 10
27.75916
 20
1.2929
 30
0.0
  0
VERTEX
  5
2A8
  8
0
 62
     1
 10
27.67718
 20
1.15911
 30
0.0
  0
VERTEX
  5
2A9
  8
0
 62
     1
 10
27.57526
 20
1.03978
 30
0.0
  0
VERTEX
  5
2AA
  8
0
 62
     1
 10
27.45594
 20
0.93787
 30
0.0
  0
VERTEX
  5
2AB
  8
0
 62
     1
 10
27.32215
 20
0.85588
 30
0.0
  0
VERTEX
  5
2AC
  8
0
 62
     1
 10
27.17718
 20
0.79584
 30
0.0
  0
VERTEX
  5
2AD
  8
0
 62
     1
 10
27.0246
 20
0.7592
 30
0.0
  0
VERTEX
  5
2AE
  8
0
 62
     1
 10
26.86815
 20
0.7468900000000001
 30
0.0
  0
VERTEX
  5
2AF
  8
0
 62
     1
 10
17.36815
 20
0.7468900000000001
 30
0.0
  0
VERTEX
  5
2B0
  8
0
 62
     1
 10
17.21172
 20
0.7592
 30
0.0
  0
VERTEX
  5
2B1
  8
0
 62
     1
 10
17.05914
 20
0.79583
 30
0.0
  0
VERTEX
  5
2B2
  8
0
 62
     1
 10
16.91416
 20
0.85588
 30
0.0
  0
VERTEX
  5
2B3
  8
0
 62
     1
 10
16.78037
 20
0.93786
 30
0.0
  0
VERTEX
  5
2B4
  8
0
 62
     1
 10
16.66104
 20
1.03978
 30
0.0
  0
VERTEX
  5
2B5
  8
0
 62
     1
 10
16.55913
 20
1.1591
 30
0.0
  0
VERTEX
  5
2B6
  8
0
 62
     1
 10
16.47714
 20
1.29289
 30
0.0
  0
VERTEX
  5
2B7
  8
0
 62
     1
 10
16.4171
 20
1.43786
 30
0.0
  0
VERTEX
  5
2B8
  8
0
 62
     1
 10
16.38046
 20
1.59044
 30
0.0
  0
VERTEX
  5
2B9
  8
0
 62
     1
 10
16.36815
 20
1.74689
 30
0.0
  0
SEQEND
  5
300
  8
0
 62
     1
  0
POLYLINE
  5
78
  8
0
 62
     1
 66
     1
 10
0.0
 20
0.0
 30
0.0
 70
     1
  0
VERTEX
  5
2BB
  8
0
 62
     1
 10
19.61815
 20
33.24689
 30
0.0
  0
VERTEX
  5
2BC
  8
0
 62
     1
 10
19.61815
 20
33.89689
 30
0.0
  0
VERTEX
  5
2BD
  8
0
 62
     1
 10
24.61815
 20
33.89689
 30
0.0
  0
VERTEX
  5
2BE
  8
0
 62
     1
 10
24.61815
 20
33.24689
 30
0.0
  0
SEQEND
  5
301
  8
0
 62
     1
  0
POLYLINE
  5
7E
  8
0
 62
     1
 66
     1
 10
0.0
 20
0.0
 30
0.0
 70
     1
  0
VERTEX
  5
2C0
  8
0
 62
     1
 10
19.61815
 20
0.09689
 30
0.0
  0
VERTEX
  5
2C1
  8
0
 62
     1
 10
19.61815
 20
0.7468900000000001
 30
0.0
  0
VERTEX
  5
2C2
  8
0
 62
     1
 10
24.61815
 20
0.7468900000000001
 30
0.0
  0
VERTEX
  5
2C3
  8
0
 62
     1
 10
24.61815
 20
0.09689
 30
0.0
  0
SEQEND
  5
302
  8
0
 62
     1
  0
ENDBLK
  5
304
  8
0
  0
ENDSEC
  0
SECTION
  2
ENTITIES
  0
LINE
  5
85
  8
GUIDE
 10
17.59772
 20
-63.08826
 30
0.0
 11
17.59772
 21
-90.28825999999999
 31
0.0
  0
LINE
  5
86
  8
GUIDE
 10
20.59772
 20
-75.18826
 30
0.0
 11
20.59772
 21
-78.18826
 31
0.0
  0
LINE
  5
87
  8
GUIDE
 10
-55.54222
 20
-70.68826
 30
0.0
 11
-55.54222
 21
-72.68826
 31
0.0
  0
LINE
  5
88
  8
GUIDE
 10
-8.86233
 20
-70.68826
 30
0.0
 11
-8.86233
 21
-72.68826
 31
0.0
  0
LINE
  5
89
  8
GUIDE
 10
-78.90228000000001
 20
-90.28825999999999
 30
0.0
 11
17.59772
 21
-90.28825999999999
 31
0.0
  0
LINE
  5
8A
  8
GUIDE
 10
-78.90228000000001
 20
-63.08826
 30
0.0
 11
17.59772
 21
-63.08826
 31
0.0
  0
LINE
  5
8B
  8
GUIDE
 10
-55.54222
 20
-70.68826
 30
0.0
 11
-8.86233
 21
-70.68826
 31
0.0
  0
LINE
  5
8C
  8
GUIDE
 10
-55.54222
 20
-82.68826
 30
0.0
 11
-8.86233
 21
-82.68826
 31
0.0
  0
LINE
  5
8D
  8
GUIDE
 10
-55.54222
 20
-72.68826
 30
0.0
 11
-8.86233
 21
-72.68826
 31
0.0
  0
LINE
  5
8E
  8
GUIDE
 10
-55.54222
 20
-80.68826
 30
0.0
 11
-8.86233
 21
-80.68826
 31
0.0
  0
LINE
  5
8F
  8
GUIDE
 10
-55.54222
 20
-80.68826
 30
0.0
 11
-55.54222
 21
-82.68826
 31
0.0
  0
LINE
  5
90
  8
GUIDE
 10
-8.86233
 20
-80.68826
 30
0.0
 11
-8.86233
 21
-82.68826
 31
0.0
  0
LINE
  5
91
  8
GUIDE
 10
-35.70228
 20
-72.68826
 30
0.0
 11
-35.70228
 21
-80.68826
 31
0.0
  0
LINE
  5
92
  8
GUIDE
 10
-28.70228
 20
-72.68826
 30
0.0
 11
-28.70228
 21
-80.68826
 31
0.0
  0
LINE
  5
93
  8
GUIDE
 10
17.59772
 20
-78.18826
 30
0.0
 11
20.59772
 21
-78.18826
 31
0.0
  0
LINE
  5
94
  8
GUIDE
 10
17.59772
 20
-75.18826
 30
0.0
 11
20.59772
 21
-75.18826
 31
0.0
  0
LINE
  5
95
  8
GUIDE
 10
-37.20228
 20
-70.68826
 30
0.0
 11
-27.20228
 21
-70.68826
 31
0.0
  0
ARC
  5
96
  8
GUIDE
 10
-32.20228
 20
-81.0997
 30
0.0
 40
3.5
 50
206.992554
 51
333.007431
  0
ARC
  5
97
  8
GUIDE
 10
-32.20228
 20
-78.54419
 30
0.0
 40
9.095050000000001
 50
59.741226
 51
120.258774
  0
ARC
  5
98
  8
GUIDE
 10
-73.90228000000001
 20
-66.88826
 30
0.0
 40
5.75
 50
150.408157
 51
209.591843
  0
ARC
  5
99
  8
GUIDE
 10
-73.90228000000001
 20
-66.88826
 30
0.0
 40
5.75
 50
41.366226
 51
138.633774
  0
ARC
  5
9A
  8
GUIDE
 10
-61.80228
 20
-66.88826
 30
0.0
 40
5.75
 50
41.366226
 51
138.633774
  0
ARC
  5
9B
  8
GUIDE
 10
-49.70228
 20
-66.88826
 30
0.0
 40
5.75
 50
41.366226
 51
138.633774
  0
ARC
  5
9C
  8
GUIDE
 10
-37.60228
 20
-66.88826
 30
0.0
 40
5.75
 50
41.366226
 51
138.633774
  0
ARC
  5
9D
  8
GUIDE
 10
-25.50228
 20
-66.88826
 30
0.0
 40
5.75
 50
41.366226
 51
138.633774
  0
ARC
  5
9E
  8
GUIDE
 10
-13.40228
 20
-66.88826
 30
0.0
 40
5.75
 50
41.366226
 51
138.633774
  0
ARC
  5
9F
  8
GUIDE
 10
-1.30228
 20
-66.88826
 30
0.0
 40
5.75
 50
41.366226
 51
138.633774
  0
ARC
  5
A0
  8
GUIDE
 10
10.79772
 20
-66.88826
 30
0.0
 40
5.75
 50
41.366226
 51
138.633774
  0
ARC
  5
A1
  8
GUIDE
 10
-25.50228
 20
-86.48826
 30
0.0
 40
5.75
 50
221.366226
 51
318.633774
  0
ARC
  5
A2
  8
GUIDE
 10
-73.90228000000001
 20
-86.48826
 30
0.0
 40
5.75
 50
221.366226
 51
318.633774
  0
ARC
  5
A3
  8
GUIDE
 10
-49.70228
 20
-86.48826
 30
0.0
 40
5.75
 50
221.366226
 51
318.633774
  0
ARC
  5
A4
  8
GUIDE
 10
-61.80228
 20
-86.48826
 30
0.0
 40
5.75
 50
221.366226
 51
318.633774
  0
ARC
  5
A5
  8
GUIDE
 10
-37.60228
 20
-86.48826
 30
0.0
 40
5.75
 50
221.366226
 51
318.633774
  0
ARC
  5
A6
  8
GUIDE
 10
-1.30228
 20
-86.48826
 30
0.0
 40
5.75
 50
221.366226
 51
318.633774
  0
ARC
  5
A7
  8
GUIDE
 10
-13.40228
 20
-86.48826
 30
0.0
 40
5.75
 50
221.366226
 51
318.633774
  0
ARC
  5
A8
  8
GUIDE
 10
10.79772
 20
-86.48826
 30
0.0
 40
5.75
 50
221.366226
 51
318.633774
  0
ARC
  5
A9
  8
GUIDE
 10
-73.90228000000001
 20
-86.48826
 30
0.0
 40
5.75
 50
150.408157
 51
209.591843
  0
LINE
  5
AA
  8
GUIDE
 10
-78.85227999999999
 20
35.48826
 30
0.0
 11
17.64772
 21
35.48826
 31
0.0
  0
LINE
  5
AB
  8
GUIDE
 10
-78.85227999999999
 20
1.68826
 30
0.0
 11
17.64772
 21
1.68826
 31
0.0
  0
LINE
  5
AC
  8
GUIDE
 10
-82.05228
 20
39.73826
 30
0.0
 11
17.64772
 21
39.73826
 31
0.0
  0
LINE
  5
AD
  8
GUIDE
 10
-82.05228
 20
-2.56174
 30
0.0
 11
17.64772
 21
-2.56174
 31
0.0
  0
LINE
  5
AE
  8
GUIDE
 10
17.64772
 20
39.73826
 30
0.0
 11
17.64772
 21
35.48826
 31
0.0
  0
LINE
  5
AF
  8
GUIDE
 10
-82.05228
 20
-2.56174
 30
0.0
 11
-82.05228
 21
39.73826
 31
0.0
  0
LINE
  5
B0
  8
GUIDE
 10
17.64772
 20
1.68826
 30
0.0
 11
17.64772
 21
-2.56174
 31
0.0
  0
LINE
  5
B1
  8
GUIDE
 10
-72.95228
 20
35.48826
 30
0.0
 11
-72.95228
 21
39.73826
 31
0.0
  0
LINE
  5
B2
  8
GUIDE
 10
-74.95228
 20
35.48826
 30
0.0
 11
-74.95228
 21
39.73826
 31
0.0
  0
LINE
  5
B3
  8
GUIDE
 10
-62.85228
 20
35.48826
 30
0.0
 11
-62.85228
 21
39.73826
 31
0.0
  0
LINE
  5
B4
  8
GUIDE
 10
-60.85228
 20
35.48826
 30
0.0
 11
-60.85228
 21
39.73826
 31
0.0
  0
LINE
  5
B5
  8
GUIDE
 10
-50.85228
 20
35.48826
 30
0.0
 11
-50.85228
 21
39.73826
 31
0.0
  0
LINE
  5
B6
  8
GUIDE
 10
-48.85228
 20
35.48826
 30
0.0
 11
-48.85228
 21
39.73826
 31
0.0
  0
LINE
  5
B7
  8
GUIDE
 10
-38.75228
 20
35.48826
 30
0.0
 11
-38.75228
 21
39.73826
 31
0.0
  0
LINE
  5
B8
  8
GUIDE
 10
-36.75228
 20
35.48826
 30
0.0
 11
-36.75228
 21
39.73826
 31
0.0
  0
LINE
  5
B9
  8
GUIDE
 10
-26.65228
 20
35.48826
 30
0.0
 11
-26.65228
 21
39.73826
 31
0.0
  0
LINE
  5
BA
  8
GUIDE
 10
-24.65228
 20
35.48826
 30
0.0
 11
-24.65228
 21
39.73826
 31
0.0
  0
LINE
  5
BB
  8
GUIDE
 10
-14.55228
 20
35.48826
 30
0.0
 11
-14.55228
 21
39.73826
 31
0.0
  0
LINE
  5
BC
  8
GUIDE
 10
-12.55228
 20
35.48826
 30
0.0
 11
-12.55228
 21
39.73826
 31
0.0
  0
LINE
  5
BD
  8
GUIDE
 10
-14.55228
 20
-2.56174
 30
0.0
 11
-14.55228
 21
1.68826
 31
0.0
  0
LINE
  5
BE
  8
GUIDE
 10
-12.55228
 20
-2.56174
 30
0.0
 11
-12.55228
 21
1.68826
 31
0.0
  0
LINE
  5
BF
  8
GUIDE
 10
-26.65228
 20
1.68826
 30
0.0
 11
-26.65228
 21
-2.56174
 31
0.0
  0
LINE
  5
C0
  8
GUIDE
 10
-24.65228
 20
1.68826
 30
0.0
 11
-24.65228
 21
-2.56174
 31
0.0
  0
LINE
  5
C1
  8
GUIDE
 10
-36.75228
 20
1.68826
 30
0.0
 11
-36.75228
 21
-2.56174
 31
0.0
  0
LINE
  5
C2
  8
GUIDE
 10
-38.75228
 20
1.68826
 30
0.0
 11
-38.75228
 21
-2.56174
 31
0.0
  0
LINE
  5
C3
  8
GUIDE
 10
-50.85228
 20
-2.56174
 30
0.0
 11
-50.85228
 21
1.68826
 31
0.0
  0
LINE
  5
C4
  8
GUIDE
 10
-48.85228
 20
-2.56174
 30
0.0
 11
-48.85228
 21
1.68826
 31
0.0
  0
LINE
  5
C5
  8
GUIDE
 10
-60.85228
 20
1.68826
 30
0.0
 11
-60.85228
 21
-2.56174
 31
0.0
  0
LINE
  5
C6
  8
GUIDE
 10
-62.85228
 20
1.68826
 30
0.0
 11
-62.85228
 21
-2.56174
 31
0.0
  0
LINE
  5
C7
  8
GUIDE
 10
-72.95228
 20
1.68826
 30
0.0
 11
-72.95228
 21
-2.56174
 31
0.0
  0
LINE
  5
C8
  8
GUIDE
 10
-74.95228
 20
1.68826
 30
0.0
 11
-74.95228
 21
-2.56174
 31
0.0
  0
LINE
  5
C9
  8
GUIDE
 10
-78.85227999999999
 20
35.48826
 30
0.0
 11
-78.85227999999999
 21
39.73826
 31
0.0
  0
LINE
  5
CA
  8
GUIDE
 10
-78.85227999999999
 20
1.68826
 30
0.0
 11
-78.85227999999999
 21
-2.56174
 31
0.0
  0
LINE
  5
CB
  8
GUIDE
 10
17.14772
 20
34.98826
 30
0.0
 11
20.64772
 21
34.98826
 31
0.0
  0
LINE
  5
CC
  8
GUIDE
 10
20.64772
 20
34.98826
 30
0.0
 11
20.64772
 21
2.18826
 31
0.0
  0
ARC
  5
CD
  8
GUIDE
 10
17.04537
 20
35.61831
 30
0.0
 40
0.63831
 50
191.755997
 51
279.227081
  0
LINE
  5
CE
  8
GUIDE
 10
17.14772
 20
2.18826
 30
0.0
 11
20.64772
 21
2.18826
 31
0.0
  0
ARC
  5
CF
  8
GUIDE
 10
17.04537
 20
1.55821
 30
0.0
 40
0.63831
 50
80.772919
 51
168.244003
  0
LINE
  5
D0
  8
GUIDE
 10
-0.45228
 20
35.48826
 30
0.0
 11
-0.45228
 21
39.73826
 31
0.0
  0
LINE
  5
D1
  8
GUIDE
 10
-2.45228
 20
35.48826
 30
0.0
 11
-2.45228
 21
39.73826
 31
0.0
  0
LINE
  5
D2
  8
GUIDE
 10
11.64772
 20
35.48826
 30
0.0
 11
11.64772
 21
39.73826
 31
0.0
  0
LINE
  5
D3
  8
GUIDE
 10
9.64772
 20
35.48826
 30
0.0
 11
9.64772
 21
39.73826
 31
0.0
  0
LINE
  5
D4
  8
GUIDE
 10
-0.45228
 20
1.68826
 30
0.0
 11
-0.45228
 21
-2.56174
 31
0.0
  0
LINE
  5
D5
  8
GUIDE
 10
-2.45228
 20
1.68826
 30
0.0
 11
-2.45228
 21
-2.56174
 31
0.0
  0
LINE
  5
D6
  8
GUIDE
 10
11.64772
 20
-2.56174
 30
0.0
 11
11.64772
 21
1.68826
 31
0.0
  0
LINE
  5
D7
  8
GUIDE
 10
9.64772
 20
-2.56174
 30
0.0
 11
9.64772
 21
1.68826
 31
0.0
  0
CIRCLE
  5
D8
  8
GUIDE
 10
-32.15228
 20
86.23826
 30
0.0
 40
3.5
  0
LINE
  5
D9
  8
GUIDE
 10
-52.75573
 20
41.50879
 30
0.0
 11
-37.93151
 21
87.85084999999999
 31
0.0
  0
ARC
  5
DA
  8
GUIDE
 10
-55.49222
 20
42.73826
 30
0.0
 40
3.0
 50
270.0
 51
335.806305
  0
ARC
  5
DB
  8
GUIDE
 10
-8.812329999999999
 20
42.73826
 30
0.0
 40
3.0
 50
204.193695
 51
270.0
  0
ARC
  5
DC
  8
GUIDE
 10
-32.15228
 20
86.23826
 30
0.0
 40
6.0
 50
15.59079
 51
164.40921
  0
LINE
  5
DD
  8
GUIDE
 10
-11.54882
 20
41.50879
 30
0.0
 11
-26.37304
 21
87.85084999999999
 31
0.0
  0
LINE
  5
DE
  8
GUIDE
 10
-35.61638
 20
86.73826
 30
0.0
 11
-28.68817
 21
86.73826
 31
0.0
  0
LINE
  5
DF
  8
GUIDE
 10
-35.61638
 20
85.73826
 30
0.0
 11
-28.65228
 21
85.73826
 31
0.0
  0
INSERT
  5
E0
  8
GUIDE
  2
A$CD241
 10
-96.07043
 20
1.59137
 30
0.0
  0
INSERT
  5
E1
  8
GUIDE
  2
A$CD241
 10
-83.97042999999999
 20
1.59137
 30
0.0
  0
INSERT
  5
E2
  8
GUIDE
  2
A$CD241
 10
-71.87043
 20
1.59137
 30
0.0
  0
INSERT
  5
E3
  8
GUIDE
  2
A$CD241
 10
-59.77043
 20
1.59137
 30
0.0
  0
INSERT
  5
E4
  8
GUIDE
  2
A$CD241
 10
-47.67043
 20
1.59137
 30
0.0
  0
INSERT
  5
E5
  8
GUIDE
  2
A$CD241
 10
-35.57043
 20
1.59137
 30
0.0
  0
INSERT
  5
E6
  8
GUIDE
  2
A$CD241
 10
-23.47043
 20
1.59137
 30
0.0
  0
INSERT
  5
E7
  8
GUIDE
  2
A$CD241
 10
-11.37043
 20
1.59137
 30
0.0
  0
LINE
  5
E8
  8
GUIDE
 10
67.79517
 20
32.73826
 30
0.0
 11
67.79517
 21
4.43826
 31
0.0
  0
ARC
  5
E9
  8
GUIDE
 10
70.12624
 20
33.25086
 30
0.0
 40
2.38677
 50
110.377258
 51
192.40181
  0
ARC
  5
EA
  8
GUIDE
 10
70.12624
 20
3.92566
 30
0.0
 40
2.38677
 50
167.59819
 51
249.622742
  0
POLYLINE
  5
EB
  8
GUIDE
 66
     1
 10
0.0
 20
0.0
 30
0.0
  0
VERTEX
  5
1D7
  8
GUIDE
 10
79.89516999999999
 20
39.73826
 30
0.0
  0
VERTEX
  5
1D8
  8
GUIDE
 10
79.89516999999999
 20
36.48826
 30
0.0
  0
VERTEX
  5
1D9
  8
GUIDE
 10
79.88285999999999
 20
36.33183
 30
0.0
  0
VERTEX
  5
1DA
  8
GUIDE
 10
79.84623000000001
 20
36.17925
 30
0.0
  0
VERTEX
  5
1DB
  8
GUIDE
 10
79.78618
 20
36.03427
 30
0.0
  0
VERTEX
  5
1DC
  8
GUIDE
 10
79.7042
 20
35.90048
 30
0.0
  0
VERTEX
  5
1DD
  8
GUIDE
 10
79.60227999999999
 20
35.78115
 30
0.0
  0
VERTEX
  5
1DE
  8
GUIDE
 10
79.48296000000001
 20
35.67924
 30
0.0
  0
VERTEX
  5
1DF
  8
GUIDE
 10
79.34917
 20
35.59725
 30
0.0
  0
VERTEX
  5
1E0
  8
GUIDE
 10
79.2042
 20
35.53721
 30
0.0
  0
VERTEX
  5
1E1
  8
GUIDE
 10
79.05162
 20
35.50057
 30
0.0
  0
VERTEX
  5
1E2
  8
GUIDE
 10
78.89516999999999
 20
35.48826
 30
0.0
  0
VERTEX
  5
1E3
  8
GUIDE
 10
69.29517
 20
35.48826
 30
0.0
  0
SEQEND
  5
305
  8
GUIDE
  0
POLYLINE
  5
FA
  8
GUIDE
 66
     1
 10
0.0
 20
0.0
 30
0.0
  0
VERTEX
  5
1E5
  8
GUIDE
 10
69.29517
 20
1.68826
 30
0.0
  0
VERTEX
  5
1E6
  8
GUIDE
 10
78.89516999999999
 20
1.68826
 30
0.0
  0
VERTEX
  5
1E7
  8
GUIDE
 10
79.06298
 20
1.64279
 30
0.0
  0
VERTEX
  5
1E8
  8
GUIDE
 10
79.22277
 20
1.5743
 30
0.0
  0
VERTEX
  5
1E9
  8
GUIDE
 10
79.37142
 20
1.48414
 30
0.0
  0
VERTEX
  5
1EA
  8
GUIDE
 10
79.506
 20
1.37406
 30
0.0
  0
VERTEX
  5
1EB
  8
GUIDE
 10
79.62387
 20
1.24624
 30
0.0
  0
VERTEX
  5
1EC
  8
GUIDE
 10
79.62388
 20
1.24623
 30
0.0
  0
VERTEX
  5
1ED
  8
GUIDE
 10
79.72271000000001
 20
1.10319
 30
0.0
  0
VERTEX
  5
1EE
  8
GUIDE
 10
79.80056
 20
0.94773
 30
0.0
  0
VERTEX
  5
1EF
  8
GUIDE
 10
79.85590000000001
 20
0.78291
 30
0.0
  0
VERTEX
  5
1F0
  8
GUIDE
 10
79.88764999999999
 20
0.61197
 30
0.0
  0
VERTEX
  5
1F1
  8
GUIDE
 10
79.89516999999999
 20
0.43825
 30
0.0
  0
VERTEX
  5
1F2
  8
GUIDE
 10
79.89516999999999
 20
0.43826
 30
0.0
  0
VERTEX
  5
1F3
  8
GUIDE
 10
79.89516999999999
 20
-2.56174
 30
0.0
  0
SEQEND
  5
306
  8
GUIDE
  0
LINE
  5
10B
  8
GUIDE
 10
79.89516999999999
 20
39.73826
 30
0.0
 11
52.69517
 21
39.73826
 31
0.0
  0
LINE
  5
10C
  8
GUIDE
 10
52.69517
 20
-2.56174
 30
0.0
 11
79.89516999999999
 21
-2.56174
 31
0.0
  0
LINE
  5
10D
  8
GUIDE
 10
64.79517
 20
32.73826
 30
0.0
 11
64.79517
 21
4.43826
 31
0.0
  0
POLYLINE
  5
10E
  8
GUIDE
 66
     1
 10
0.0
 20
0.0
 30
0.0
  0
VERTEX
  5
1F5
  8
GUIDE
 10
63.29517
 20
1.68826
 30
0.0
  0
VERTEX
  5
1F6
  8
GUIDE
 10
53.69517
 20
1.68826
 30
0.0
  0
VERTEX
  5
1F7
  8
GUIDE
 10
53.52733
 20
1.64278
 30
0.0
  0
VERTEX
  5
1F8
  8
GUIDE
 10
53.36753
 20
1.57429
 30
0.0
  0
VERTEX
  5
1F9
  8
GUIDE
 10
53.21889
 20
1.48411
 30
0.0
  0
VERTEX
  5
1FA
  8
GUIDE
 10
53.08431
 20
1.37404
 30
0.0
  0
VERTEX
  5
1FB
  8
GUIDE
 10
52.96647
 20
1.24624
 30
0.0
  0
VERTEX
  5
1FC
  8
GUIDE
 10
52.96646
 20
1.24623
 30
0.0
  0
VERTEX
  5
1FD
  8
GUIDE
 10
52.86762
 20
1.10317
 30
0.0
  0
VERTEX
  5
1FE
  8
GUIDE
 10
52.78977
 20
0.9477100000000001
 30
0.0
  0
VERTEX
  5
1FF
  8
GUIDE
 10
52.73444
 20
0.78289
 30
0.0
  0
VERTEX
  5
200
  8
GUIDE
 10
52.70269
 20
0.61195
 30
0.0
  0
VERTEX
  5
201
  8
GUIDE
 10
52.69517
 20
0.43825
 30
0.0
  0
VERTEX
  5
202
  8
GUIDE
 10
52.69517
 20
0.43826
 30
0.0
  0
VERTEX
  5
203
  8
GUIDE
 10
52.69517
 20
-2.56174
 30
0.0
  0
SEQEND
  5
307
  8
GUIDE
  0
ARC
  5
11F
  8
GUIDE
 10
62.4641
 20
3.92566
 30
0.0
 40
2.38677
 50
290.377258
 51
12.40181
  0
POLYLINE
  5
120
  8
GUIDE
 66
     1
 10
0.0
 20
0.0
 30
0.0
  0
VERTEX
  5
205
  8
GUIDE
 10
52.69517
 20
39.73826
 30
0.0
  0
VERTEX
  5
206
  8
GUIDE
 10
52.69517
 20
36.48826
 30
0.0
  0
VERTEX
  5
207
  8
GUIDE
 10
52.70748
 20
36.33181
 30
0.0
  0
VERTEX
  5
208
  8
GUIDE
 10
52.74412
 20
36.17923
 30
0.0
  0
VERTEX
  5
209
  8
GUIDE
 10
52.80416
 20
36.03426
 30
0.0
  0
VERTEX
  5
20A
  8
GUIDE
 10
52.88615
 20
35.90047
 30
0.0
  0
VERTEX
  5
20B
  8
GUIDE
 10
52.98806
 20
35.78115
 30
0.0
  0
VERTEX
  5
20C
  8
GUIDE
 10
53.10739
 20
35.67923
 30
0.0
  0
VERTEX
  5
20D
  8
GUIDE
 10
53.24118
 20
35.59725
 30
0.0
  0
VERTEX
  5
20E
  8
GUIDE
 10
53.38616
 20
35.5372
 30
0.0
  0
VERTEX
  5
20F
  8
GUIDE
 10
53.53874
 20
35.50057
 30
0.0
  0
VERTEX
  5
210
  8
GUIDE
 10
53.69519
 20
35.48826
 30
0.0
  0
VERTEX
  5
211
  8
GUIDE
 10
53.69517
 20
35.48826
 30
0.0
  0
VERTEX
  5
212
  8
GUIDE
 10
63.29517
 20
35.48826
 30
0.0
  0
SEQEND
  5
308
  8
GUIDE
  0
ARC
  5
130
  8
GUIDE
 10
62.4641
 20
33.25086
 30
0.0
 40
2.38677
 50
347.59819
 51
69.622742
  0
LINE
  5
131
  8
GUIDE
 10
72.29517
 20
91.23826
 30
0.0
 11
70.29517
 21
91.23826
 31
0.0
  0
LINE
  5
132
  8
GUIDE
 10
60.29517
 20
91.23826
 30
0.0
 11
60.29517
 21
81.23826
 31
0.0
  0
LINE
  5
133
  8
GUIDE
 10
72.29517
 20
91.23826
 30
0.0
 11
72.29517
 21
81.23826
 31
0.0
  0
LINE
  5
134
  8
GUIDE
 10
60.29517
 20
81.23826
 30
0.0
 11
53.69517
 21
39.73826
 31
0.0
  0
LINE
  5
135
  8
GUIDE
 10
72.29517
 20
81.23826
 30
0.0
 11
78.89516999999999
 21
39.73826
 31
0.0
  0
LINE
  5
136
  8
GUIDE
 10
62.29517
 20
91.23826
 30
0.0
 11
62.29517
 21
81.23826
 31
0.0
  0
LINE
  5
137
  8
GUIDE
 10
70.29517
 20
91.23826
 30
0.0
 11
70.29517
 21
81.23826
 31
0.0
  0
ARC
  5
138
  8
GUIDE
 10
61.88373
 20
86.23826
 30
0.0
 40
3.5
 50
116.992554
 51
243.007431
  0
ARC
  5
139
  8
GUIDE
 10
64.43924
 20
86.23826
 30
0.0
 40
9.095050000000001
 50
329.741226
 51
30.258774
  0
LINE
  5
13A
  8
GUIDE
 10
60.29517
 20
81.23826
 30
0.0
 11
60.29517
 21
39.73826
 31
0.0
  0
LINE
  5
13B
  8
GUIDE
 10
72.29517
 20
81.23826
 30
0.0
 11
72.29517
 21
39.73826
 31
0.0
  0
LINE
  5
13C
  8
GUIDE
 10
70.29517
 20
89.23826
 30
0.0
 11
62.29517
 21
89.23826
 31
0.0
  0
LINE
  5
13D
  8
GUIDE
 10
62.29517
 20
81.23826
 30
0.0
 11
62.29517
 21
39.73826
 31
0.0
  0
LINE
  5
13E
  8
GUIDE
 10
70.29517
 20
81.23826
 30
0.0
 11
70.29517
 21
39.73826
 31
0.0
  0
LINE
  5
13F
  8
GUIDE
 10
62.29517
 20
91.23826
 30
0.0
 11
60.29517
 21
91.23826
 31
0.0
  0
POLYLINE
  5
140
  8
GUIDE
 66
     1
 10
0.0
 20
0.0
 30
0.0
 70
     1
  0
VERTEX
  5
214
  8
GUIDE
 10
73.59517
 20
34.83826
 30
0.0
  0
VERTEX
  5
215
  8
GUIDE
 10
73.59517
 20
35.48826
 30
0.0
  0
VERTEX
  5
216
  8
GUIDE
 10
78.59517
 20
35.48826
 30
0.0
  0
VERTEX
  5
217
  8
GUIDE
 10
78.59517
 20
34.83826
 30
0.0
  0
SEQEND
  5
309
  8
GUIDE
  0
POLYLINE
  5
146
  8
GUIDE
 66
     1
 10
0.0
 20
0.0
 30
0.0
 70
     1
  0
VERTEX
  5
219
  8
GUIDE
 10
73.59517
 20
1.68826
 30
0.0
  0
VERTEX
  5
21A
  8
GUIDE
 10
73.59517
 20
2.33826
 30
0.0
  0
VERTEX
  5
21B
  8
GUIDE
 10
78.59517
 20
2.33826
 30
0.0
  0
VERTEX
  5
21C
  8
GUIDE
 10
78.59517
 20
1.68826
 30
0.0
  0
SEQEND
  5
30A
  8
GUIDE
  0
POLYLINE
  5
14C
  8
GUIDE
 66
     1
 10
0.0
 20
0.0
 30
0.0
 70
     1
  0
VERTEX
  5
21E
  8
GUIDE
 10
70.34517
 20
3.33826
 30
0.0
  0
VERTEX
  5
21F
  8
GUIDE
 10
70.34517
 20
33.83826
 30
0.0
  0
VERTEX
  5
220
  8
GUIDE
 10
70.35748
 20
33.99468
 30
0.0
  0
VERTEX
  5
221
  8
GUIDE
 10
70.39411
 20
34.14726
 30
0.0
  0
VERTEX
  5
222
  8
GUIDE
 10
70.45415
 20
34.29223
 30
0.0
  0
VERTEX
  5
223
  8
GUIDE
 10
70.53613
 20
34.42603
 30
0.0
  0
VERTEX
  5
224
  8
GUIDE
 10
70.63805000000001
 20
34.54536
 30
0.0
  0
VERTEX
  5
225
  8
GUIDE
 10
70.63806
 20
34.54537
 30
0.0
  0
VERTEX
  5
226
  8
GUIDE
 10
70.75737
 20
34.64727
 30
0.0
  0
VERTEX
  5
227
  8
GUIDE
 10
70.89116
 20
34.72926
 30
0.0
  0
VERTEX
  5
228
  8
GUIDE
 10
71.03613
 20
34.78931
 30
0.0
  0
VERTEX
  5
229
  8
GUIDE
 10
71.18872
 20
34.82595
 30
0.0
  0
VERTEX
  5
22A
  8
GUIDE
 10
71.34515
 20
34.83826
 30
0.0
  0
VERTEX
  5
22B
  8
GUIDE
 10
71.34517
 20
34.83826
 30
0.0
  0
VERTEX
  5
22C
  8
GUIDE
 10
80.84517
 20
34.83826
 30
0.0
  0
VERTEX
  5
22D
  8
GUIDE
 10
81.0016
 20
34.82595
 30
0.0
  0
VERTEX
  5
22E
  8
GUIDE
 10
81.15418
 20
34.78932
 30
0.0
  0
VERTEX
  5
22F
  8
GUIDE
 10
81.29916
 20
34.72927
 30
0.0
  0
VERTEX
  5
230
  8
GUIDE
 10
81.43295999999999
 20
34.64728
 30
0.0
  0
VERTEX
  5
231
  8
GUIDE
 10
81.55228
 20
34.54537
 30
0.0
  0
VERTEX
  5
232
  8
GUIDE
 10
81.65419
 20
34.42605
 30
0.0
  0
VERTEX
  5
233
  8
GUIDE
 10
81.73618
 20
34.29226
 30
0.0
  0
VERTEX
  5
234
  8
GUIDE
 10
81.79622000000001
 20
34.14729
 30
0.0
  0
VERTEX
  5
235
  8
GUIDE
 10
81.83286
 20
33.99471
 30
0.0
  0
VERTEX
  5
236
  8
GUIDE
 10
81.84517
 20
33.83826
 30
0.0
  0
VERTEX
  5
237
  8
GUIDE
 10
81.84517
 20
3.33826
 30
0.0
  0
VERTEX
  5
238
  8
GUIDE
 10
81.83286
 20
3.18183
 30
0.0
  0
VERTEX
  5
239
  8
GUIDE
 10
81.79622999999999
 20
3.02925
 30
0.0
  0
VERTEX
  5
23A
  8
GUIDE
 10
81.73618
 20
2.88427
 30
0.0
  0
VERTEX
  5
23B
  8
GUIDE
 10
81.6542
 20
2.75048
 30
0.0
  0
VERTEX
  5
23C
  8
GUIDE
 10
81.55228
 20
2.63115
 30
0.0
  0
VERTEX
  5
23D
  8
GUIDE
 10
81.43295999999999
 20
2.52924
 30
0.0
  0
VERTEX
  5
23E
  8
GUIDE
 10
81.29917
 20
2.44725
 30
0.0
  0
VERTEX
  5
23F
  8
GUIDE
 10
81.1542
 20
2.38721
 30
0.0
  0
VERTEX
  5
240
  8
GUIDE
 10
81.00162
 20
2.35057
 30
0.0
  0
VERTEX
  5
241
  8
GUIDE
 10
80.84517
 20
2.33826
 30
0.0
  0
VERTEX
  5
242
  8
GUIDE
 10
71.34517
 20
2.33826
 30
0.0
  0
VERTEX
  5
243
  8
GUIDE
 10
71.18874
 20
2.35057
 30
0.0
  0
VERTEX
  5
244
  8
GUIDE
 10
71.03616
 20
2.3872
 30
0.0
  0
VERTEX
  5
245
  8
GUIDE
 10
70.89118000000001
 20
2.44725
 30
0.0
  0
VERTEX
  5
246
  8
GUIDE
 10
70.75739
 20
2.52923
 30
0.0
  0
VERTEX
  5
247
  8
GUIDE
 10
70.63806
 20
2.63115
 30
0.0
  0
VERTEX
  5
248
  8
GUIDE
 10
70.53615000000001
 20
2.75047
 30
0.0
  0
VERTEX
  5
249
  8
GUIDE
 10
70.45416
 20
2.88426
 30
0.0
  0
VERTEX
  5
24A
  8
GUIDE
 10
70.39412
 20
3.02923
 30
0.0
  0
VERTEX
  5
24B
  8
GUIDE
 10
70.35748
 20
3.18181
 30
0.0
  0
VERTEX
  5
24C
  8
GUIDE
 10
70.34517
 20
3.33826
 30
0.0
  0
SEQEND
  5
30B
  8
GUIDE
  0
POLYLINE
  5
17D
  8
GUIDE
 66
     1
 10
0.0
 20
0.0
 30
0.0
 70
     1
  0
VERTEX
  5
24E
  8
GUIDE
 10
53.99517
 20
34.83826
 30
0.0
  0
VERTEX
  5
24F
  8
GUIDE
 10
53.99517
 20
35.48826
 30
0.0
  0
VERTEX
  5
250
  8
GUIDE
 10
58.99517
 20
35.48826
 30
0.0
  0
VERTEX
  5
251
  8
GUIDE
 10
58.99517
 20
34.83826
 30
0.0
  0
SEQEND
  5
30C
  8
GUIDE
  0
POLYLINE
  5
183
  8
GUIDE
 66
     1
 10
0.0
 20
0.0
 30
0.0
 70
     1
  0
VERTEX
  5
253
  8
GUIDE
 10
53.99517
 20
1.68826
 30
0.0
  0
VERTEX
  5
254
  8
GUIDE
 10
53.99517
 20
2.33826
 30
0.0
  0
VERTEX
  5
255
  8
GUIDE
 10
58.99517
 20
2.33826
 30
0.0
  0
VERTEX
  5
256
  8
GUIDE
 10
58.99517
 20
1.68826
 30
0.0
  0
SEQEND
  5
30D
  8
GUIDE
  0
POLYLINE
  5
189
  8
GUIDE
 66
     1
 10
0.0
 20
0.0
 30
0.0
 70
     1
  0
VERTEX
  5
258
  8
GUIDE
 10
50.74517
 20
3.33826
 30
0.0
  0
VERTEX
  5
259
  8
GUIDE
 10
50.74517
 20
33.83826
 30
0.0
  0
VERTEX
  5
25A
  8
GUIDE
 10
50.75748
 20
33.99468
 30
0.0
  0
VERTEX
  5
25B
  8
GUIDE
 10
50.79411
 20
34.14726
 30
0.0
  0
VERTEX
  5
25C
  8
GUIDE
 10
50.85415
 20
34.29223
 30
0.0
  0
VERTEX
  5
25D
  8
GUIDE
 10
50.93613
 20
34.42603
 30
0.0
  0
VERTEX
  5
25E
  8
GUIDE
 10
51.03805
 20
34.54536
 30
0.0
  0
VERTEX
  5
25F
  8
GUIDE
 10
51.03806
 20
34.54537
 30
0.0
  0
VERTEX
  5
260
  8
GUIDE
 10
51.15737
 20
34.64727
 30
0.0
  0
VERTEX
  5
261
  8
GUIDE
 10
51.29116
 20
34.72926
 30
0.0
  0
VERTEX
  5
262
  8
GUIDE
 10
51.43613
 20
34.78931
 30
0.0
  0
VERTEX
  5
263
  8
GUIDE
 10
51.58872
 20
34.82595
 30
0.0
  0
VERTEX
  5
264
  8
GUIDE
 10
51.74515
 20
34.83826
 30
0.0
  0
VERTEX
  5
265
  8
GUIDE
 10
51.74517
 20
34.83826
 30
0.0
  0
VERTEX
  5
266
  8
GUIDE
 10
61.24517
 20
34.83826
 30
0.0
  0
VERTEX
  5
267
  8
GUIDE
 10
61.4016
 20
34.82595
 30
0.0
  0
VERTEX
  5
268
  8
GUIDE
 10
61.55418
 20
34.78932
 30
0.0
  0
VERTEX
  5
269
  8
GUIDE
 10
61.69916
 20
34.72927
 30
0.0
  0
VERTEX
  5
26A
  8
GUIDE
 10
61.83296
 20
34.64728
 30
0.0
  0
VERTEX
  5
26B
  8
GUIDE
 10
61.95228
 20
34.54537
 30
0.0
  0
VERTEX
  5
26C
  8
GUIDE
 10
62.05419
 20
34.42605
 30
0.0
  0
VERTEX
  5
26D
  8
GUIDE
 10
62.13618
 20
34.29226
 30
0.0
  0
VERTEX
  5
26E
  8
GUIDE
 10
62.19622
 20
34.14729
 30
0.0
  0
VERTEX
  5
26F
  8
GUIDE
 10
62.23286
 20
33.99471
 30
0.0
  0
VERTEX
  5
270
  8
GUIDE
 10
62.24517
 20
33.83826
 30
0.0
  0
VERTEX
  5
271
  8
GUIDE
 10
62.24517
 20
3.33826
 30
0.0
  0
VERTEX
  5
272
  8
GUIDE
 10
62.23286
 20
3.18183
 30
0.0
  0
VERTEX
  5
273
  8
GUIDE
 10
62.19623
 20
3.02925
 30
0.0
  0
VERTEX
  5
274
  8
GUIDE
 10
62.13618
 20
2.88427
 30
0.0
  0
VERTEX
  5
275
  8
GUIDE
 10
62.0542
 20
2.75048
 30
0.0
  0
VERTEX
  5
276
  8
GUIDE
 10
61.95228
 20
2.63115
 30
0.0
  0
VERTEX
  5
277
  8
GUIDE
 10
61.83296
 20
2.52924
 30
0.0
  0
VERTEX
  5
278
  8
GUIDE
 10
61.69917
 20
2.44725
 30
0.0
  0
VERTEX
  5
279
  8
GUIDE
 10
61.5542
 20
2.38721
 30
0.0
  0
VERTEX
  5
27A
  8
GUIDE
 10
61.40162
 20
2.35057
 30
0.0
  0
VERTEX
  5
27B
  8
GUIDE
 10
61.24517
 20
2.33826
 30
0.0
  0
VERTEX
  5
27C
  8
GUIDE
 10
51.74517
 20
2.33826
 30
0.0
  0
VERTEX
  5
27D
  8
GUIDE
 10
51.58874
 20
2.35057
 30
0.0
  0
VERTEX
  5
27E
  8
GUIDE
 10
51.43616
 20
2.3872
 30
0.0
  0
VERTEX
  5
27F
  8
GUIDE
 10
51.29118
 20
2.44725
 30
0.0
  0
VERTEX
  5
280
  8
GUIDE
 10
51.15739
 20
2.52923
 30
0.0
  0
VERTEX
  5
281
  8
GUIDE
 10
51.03806
 20
2.63115
 30
0.0
  0
VERTEX
  5
282
  8
GUIDE
 10
50.93615
 20
2.75047
 30
0.0
  0
VERTEX
  5
283
  8
GUIDE
 10
50.85416
 20
2.88426
 30
0.0
  0
VERTEX
  5
284
  8
GUIDE
 10
50.79412
 20
3.02923
 30
0.0
  0
VERTEX
  5
285
  8
GUIDE
 10
50.75748
 20
3.18181
 30
0.0
  0
VERTEX
  5
286
  8
GUIDE
 10
50.74517
 20
3.33826
 30
0.0
  0
SEQEND
  5
30E
  8
GUIDE
  0
LINE
  5
1BA
  8
GUIDE
 10
-82.00228
 20
-75.18826
 30
0.0
 11
-82.00228
 21
-78.18826
 31
0.0
  0
LINE
  5
1BB
  8
GUIDE
 10
-78.90228000000001
 20
-63.08826
 30
0.0
 11
-78.90228000000001
 21
-75.18826
 31
0.0
  0
LINE
  5
1BC
  8
GUIDE
 10
-82.00228
 20
-75.18826
 30
0.0
 11
-78.90228000000001
 21
-75.18826
 31
0.0
  0
LINE
  5
1BD
  8
GUIDE
 10
-82.00228
 20
-78.18826
 30
0.0
 11
-78.90228000000001
 21
-78.18826
 31
0.0
  0
LINE
  5
1BE
  8
GUIDE
 10
-78.90228000000001
 20
-78.18826
 30
0.0
 11
-78.90228000000001
 21
-90.28825999999999
 31
0.0
  0
LINE
  5
1BF
  8
GUIDE
 10
-113.00228
 20
-75.18826
 30
0.0
 11
-113.00228
 21
-78.18826
 31
0.0
  0
ARC
  5
1C0
  8
GUIDE
 10
-81.62554
 20
-109.51361
 30
0.0
 40
46.50516
 50
86.64308200000001
 51
132.430908
  0
ARC
  5
1C1
  8
GUIDE
 10
-81.62554
 20
-43.86291
 30
0.0
 40
46.50516
 50
227.569092
 51
273.356918
  0
LINE
  5
1C2
  8
GUIDE
 10
-113.05228
 20
-2.56174
 30
0.0
 11
-113.05228
 21
39.73826
 31
0.0
  0
LINE
  5
1C3
  8
GUIDE
 10
-82.05228
 20
39.73826
 30
0.0
 11
-113.05228
 21
39.73826
 31
0.0
  0
LINE
  5
1C4
  8
GUIDE
 10
-82.05228
 20
-2.56174
 30
0.0
 11
-113.05228
 21
-2.56174
 31
0.0
  0
LINE
  5
1C5
  8
AXIS
 62
     1
 10
-32.20228
 20
-70.68826
 30
0.0
 11
-32.20228
 21
-82.68826
 31
0.0
  0
ENDSEC
  0
EOF
