  0
SECTION
  2
HEADER
  9
$ACADVER
  1
AC1009
  9
$DWGCODEPAGE
  3
ansi_1252
  9
$INSBASE
 10
0.0
 20
0.0
 30
0.0
  9
$EXTMIN
 10
-80.24572000000001
 20
-116.49053
 30
0.0
  9
$EXTMAX
 10
80.24572000000001
 20
116.49053
 30
0.0
  9
$LIMMIN
 10
0.0
 20
0.0
  9
$LIMMAX
 10
12.0
 20
9.0
  9
$ORTHOMODE
 70
     0
  9
$REGENMODE
 70
     1
  9
$FILLMODE
 70
     1
  9
$QTEXTMODE
 70
     0
  9
$MIRRTEXT
 70
     1
  9
$DRAGMODE
 70
     2
  9
$LTSCALE
 40
0.845607
  9
$OSMODE
 70
    37
  9
$ATTMODE
 70
     1
  9
$TEXTSIZE
 40
0.2
  9
$TRACEWID
 40
0.05
  9
$TEXTSTYLE
  7
STANDARD
  9
$CLAYER
  8
0
  9
$CELTYPE
  6
BYBLOCK
  9
$CECOLOR
 62
   256
  9
$DIMSCALE
 40
1.0
  9
$DIMASZ
 40
0.18
  9
$DIMEXO
 40
0.0625
  9
$DIMDLI
 40
0.38
  9
$DIMRND
 40
0.0
  9
$DIMDLE
 40
0.0
  9
$DIMEXE
 40
0.18
  9
$DIMTP
 40
0.0
  9
$DIMTM
 40
0.0
  9
$DIMTXT
 40
0.18
  9
$DIMCEN
 40
0.09
  9
$DIMTSZ
 40
0.0
  9
$DIMTOL
 70
     0
  9
$DIMLIM
 70
     0
  9
$DIMTIH
 70
     1
  9
$DIMTOH
 70
     1
  9
$DIMSE1
 70
     0
  9
$DIMSE2
 70
     0
  9
$DIMTAD
 70
     0
  9
$DIMZIN
 70
     0
  9
$DIMBLK
  1

  9
$DIMASO
 70
     1
  9
$DIMSHO
 70
     1
  9
$DIMPOST
  1

  9
$DIMAPOST
  1

  9
$DIMALT
 70
     0
  9
$DIMALTD
 70
     2
  9
$DIMALTF
 40
25.4
  9
$DIMLFAC
 40
1.0
  9
$DIMTOFL
 70
     0
  9
$DIMTVP
 40
0.0
  9
$DIMTIX
 70
     0
  9
$DIMSOXD
 70
     0
  9
$DIMSAH
 70
     0
  9
$DIMBLK1
  1

  9
$DIMBLK2
  1

  9
$DIMSTYLE
  2
STANDARD
  9
$DIMCLRD
 70
     0
  9
$DIMCLRE
 70
     0
  9
$DIMCLRT
 70
     0
  9
$DIMTFAC
 40
1.0
  9
$DIMGAP
 40
0.09
  9
$LUNITS
 70
     2
  9
$LUPREC
 70
     4
  9
$SKETCHINC
 40
0.1
  9
$FILLETRAD
 40
0.5
  9
$AUNITS
 70
     0
  9
$AUPREC
 70
     0
  9
$MENU
  1
.
  9
$ELEVATION
 40
0.0
  9
$PELEVATION
 40
0.0
  9
$THICKNESS
 40
0.0
  9
$LIMCHECK
 70
     0
  9
$CHAMFERA
 40
0.5
  9
$CHAMFERB
 40
0.5
  9
$SKPOLY
 70
     0
  9
$TDCREATE
 40
2453619.496106748
  9
$TDUPDATE
 40
2453619.496106759
  9
$TDINDWG
 40
0.0000000116
  9
$TDUSRTIMER
 40
0.0000000116
  9
$USRTIMER
 70
     1
  9
$ANGBASE
 50
0.0
  9
$ANGDIR
 70
     0
  9
$PDMODE
 70
     0
  9
$PDSIZE
 40
0.0
  9
$PLINEWID
 40
0.0
  9
$COORDS
 70
     1
  9
$SPLFRAME
 70
     0
  9
$SPLINETYPE
 70
     6
  9
$SPLINESEGS
 70
     8
  9
$ATTDIA
 70
     0
  9
$ATTREQ
 70
     1
  9
$HANDLING
 70
     1
  9
$HANDSEED
  5
317
  9
$SURFTAB1
 70
     6
  9
$SURFTAB2
 70
     6
  9
$SURFTYPE
 70
     6
  9
$SURFU
 70
     6
  9
$SURFV
 70
     6
  9
$UCSNAME
  2

  9
$UCSORG
 10
0.0
 20
0.0
 30
0.0
  9
$UCSXDIR
 10
1.0
 20
0.0
 30
0.0
  9
$UCSYDIR
 10
0.0
 20
1.0
 30
0.0
  9
$PUCSNAME
  2

  9
$PUCSORG
 10
0.0
 20
0.0
 30
0.0
  9
$PUCSXDIR
 10
1.0
 20
0.0
 30
0.0
  9
$PUCSYDIR
 10
0.0
 20
1.0
 30
0.0
  9
$USERI1
 70
     0
  9
$USERI2
 70
     0
  9
$USERI3
 70
     0
  9
$USERI4
 70
     0
  9
$USERI5
 70
     0
  9
$USERR1
 40
0.0
  9
$USERR2
 40
0.0
  9
$USERR3
 40
0.0
  9
$USERR4
 40
0.0
  9
$USERR5
 40
0.0
  9
$WORLDVIEW
 70
     1
  9
$SHADEDGE
 70
     3
  9
$SHADEDIF
 70
    70
  9
$TILEMODE
 70
     1
  9
$MAXACTVP
 70
    64
  9
$PLIMCHECK
 70
     0
  9
$PEXTMIN
 10
1.000000000000000E+20
 20
1.000000000000000E+20
 30
1.000000000000000E+20
  9
$PEXTMAX
 10
-1.000000000000000E+20
 20
-1.000000000000000E+20
 30
-1.000000000000000E+20
  9
$PLIMMIN
 10
0.0
 20
0.0
  9
$PLIMMAX
 10
12.0
 20
9.0
  9
$UNITMODE
 70
     0
  9
$VISRETAIN
 70
     1
  9
$PLINEGEN
 70
     0
  9
$PSLTSCALE
 70
     1
  0
ENDSEC
  0
SECTION
  2
TABLES
  0
TABLE
  2
VPORT
 70
     1
  0
VPORT
  2
*ACTIVE
 70
     0
 10
0.0
 20
0.0
 11
1.0
 21
1.0
 12
10.42990654205607
 22
4.5
 13
0.0
 23
0.0
 14
0.5
 24
0.5
 15
0.5
 25
0.5
 16
0.0
 26
0.0
 36
1.0
 17
0.0
 27
0.0
 37
0.0
 40
9.0
 41
1.972972972850329
 42
50.0
 43
0.0
 44
0.0
 50
0.0
 51
0.0
 71
     0
 72
   100
 73
     1
 74
     3
 75
     0
 76
     0
 77
     0
 78
     0
  0
ENDTAB
  0
TABLE
  2
LTYPE
 70
     9
  0
LTYPE
  2
CONTINUOUS
 70
     0
  3
Solid Line
 72
    65
 73
     0
 40
0.0
  0
LTYPE
  2
MCDASH1
 70
     0
  3
MiniCad+ Generated
 72
    65
 73
     4
 40
1.182873
 49
0.591437
 49
-0.295718
 49
0.0
 49
-0.295718
  0
LTYPE
  2
MCDASH2
 70
     0
  3
MiniCad+ Generated
 72
    65
 73
     2
 40
3.527692
 49
2.469229
 49
-1.058463
  0
LTYPE
  2
MCDASH3
 70
     0
  3
MiniCad+ Generated
 72
    65
 73
     2
 40
6.35
 49
5.291537
 49
-1.058463
  0
LTYPE
  2
MCDASH4
 70
     0
  3
MiniCad+ Generated
 72
    65
 73
     2
 40
7.760767
 49
6.702692
 49
-1.058075
  0
LTYPE
  2
MCDASH5
 70
     0
  3
MiniCad+ Generated
 72
    65
 73
     2
 40
1.058075
 49
0.352692
 49
-0.705383
  0
LTYPE
  2
MCDASH6
 70
     0
  3
MiniCad+ Generated
 72
    65
 73
     4
 40
5.291538
 49
3.175
 49
-1.058075
 49
0.352692
 49
-0.705771
  0
LTYPE
  2
MCDASH7
 70
     0
  3
MiniCad+ Generated
 72
    65
 73
     6
 40
9.525001
 49
3.175
 49
-1.058075
 49
3.175
 49
-1.058463
 49
0.352692
 49
-0.705771
  0
LTYPE
  2
MCDASH8
 70
     0
  3
MiniCad+ Generated
 72
    65
 73
     6
 40
6.350001000000001
 49
3.175
 49
-1.058075
 49
0.352692
 49
-0.705771
 49
0.352692
 49
-0.705771
  0
ENDTAB
  0
TABLE
  2
LAYER
 70
     3
  0
LAYER
  2
0
 70
     0
 62
     7
  6
CONTINUOUS
  0
LAYER
  2
GUIDE
 70
     0
 62
     7
  6
CONTINUOUS
  0
LAYER
  2
AXIS
 70
     0
 62
     1
  6
CONTINUOUS
  0
ENDTAB
  0
TABLE
  2
STYLE
 70
     1
  0
STYLE
  2
STANDARD
 70
     0
 40
0.0
 41
1.0
 50
0.0
 71
     0
 42
0.2
  3
txt
  4

  0
ENDTAB
  0
TABLE
  2
VIEW
 70
     0
  0
ENDTAB
  0
TABLE
  2
UCS
 70
     0
  0
ENDTAB
  0
TABLE
  2
APPID
 70
     1
  0
APPID
  2
ACAD
 70
     0
  0
ENDTAB
  0
TABLE
  2
DIMSTYLE
 70
     1
  0
DIMSTYLE
  2
STANDARD
 70
     0
  3

  4

  5

  6

  7

 40
1.0
 41
0.18
 42
0.0625
 43
0.38
 44
0.18
 45
0.0
 46
0.0
 47
0.0
 48
0.0
140
0.18
141
0.09
142
0.0
143
25.4
144
1.0
145
0.0
146
1.0
147
0.09
 71
     0
 72
     0
 73
     1
 74
     1
 75
     0
 76
     0
 77
     0
 78
     0
170
     0
171
     2
172
     0
173
     0
174
     0
175
     0
176
     0
177
     0
178
     0
  0
ENDTAB
  0
ENDSEC
  0
SECTION
  2
BLOCKS
  0
BLOCK
  8
0
  2
$MODEL_SPACE
 70
     0
 10
0.0
 20
0.0
 30
0.0
  3
$MODEL_SPACE
  1

  0
ENDBLK
  5
312
  8
0
  0
BLOCK
 67
     1
  8
0
  2
$PAPER_SPACE
 70
     0
 10
0.0
 20
0.0
 30
0.0
  3
$PAPER_SPACE
  1

  0
ENDBLK
  5
310
 67
     1
  8
0
  0
BLOCK
  8
0
  2
$ARROW1$
 70
     0
 10
0.0
 20
0.0
 30
0.0
  3
$ARROW1$
  1

  0
SOLID
  5
2F
  8
0
 62
     0
 10
-25.4
 20
4.318
 30
0.0
 11
-25.4
 21
-4.318
 31
0.0
 12
0.0
 22
0.0
 32
0.0
 13
0.0
 23
0.0
 33
0.0
  0
ENDBLK
  5
2F6
  8
0
  0
BLOCK
  8
0
  2
$ARROW2$
 70
     0
 10
0.0
 20
0.0
 30
0.0
  3
$ARROW2$
  1

  0
SOLID
  5
33
  8
0
 62
     0
 10
-25.4
 20
12.7
 30
0.0
 11
-25.4
 21
-12.7
 31
0.0
 12
0.0
 22
0.0
 32
0.0
 13
0.0
 23
0.0
 33
0.0
  0
ENDBLK
  5
2F8
  8
0
  0
BLOCK
  8
0
  2
$ARROW3$
 70
     0
 10
0.0
 20
0.0
 30
0.0
  3
$ARROW3$
  1

  0
POLYLINE
  5
37
  8
0
  6
BYBLOCK
 62
     0
 66
     1
 10
0.0
 20
0.0
 30
0.0
 70
     1
 40
0.5
 41
0.5
  0
VERTEX
  5
288
  8
0
  6
BYBLOCK
 62
     0
 10
-6.35
 20
0.0
 30
0.0
 42
1.0
  0
VERTEX
  5
289
  8
0
  6
BYBLOCK
 62
     0
 10
6.35
 20
0.0
 30
0.0
 42
1.0
  0
SEQEND
  5
2F9
  8
0
  6
BYBLOCK
 62
     0
  0
ENDBLK
  5
2FB
  8
0
  0
BLOCK
  8
0
  2
$ARROW4$
 70
     0
 10
0.0
 20
0.0
 30
0.0
  3
$ARROW4$
  1

  0
LINE
  5
3E
  8
0
  6
BYBLOCK
 62
     0
 10
12.7
 20
12.7
 30
0.0
 11
-12.7
 21
-12.7
 31
0.0
  0
ENDBLK
  5
2FD
  8
0
  0
BLOCK
  8
0
  2
$ARROW5$
 70
     0
 10
0.0
 20
0.0
 30
0.0
  3
$ARROW5$
  1

  0
LINE
  5
42
  8
0
  6
BYBLOCK
 62
     0
 10
12.7
 20
12.7
 30
0.0
 11
-12.7
 21
-12.7
 31
0.0
  0
LINE
  5
43
  8
0
  6
BYBLOCK
 62
     0
 10
-12.7
 20
12.7
 30
0.0
 11
12.7
 21
-12.7
 31
0.0
  0
ENDBLK
  5
2FF
  8
0
  0
BLOCK
  8
0
  2
A$CD241
 70
     0
 10
0.0
 20
0.0
 30
0.0
  3
A$CD241
  1

  0
POLYLINE
  5
47
  8
0
 62
     1
 66
     1
 10
0.0
 20
0.0
 30
0.0
 70
     1
  0
VERTEX
  5
28B
  8
0
 62
     1
 10
16.36815
 20
1.74689
 30
0.0
  0
VERTEX
  5
28C
  8
0
 62
     1
 10
16.36815
 20
32.24689
 30
0.0
  0
VERTEX
  5
28D
  8
0
 62
     1
 10
16.38046
 20
32.40331
 30
0.0
  0
VERTEX
  5
28E
  8
0
 62
     1
 10
16.41709
 20
32.55589
 30
0.0
  0
VERTEX
  5
28F
  8
0
 62
     1
 10
16.47713
 20
32.70086
 30
0.0
  0
VERTEX
  5
290
  8
0
 62
     1
 10
16.55911
 20
32.83466
 30
0.0
  0
VERTEX
  5
291
  8
0
 62
     1
 10
16.66103
 20
32.95399
 30
0.0
  0
VERTEX
  5
292
  8
0
 62
     1
 10
16.66104
 20
32.954
 30
0.0
  0
VERTEX
  5
293
  8
0
 62
     1
 10
16.78035
 20
33.0559
 30
0.0
  0
VERTEX
  5
294
  8
0
 62
     1
 10
16.91414
 20
33.13789
 30
0.0
  0
VERTEX
  5
295
  8
0
 62
     1
 10
17.05911
 20
33.19794
 30
0.0
  0
VERTEX
  5
296
  8
0
 62
     1
 10
17.2117
 20
33.23458
 30
0.0
  0
VERTEX
  5
297
  8
0
 62
     1
 10
17.36813
 20
33.24689
 30
0.0
  0
VERTEX
  5
298
  8
0
 62
     1
 10
17.36815
 20
33.24689
 30
0.0
  0
VERTEX
  5
299
  8
0
 62
     1
 10
26.86815
 20
33.24689
 30
0.0
  0
VERTEX
  5
29A
  8
0
 62
     1
 10
27.02458
 20
33.23458
 30
0.0
  0
VERTEX
  5
29B
  8
0
 62
     1
 10
27.17716
 20
33.19795
 30
0.0
  0
VERTEX
  5
29C
  8
0
 62
     1
 10
27.32214
 20
33.1379
 30
0.0
  0
VERTEX
  5
29D
  8
0
 62
     1
 10
27.45594
 20
33.05591
 30
0.0
  0
VERTEX
  5
29E
  8
0
 62
     1
 10
27.57526
 20
32.954
 30
0.0
  0
VERTEX
  5
29F
  8
0
 62
     1
 10
27.67717
 20
32.83468
 30
0.0
  0
VERTEX
  5
2A0
  8
0
 62
     1
 10
27.75916
 20
32.70089
 30
0.0
  0
VERTEX
  5
2A1
  8
0
 62
     1
 10
27.8192
 20
32.55592
 30
0.0
  0
VERTEX
  5
2A2
  8
0
 62
     1
 10
27.85584
 20
32.40334
 30
0.0
  0
VERTEX
  5
2A3
  8
0
 62
     1
 10
27.86815
 20
32.24689
 30
0.0
  0
VERTEX
  5
2A4
  8
0
 62
     1
 10
27.86815
 20
1.74689
 30
0.0
  0
VERTEX
  5
2A5
  8
0
 62
     1
 10
27.85584
 20
1.59046
 30
0.0
  0
VERTEX
  5
2A6
  8
0
 62
     1
 10
27.81921
 20
1.43788
 30
0.0
  0
VERTEX
  5
2A7
  8
0
 62
     1
 10
27.75916
 20
1.2929
 30
0.0
  0
VERTEX
  5
2A8
  8
0
 62
     1
 10
27.67718
 20
1.15911
 30
0.0
  0
VERTEX
  5
2A9
  8
0
 62
     1
 10
27.57526
 20
1.03978
 30
0.0
  0
VERTEX
  5
2AA
  8
0
 62
     1
 10
27.45594
 20
0.93787
 30
0.0
  0
VERTEX
  5
2AB
  8
0
 62
     1
 10
27.32215
 20
0.85588
 30
0.0
  0
VERTEX
  5
2AC
  8
0
 62
     1
 10
27.17718
 20
0.79584
 30
0.0
  0
VERTEX
  5
2AD
  8
0
 62
     1
 10
27.0246
 20
0.7592
 30
0.0
  0
VERTEX
  5
2AE
  8
0
 62
     1
 10
26.86815
 20
0.7468900000000001
 30
0.0
  0
VERTEX
  5
2AF
  8
0
 62
     1
 10
17.36815
 20
0.7468900000000001
 30
0.0
  0
VERTEX
  5
2B0
  8
0
 62
     1
 10
17.21172
 20
0.7592
 30
0.0
  0
VERTEX
  5
2B1
  8
0
 62
     1
 10
17.05914
 20
0.79583
 30
0.0
  0
VERTEX
  5
2B2
  8
0
 62
     1
 10
16.91416
 20
0.85588
 30
0.0
  0
VERTEX
  5
2B3
  8
0
 62
     1
 10
16.78037
 20
0.93786
 30
0.0
  0
VERTEX
  5
2B4
  8
0
 62
     1
 10
16.66104
 20
1.03978
 30
0.0
  0
VERTEX
  5
2B5
  8
0
 62
     1
 10
16.55913
 20
1.1591
 30
0.0
  0
VERTEX
  5
2B6
  8
0
 62
     1
 10
16.47714
 20
1.29289
 30
0.0
  0
VERTEX
  5
2B7
  8
0
 62
     1
 10
16.4171
 20
1.43786
 30
0.0
  0
VERTEX
  5
2B8
  8
0
 62
     1
 10
16.38046
 20
1.59044
 30
0.0
  0
VERTEX
  5
2B9
  8
0
 62
     1
 10
16.36815
 20
1.74689
 30
0.0
  0
SEQEND
  5
300
  8
0
 62
     1
  0
POLYLINE
  5
78
  8
0
 62
     1
 66
     1
 10
0.0
 20
0.0
 30
0.0
 70
     1
  0
VERTEX
  5
2BB
  8
0
 62
     1
 10
19.61815
 20
33.24689
 30
0.0
  0
VERTEX
  5
2BC
  8
0
 62
     1
 10
19.61815
 20
33.89689
 30
0.0
  0
VERTEX
  5
2BD
  8
0
 62
     1
 10
24.61815
 20
33.89689
 30
0.0
  0
VERTEX
  5
2BE
  8
0
 62
     1
 10
24.61815
 20
33.24689
 30
0.0
  0
SEQEND
  5
301
  8
0
 62
     1
  0
POLYLINE
  5
7E
  8
0
 62
     1
 66
     1
 10
0.0
 20
0.0
 30
0.0
 70
     1
  0
VERTEX
  5
2C0
  8
0
 62
     1
 10
19.61815
 20
0.09689
 30
0.0
  0
VERTEX
  5
2C1
  8
0
 62
     1
 10
19.61815
 20
0.7468900000000001
 30
0.0
  0
VERTEX
  5
2C2
  8
0
 62
     1
 10
24.61815
 20
0.7468900000000001
 30
0.0
  0
VERTEX
  5
2C3
  8
0
 62
     1
 10
24.61815
 20
0.09689
 30
0.0
  0
SEQEND
  5
302
  8
0
 62
     1
  0
ENDBLK
  5
304
  8
0
  0
ENDSEC
  0
SECTION
  2
ENTITIES
  0
LINE
  5
85
  8
GUIDE
 10
19.40428
 20
-48.18984
 30
0.0
 11
19.40428
 21
-75.38984000000001
 31
0.0
  0
LINE
  5
86
  8
GUIDE
 10
22.40428
 20
-60.28984
 30
0.0
 11
22.40428
 21
-63.28984
 31
0.0
  0
LINE
  5
87
  8
GUIDE
 10
-53.73566
 20
-55.78984
 30
0.0
 11
-53.73566
 21
-58.78984
 31
0.0
  0
LINE
  5
88
  8
GUIDE
 10
-7.05577
 20
-55.78984
 30
0.0
 11
-7.05577
 21
-58.78984
 31
0.0
  0
LINE
  5
89
  8
GUIDE
 10
-77.09572
 20
-75.38984000000001
 30
0.0
 11
19.40428
 21
-75.38984000000001
 31
0.0
  0
LINE
  5
8A
  8
GUIDE
 10
-77.09572
 20
-48.18984
 30
0.0
 11
19.40428
 21
-48.18984
 31
0.0
  0
LINE
  5
8B
  8
GUIDE
 10
-53.73566
 20
-55.78984
 30
0.0
 11
-7.05577
 21
-55.78984
 31
0.0
  0
LINE
  5
8C
  8
GUIDE
 10
-53.73566
 20
-67.78984
 30
0.0
 11
-7.05577
 21
-67.78984
 31
0.0
  0
LINE
  5
8D
  8
GUIDE
 10
-53.73566
 20
-58.78984
 30
0.0
 11
-7.05577
 21
-58.78984
 31
0.0
  0
LINE
  5
8E
  8
GUIDE
 10
-53.73566
 20
-64.78984
 30
0.0
 11
-7.05577
 21
-64.78984
 31
0.0
  0
LINE
  5
8F
  8
GUIDE
 10
-53.73566
 20
-64.78984
 30
0.0
 11
-53.73566
 21
-67.78984
 31
0.0
  0
LINE
  5
90
  8
GUIDE
 10
-7.05577
 20
-64.78984
 30
0.0
 11
-7.05577
 21
-67.78984
 31
0.0
  0
LINE
  5
91
  8
GUIDE
 10
-33.89572
 20
-58.78984
 30
0.0
 11
-33.89572
 21
-64.78984
 31
0.0
  0
LINE
  5
92
  8
GUIDE
 10
-26.89572
 20
-58.78984
 30
0.0
 11
-26.89572
 21
-64.78984
 31
0.0
  0
LINE
  5
93
  8
GUIDE
 10
19.40428
 20
-63.28984
 30
0.0
 11
22.40428
 21
-63.28984
 31
0.0
  0
LINE
  5
94
  8
GUIDE
 10
19.40428
 20
-60.28984
 30
0.0
 11
22.40428
 21
-60.28984
 31
0.0
  0
LINE
  5
95
  8
GUIDE
 10
-35.39572
 20
-55.78984
 30
0.0
 11
-25.39572
 21
-55.78984
 31
0.0
  0
ARC
  5
96
  8
GUIDE
 10
-30.39572
 20
-66.20128
 30
0.0
 40
3.5
 50
206.992554
 51
333.007431
  0
ARC
  5
97
  8
GUIDE
 10
-30.39572
 20
-63.64577
 30
0.0
 40
9.095050000000001
 50
59.741226
 51
120.258774
  0
ARC
  5
98
  8
GUIDE
 10
-72.09572
 20
-51.98984
 30
0.0
 40
5.75
 50
150.408157
 51
209.591843
  0
ARC
  5
99
  8
GUIDE
 10
-72.09572
 20
-51.98984
 30
0.0
 40
5.75
 50
41.366226
 51
138.633774
  0
ARC
  5
9A
  8
GUIDE
 10
-59.99572
 20
-51.98984
 30
0.0
 40
5.75
 50
41.366226
 51
138.633774
  0
ARC
  5
9B
  8
GUIDE
 10
-47.89572
 20
-51.98984
 30
0.0
 40
5.75
 50
41.366226
 51
138.633774
  0
ARC
  5
9C
  8
GUIDE
 10
-35.79572
 20
-51.98984
 30
0.0
 40
5.75
 50
41.366226
 51
138.633774
  0
ARC
  5
9D
  8
GUIDE
 10
-23.69572
 20
-51.98984
 30
0.0
 40
5.75
 50
41.366226
 51
138.633774
  0
ARC
  5
9E
  8
GUIDE
 10
-11.59572
 20
-51.98984
 30
0.0
 40
5.75
 50
41.366226
 51
138.633774
  0
ARC
  5
9F
  8
GUIDE
 10
0.50428
 20
-51.98984
 30
0.0
 40
5.75
 50
41.366226
 51
138.633774
  0
ARC
  5
A0
  8
GUIDE
 10
12.60428
 20
-51.98984
 30
0.0
 40
5.75
 50
41.366226
 51
138.633774
  0
ARC
  5
A1
  8
GUIDE
 10
-23.69572
 20
-71.58984
 30
0.0
 40
5.75
 50
221.366226
 51
318.633774
  0
ARC
  5
A2
  8
GUIDE
 10
-72.09572
 20
-71.58984
 30
0.0
 40
5.75
 50
221.366226
 51
318.633774
  0
ARC
  5
A3
  8
GUIDE
 10
-47.89572
 20
-71.58984
 30
0.0
 40
5.75
 50
221.366226
 51
318.633774
  0
ARC
  5
A4
  8
GUIDE
 10
-59.99572
 20
-71.58984
 30
0.0
 40
5.75
 50
221.366226
 51
318.633774
  0
ARC
  5
A5
  8
GUIDE
 10
-35.79572
 20
-71.58984
 30
0.0
 40
5.75
 50
221.366226
 51
318.633774
  0
ARC
  5
A6
  8
GUIDE
 10
0.50428
 20
-71.58984
 30
0.0
 40
5.75
 50
221.366226
 51
318.633774
  0
ARC
  5
A7
  8
GUIDE
 10
-11.59572
 20
-71.58984
 30
0.0
 40
5.75
 50
221.366226
 51
318.633774
  0
ARC
  5
A8
  8
GUIDE
 10
12.60428
 20
-71.58984
 30
0.0
 40
5.75
 50
221.366226
 51
318.633774
  0
ARC
  5
A9
  8
GUIDE
 10
-72.09572
 20
-71.58984
 30
0.0
 40
5.75
 50
150.408157
 51
209.591843
  0
LINE
  5
AA
  8
GUIDE
 10
-77.04572
 20
30.58984
 30
0.0
 11
19.45428
 21
30.58984
 31
0.0
  0
LINE
  5
AB
  8
GUIDE
 10
-77.04572
 20
-3.21016
 30
0.0
 11
19.45428
 21
-3.21016
 31
0.0
  0
LINE
  5
AC
  8
GUIDE
 10
-80.24572000000001
 20
34.83984
 30
0.0
 11
19.45428
 21
34.83984
 31
0.0
  0
LINE
  5
AD
  8
GUIDE
 10
-80.24572000000001
 20
-7.46016
 30
0.0
 11
19.45428
 21
-7.46016
 31
0.0
  0
LINE
  5
AE
  8
GUIDE
 10
19.45428
 20
34.83984
 30
0.0
 11
19.45428
 21
30.58984
 31
0.0
  0
LINE
  5
AF
  8
GUIDE
 10
-80.24572000000001
 20
-7.46016
 30
0.0
 11
-80.24572000000001
 21
34.83984
 31
0.0
  0
LINE
  5
B0
  8
GUIDE
 10
19.45428
 20
-3.21016
 30
0.0
 11
19.45428
 21
-7.46016
 31
0.0
  0
LINE
  5
B1
  8
GUIDE
 10
-71.14572
 20
30.58984
 30
0.0
 11
-71.14572
 21
34.83984
 31
0.0
  0
LINE
  5
B2
  8
GUIDE
 10
-73.14572
 20
30.58984
 30
0.0
 11
-73.14572
 21
34.83984
 31
0.0
  0
LINE
  5
B3
  8
GUIDE
 10
-61.04572
 20
30.58984
 30
0.0
 11
-61.04572
 21
34.83984
 31
0.0
  0
LINE
  5
B4
  8
GUIDE
 10
-59.04572
 20
30.58984
 30
0.0
 11
-59.04572
 21
34.83984
 31
0.0
  0
LINE
  5
B5
  8
GUIDE
 10
-49.04572
 20
30.58984
 30
0.0
 11
-49.04572
 21
34.83984
 31
0.0
  0
LINE
  5
B6
  8
GUIDE
 10
-47.04572
 20
30.58984
 30
0.0
 11
-47.04572
 21
34.83984
 31
0.0
  0
LINE
  5
B7
  8
GUIDE
 10
-36.94572
 20
30.58984
 30
0.0
 11
-36.94572
 21
34.83984
 31
0.0
  0
LINE
  5
B8
  8
GUIDE
 10
-34.94572
 20
30.58984
 30
0.0
 11
-34.94572
 21
34.83984
 31
0.0
  0
LINE
  5
B9
  8
GUIDE
 10
-24.84572
 20
30.58984
 30
0.0
 11
-24.84572
 21
34.83984
 31
0.0
  0
LINE
  5
BA
  8
GUIDE
 10
-22.84572
 20
30.58984
 30
0.0
 11
-22.84572
 21
34.83984
 31
0.0
  0
LINE
  5
BB
  8
GUIDE
 10
-12.74572
 20
30.58984
 30
0.0
 11
-12.74572
 21
34.83984
 31
0.0
  0
LINE
  5
BC
  8
GUIDE
 10
-10.74572
 20
30.58984
 30
0.0
 11
-10.74572
 21
34.83984
 31
0.0
  0
LINE
  5
BD
  8
GUIDE
 10
-12.74572
 20
-7.46016
 30
0.0
 11
-12.74572
 21
-3.21016
 31
0.0
  0
LINE
  5
BE
  8
GUIDE
 10
-10.74572
 20
-7.46016
 30
0.0
 11
-10.74572
 21
-3.21016
 31
0.0
  0
LINE
  5
BF
  8
GUIDE
 10
-24.84572
 20
-3.21016
 30
0.0
 11
-24.84572
 21
-7.46016
 31
0.0
  0
LINE
  5
C0
  8
GUIDE
 10
-22.84572
 20
-3.21016
 30
0.0
 11
-22.84572
 21
-7.46016
 31
0.0
  0
LINE
  5
C1
  8
GUIDE
 10
-34.94572
 20
-3.21016
 30
0.0
 11
-34.94572
 21
-7.46016
 31
0.0
  0
LINE
  5
C2
  8
GUIDE
 10
-36.94572
 20
-3.21016
 30
0.0
 11
-36.94572
 21
-7.46016
 31
0.0
  0
LINE
  5
C3
  8
GUIDE
 10
-49.04572
 20
-7.46016
 30
0.0
 11
-49.04572
 21
-3.21016
 31
0.0
  0
LINE
  5
C4
  8
GUIDE
 10
-47.04572
 20
-7.46016
 30
0.0
 11
-47.04572
 21
-3.21016
 31
0.0
  0
LINE
  5
C5
  8
GUIDE
 10
-59.04572
 20
-3.21016
 30
0.0
 11
-59.04572
 21
-7.46016
 31
0.0
  0
LINE
  5
C6
  8
GUIDE
 10
-61.04572
 20
-3.21016
 30
0.0
 11
-61.04572
 21
-7.46016
 31
0.0
  0
LINE
  5
C7
  8
GUIDE
 10
-71.14572
 20
-3.21016
 30
0.0
 11
-71.14572
 21
-7.46016
 31
0.0
  0
LINE
  5
C8
  8
GUIDE
 10
-73.14572
 20
-3.21016
 30
0.0
 11
-73.14572
 21
-7.46016
 31
0.0
  0
LINE
  5
C9
  8
GUIDE
 10
-77.04572
 20
30.58984
 30
0.0
 11
-77.04572
 21
34.83984
 31
0.0
  0
LINE
  5
CA
  8
GUIDE
 10
-77.04572
 20
-3.21016
 30
0.0
 11
-77.04572
 21
-7.46016
 31
0.0
  0
LINE
  5
CB
  8
GUIDE
 10
18.95428
 20
30.08984
 30
0.0
 11
22.45428
 21
30.08984
 31
0.0
  0
LINE
  5
CC
  8
GUIDE
 10
22.45428
 20
30.08984
 30
0.0
 11
22.45428
 21
-2.71016
 31
0.0
  0
ARC
  5
CD
  8
GUIDE
 10
18.85193
 20
30.71989
 30
0.0
 40
0.63831
 50
191.755997
 51
279.227081
  0
LINE
  5
CE
  8
GUIDE
 10
18.95428
 20
-2.71016
 30
0.0
 11
22.45428
 21
-2.71016
 31
0.0
  0
ARC
  5
CF
  8
GUIDE
 10
18.85193
 20
-3.34021
 30
0.0
 40
0.63831
 50
80.772919
 51
168.244003
  0
LINE
  5
D0
  8
GUIDE
 10
1.35428
 20
30.58984
 30
0.0
 11
1.35428
 21
34.83984
 31
0.0
  0
LINE
  5
D1
  8
GUIDE
 10
-0.64572
 20
30.58984
 30
0.0
 11
-0.64572
 21
34.83984
 31
0.0
  0
LINE
  5
D2
  8
GUIDE
 10
13.45428
 20
30.58984
 30
0.0
 11
13.45428
 21
34.83984
 31
0.0
  0
LINE
  5
D3
  8
GUIDE
 10
11.45428
 20
30.58984
 30
0.0
 11
11.45428
 21
34.83984
 31
0.0
  0
LINE
  5
D4
  8
GUIDE
 10
1.35428
 20
-3.21016
 30
0.0
 11
1.35428
 21
-7.46016
 31
0.0
  0
LINE
  5
D5
  8
GUIDE
 10
-0.64572
 20
-3.21016
 30
0.0
 11
-0.64572
 21
-7.46016
 31
0.0
  0
LINE
  5
D6
  8
GUIDE
 10
13.45428
 20
-7.46016
 30
0.0
 11
13.45428
 21
-3.21016
 31
0.0
  0
LINE
  5
D7
  8
GUIDE
 10
11.45428
 20
-7.46016
 30
0.0
 11
11.45428
 21
-3.21016
 31
0.0
  0
CIRCLE
  5
D8
  8
GUIDE
 10
-30.34572
 20
71.33984
 30
0.0
 40
3.5
  0
LINE
  5
D9
  8
GUIDE
 10
-50.94917
 20
36.61037
 30
0.0
 11
-36.12495
 21
72.95243000000001
 31
0.0
  0
ARC
  5
DA
  8
GUIDE
 10
-53.68566
 20
37.83984
 30
0.0
 40
3.0
 50
270.0
 51
335.806305
  0
ARC
  5
DB
  8
GUIDE
 10
-7.00577
 20
37.83984
 30
0.0
 40
3.0
 50
204.193695
 51
270.0
  0
ARC
  5
DC
  8
GUIDE
 10
-30.34572
 20
71.33984
 30
0.0
 40
6.0
 50
15.59079
 51
164.40921
  0
LINE
  5
DD
  8
GUIDE
 10
-9.74227
 20
36.61037
 30
0.0
 11
-24.56648
 21
72.95243000000001
 31
0.0
  0
LINE
  5
DE
  8
GUIDE
 10
-33.80982
 20
71.83984
 30
0.0
 11
-26.88161
 21
71.83984
 31
0.0
  0
LINE
  5
DF
  8
GUIDE
 10
-33.80982
 20
70.83984
 30
0.0
 11
-26.84572
 21
70.83984
 31
0.0
  0
INSERT
  5
E0
  8
GUIDE
  2
A$CD241
 10
-94.26387
 20
-3.30705
 30
0.0
  0
INSERT
  5
E1
  8
GUIDE
  2
A$CD241
 10
-82.16387
 20
-3.30705
 30
0.0
  0
INSERT
  5
E2
  8
GUIDE
  2
A$CD241
 10
-70.06386999999999
 20
-3.30705
 30
0.0
  0
INSERT
  5
E3
  8
GUIDE
  2
A$CD241
 10
-57.96387
 20
-3.30705
 30
0.0
  0
INSERT
  5
E4
  8
GUIDE
  2
A$CD241
 10
-45.86387
 20
-3.30705
 30
0.0
  0
INSERT
  5
E5
  8
GUIDE
  2
A$CD241
 10
-33.76387
 20
-3.30705
 30
0.0
  0
INSERT
  5
E6
  8
GUIDE
  2
A$CD241
 10
-21.66387
 20
-3.30705
 30
0.0
  0
INSERT
  5
E7
  8
GUIDE
  2
A$CD241
 10
-9.56387
 20
-3.30705
 30
0.0
  0
LINE
  5
E8
  8
GUIDE
 10
65.98860999999999
 20
27.83984
 30
0.0
 11
65.98860999999999
 21
-0.46016
 31
0.0
  0
ARC
  5
E9
  8
GUIDE
 10
68.31968000000001
 20
28.35244
 30
0.0
 40
2.38677
 50
110.377258
 51
192.40181
  0
ARC
  5
EA
  8
GUIDE
 10
68.31968000000001
 20
-0.97276
 30
0.0
 40
2.38677
 50
167.59819
 51
249.622742
  0
POLYLINE
  5
EB
  8
GUIDE
 66
     1
 10
0.0
 20
0.0
 30
0.0
  0
VERTEX
  5
1D7
  8
GUIDE
 10
78.08861
 20
34.83984
 30
0.0
  0
VERTEX
  5
1D8
  8
GUIDE
 10
78.08861
 20
31.58984
 30
0.0
  0
VERTEX
  5
1D9
  8
GUIDE
 10
78.0763
 20
31.43341
 30
0.0
  0
VERTEX
  5
1DA
  8
GUIDE
 10
78.03967
 20
31.28083
 30
0.0
  0
VERTEX
  5
1DB
  8
GUIDE
 10
77.97962
 20
31.13585
 30
0.0
  0
VERTEX
  5
1DC
  8
GUIDE
 10
77.89764
 20
31.00206
 30
0.0
  0
VERTEX
  5
1DD
  8
GUIDE
 10
77.79572
 20
30.88273
 30
0.0
  0
VERTEX
  5
1DE
  8
GUIDE
 10
77.6764
 20
30.78082
 30
0.0
  0
VERTEX
  5
1DF
  8
GUIDE
 10
77.54261
 20
30.69883
 30
0.0
  0
VERTEX
  5
1E0
  8
GUIDE
 10
77.39764
 20
30.63879
 30
0.0
  0
VERTEX
  5
1E1
  8
GUIDE
 10
77.24506
 20
30.60215
 30
0.0
  0
VERTEX
  5
1E2
  8
GUIDE
 10
77.08861
 20
30.58984
 30
0.0
  0
VERTEX
  5
1E3
  8
GUIDE
 10
67.48860999999999
 20
30.58984
 30
0.0
  0
SEQEND
  5
305
  8
GUIDE
  0
POLYLINE
  5
FA
  8
GUIDE
 66
     1
 10
0.0
 20
0.0
 30
0.0
  0
VERTEX
  5
1E5
  8
GUIDE
 10
67.48860999999999
 20
-3.21016
 30
0.0
  0
VERTEX
  5
1E6
  8
GUIDE
 10
77.08861
 20
-3.21016
 30
0.0
  0
VERTEX
  5
1E7
  8
GUIDE
 10
77.25642000000001
 20
-3.25563
 30
0.0
  0
VERTEX
  5
1E8
  8
GUIDE
 10
77.41621000000001
 20
-3.32412
 30
0.0
  0
VERTEX
  5
1E9
  8
GUIDE
 10
77.56486
 20
-3.41428
 30
0.0
  0
VERTEX
  5
1EA
  8
GUIDE
 10
77.69944
 20
-3.52436
 30
0.0
  0
VERTEX
  5
1EB
  8
GUIDE
 10
77.81731000000001
 20
-3.65218
 30
0.0
  0
VERTEX
  5
1EC
  8
GUIDE
 10
77.81732
 20
-3.65219
 30
0.0
  0
VERTEX
  5
1ED
  8
GUIDE
 10
77.91615
 20
-3.79523
 30
0.0
  0
VERTEX
  5
1EE
  8
GUIDE
 10
77.994
 20
-3.95069
 30
0.0
  0
VERTEX
  5
1EF
  8
GUIDE
 10
78.04934
 20
-4.11551
 30
0.0
  0
VERTEX
  5
1F0
  8
GUIDE
 10
78.08109
 20
-4.28645
 30
0.0
  0
VERTEX
  5
1F1
  8
GUIDE
 10
78.08861
 20
-4.46017
 30
0.0
  0
VERTEX
  5
1F2
  8
GUIDE
 10
78.08861
 20
-4.46016
 30
0.0
  0
VERTEX
  5
1F3
  8
GUIDE
 10
78.08861
 20
-7.46016
 30
0.0
  0
SEQEND
  5
306
  8
GUIDE
  0
LINE
  5
10B
  8
GUIDE
 10
78.08861
 20
34.83984
 30
0.0
 11
50.88861
 21
34.83984
 31
0.0
  0
LINE
  5
10C
  8
GUIDE
 10
50.88861
 20
-7.46016
 30
0.0
 11
78.08861
 21
-7.46016
 31
0.0
  0
LINE
  5
10D
  8
GUIDE
 10
62.98861
 20
27.83984
 30
0.0
 11
62.98861
 21
-0.46016
 31
0.0
  0
POLYLINE
  5
10E
  8
GUIDE
 66
     1
 10
0.0
 20
0.0
 30
0.0
  0
VERTEX
  5
1F5
  8
GUIDE
 10
61.48861
 20
-3.21016
 30
0.0
  0
VERTEX
  5
1F6
  8
GUIDE
 10
51.88861
 20
-3.21016
 30
0.0
  0
VERTEX
  5
1F7
  8
GUIDE
 10
51.72077
 20
-3.25564
 30
0.0
  0
VERTEX
  5
1F8
  8
GUIDE
 10
51.56097
 20
-3.32413
 30
0.0
  0
VERTEX
  5
1F9
  8
GUIDE
 10
51.41233
 20
-3.41431
 30
0.0
  0
VERTEX
  5
1FA
  8
GUIDE
 10
51.27775
 20
-3.52438
 30
0.0
  0
VERTEX
  5
1FB
  8
GUIDE
 10
51.15991
 20
-3.65218
 30
0.0
  0
VERTEX
  5
1FC
  8
GUIDE
 10
51.1599
 20
-3.65219
 30
0.0
  0
VERTEX
  5
1FD
  8
GUIDE
 10
51.06106
 20
-3.79525
 30
0.0
  0
VERTEX
  5
1FE
  8
GUIDE
 10
50.98321
 20
-3.95071
 30
0.0
  0
VERTEX
  5
1FF
  8
GUIDE
 10
50.92788
 20
-4.11553
 30
0.0
  0
VERTEX
  5
200
  8
GUIDE
 10
50.89613
 20
-4.28647
 30
0.0
  0
VERTEX
  5
201
  8
GUIDE
 10
50.88861
 20
-4.46017
 30
0.0
  0
VERTEX
  5
202
  8
GUIDE
 10
50.88861
 20
-4.46016
 30
0.0
  0
VERTEX
  5
203
  8
GUIDE
 10
50.88861
 20
-7.46016
 30
0.0
  0
SEQEND
  5
307
  8
GUIDE
  0
ARC
  5
11F
  8
GUIDE
 10
60.65754
 20
-0.97276
 30
0.0
 40
2.38677
 50
290.377258
 51
12.40181
  0
POLYLINE
  5
120
  8
GUIDE
 66
     1
 10
0.0
 20
0.0
 30
0.0
  0
VERTEX
  5
205
  8
GUIDE
 10
50.88861
 20
34.83984
 30
0.0
  0
VERTEX
  5
206
  8
GUIDE
 10
50.88861
 20
31.58984
 30
0.0
  0
VERTEX
  5
207
  8
GUIDE
 10
50.90092
 20
31.43339
 30
0.0
  0
VERTEX
  5
208
  8
GUIDE
 10
50.93756
 20
31.28081
 30
0.0
  0
VERTEX
  5
209
  8
GUIDE
 10
50.9976
 20
31.13584
 30
0.0
  0
VERTEX
  5
20A
  8
GUIDE
 10
51.07959
 20
31.00205
 30
0.0
  0
VERTEX
  5
20B
  8
GUIDE
 10
51.1815
 20
30.88273
 30
0.0
  0
VERTEX
  5
20C
  8
GUIDE
 10
51.30083
 20
30.78081
 30
0.0
  0
VERTEX
  5
20D
  8
GUIDE
 10
51.43462
 20
30.69883
 30
0.0
  0
VERTEX
  5
20E
  8
GUIDE
 10
51.5796
 20
30.63878
 30
0.0
  0
VERTEX
  5
20F
  8
GUIDE
 10
51.73218
 20
30.60215
 30
0.0
  0
VERTEX
  5
210
  8
GUIDE
 10
51.88863
 20
30.58984
 30
0.0
  0
VERTEX
  5
211
  8
GUIDE
 10
51.88861
 20
30.58984
 30
0.0
  0
VERTEX
  5
212
  8
GUIDE
 10
61.48861
 20
30.58984
 30
0.0
  0
SEQEND
  5
308
  8
GUIDE
  0
ARC
  5
130
  8
GUIDE
 10
60.65754
 20
28.35244
 30
0.0
 40
2.38677
 50
347.59819
 51
69.622742
  0
LINE
  5
131
  8
GUIDE
 10
70.48860999999999
 20
76.33984
 30
0.0
 11
67.48860999999999
 21
76.33984
 31
0.0
  0
LINE
  5
132
  8
GUIDE
 10
58.48861
 20
76.33984
 30
0.0
 11
58.48861
 21
66.33984
 31
0.0
  0
LINE
  5
133
  8
GUIDE
 10
70.48860999999999
 20
76.33984
 30
0.0
 11
70.48860999999999
 21
66.33984
 31
0.0
  0
LINE
  5
134
  8
GUIDE
 10
58.48861
 20
66.33984
 30
0.0
 11
51.88861
 21
34.83984
 31
0.0
  0
LINE
  5
135
  8
GUIDE
 10
70.48860999999999
 20
66.33984
 30
0.0
 11
77.08861
 21
34.83984
 31
0.0
  0
LINE
  5
136
  8
GUIDE
 10
61.48861
 20
76.33984
 30
0.0
 11
61.48861
 21
66.33984
 31
0.0
  0
LINE
  5
137
  8
GUIDE
 10
67.48860999999999
 20
76.33984
 30
0.0
 11
67.48860999999999
 21
66.33984
 31
0.0
  0
ARC
  5
138
  8
GUIDE
 10
60.07717
 20
71.33984
 30
0.0
 40
3.5
 50
116.992554
 51
243.007431
  0
ARC
  5
139
  8
GUIDE
 10
62.63268
 20
71.33984
 30
0.0
 40
9.095050000000001
 50
329.741226
 51
30.258774
  0
LINE
  5
13A
  8
GUIDE
 10
58.48861
 20
66.33984
 30
0.0
 11
58.48861
 21
34.83984
 31
0.0
  0
LINE
  5
13B
  8
GUIDE
 10
70.48860999999999
 20
66.33984
 30
0.0
 11
70.48860999999999
 21
34.83984
 31
0.0
  0
LINE
  5
13C
  8
GUIDE
 10
67.48860999999999
 20
74.33984
 30
0.0
 11
61.48861
 21
74.33984
 31
0.0
  0
LINE
  5
13D
  8
GUIDE
 10
61.48861
 20
66.33984
 30
0.0
 11
61.48861
 21
34.83984
 31
0.0
  0
LINE
  5
13E
  8
GUIDE
 10
67.48860999999999
 20
66.33984
 30
0.0
 11
67.48860999999999
 21
34.83984
 31
0.0
  0
LINE
  5
13F
  8
GUIDE
 10
61.48861
 20
76.33984
 30
0.0
 11
58.48861
 21
76.33984
 31
0.0
  0
POLYLINE
  5
140
  8
GUIDE
 66
     1
 10
0.0
 20
0.0
 30
0.0
 70
     1
  0
VERTEX
  5
214
  8
GUIDE
 10
71.78861000000001
 20
29.93984
 30
0.0
  0
VERTEX
  5
215
  8
GUIDE
 10
71.78861000000001
 20
30.58984
 30
0.0
  0
VERTEX
  5
216
  8
GUIDE
 10
76.78861000000001
 20
30.58984
 30
0.0
  0
VERTEX
  5
217
  8
GUIDE
 10
76.78861000000001
 20
29.93984
 30
0.0
  0
SEQEND
  5
309
  8
GUIDE
  0
POLYLINE
  5
146
  8
GUIDE
 66
     1
 10
0.0
 20
0.0
 30
0.0
 70
     1
  0
VERTEX
  5
219
  8
GUIDE
 10
71.78861000000001
 20
-3.21016
 30
0.0
  0
VERTEX
  5
21A
  8
GUIDE
 10
71.78861000000001
 20
-2.56016
 30
0.0
  0
VERTEX
  5
21B
  8
GUIDE
 10
76.78861000000001
 20
-2.56016
 30
0.0
  0
VERTEX
  5
21C
  8
GUIDE
 10
76.78861000000001
 20
-3.21016
 30
0.0
  0
SEQEND
  5
30A
  8
GUIDE
  0
POLYLINE
  5
14C
  8
GUIDE
 66
     1
 10
0.0
 20
0.0
 30
0.0
 70
     1
  0
VERTEX
  5
21E
  8
GUIDE
 10
68.53861000000001
 20
-1.56016
 30
0.0
  0
VERTEX
  5
21F
  8
GUIDE
 10
68.53861000000001
 20
28.93984
 30
0.0
  0
VERTEX
  5
220
  8
GUIDE
 10
68.55092000000001
 20
29.09626
 30
0.0
  0
VERTEX
  5
221
  8
GUIDE
 10
68.58754999999999
 20
29.24884
 30
0.0
  0
VERTEX
  5
222
  8
GUIDE
 10
68.64758999999999
 20
29.39381
 30
0.0
  0
VERTEX
  5
223
  8
GUIDE
 10
68.72957
 20
29.52761
 30
0.0
  0
VERTEX
  5
224
  8
GUIDE
 10
68.83149
 20
29.64694
 30
0.0
  0
VERTEX
  5
225
  8
GUIDE
 10
68.83150000000001
 20
29.64695
 30
0.0
  0
VERTEX
  5
226
  8
GUIDE
 10
68.95081
 20
29.74885
 30
0.0
  0
VERTEX
  5
227
  8
GUIDE
 10
69.0846
 20
29.83084
 30
0.0
  0
VERTEX
  5
228
  8
GUIDE
 10
69.22957
 20
29.89089
 30
0.0
  0
VERTEX
  5
229
  8
GUIDE
 10
69.38216
 20
29.92753
 30
0.0
  0
VERTEX
  5
22A
  8
GUIDE
 10
69.53859
 20
29.93984
 30
0.0
  0
VERTEX
  5
22B
  8
GUIDE
 10
69.53861000000001
 20
29.93984
 30
0.0
  0
VERTEX
  5
22C
  8
GUIDE
 10
79.03861000000001
 20
29.93984
 30
0.0
  0
VERTEX
  5
22D
  8
GUIDE
 10
79.19504000000001
 20
29.92753
 30
0.0
  0
VERTEX
  5
22E
  8
GUIDE
 10
79.34762000000001
 20
29.8909
 30
0.0
  0
VERTEX
  5
22F
  8
GUIDE
 10
79.4926
 20
29.83085
 30
0.0
  0
VERTEX
  5
230
  8
GUIDE
 10
79.6264
 20
29.74886
 30
0.0
  0
VERTEX
  5
231
  8
GUIDE
 10
79.74572000000001
 20
29.64695
 30
0.0
  0
VERTEX
  5
232
  8
GUIDE
 10
79.84763
 20
29.52763
 30
0.0
  0
VERTEX
  5
233
  8
GUIDE
 10
79.92962
 20
29.39384
 30
0.0
  0
VERTEX
  5
234
  8
GUIDE
 10
79.98966
 20
29.24887
 30
0.0
  0
VERTEX
  5
235
  8
GUIDE
 10
80.02630000000001
 20
29.09629
 30
0.0
  0
VERTEX
  5
236
  8
GUIDE
 10
80.03861000000001
 20
28.93984
 30
0.0
  0
VERTEX
  5
237
  8
GUIDE
 10
80.03861000000001
 20
-1.56016
 30
0.0
  0
VERTEX
  5
238
  8
GUIDE
 10
80.02630000000001
 20
-1.71659
 30
0.0
  0
VERTEX
  5
239
  8
GUIDE
 10
79.98967
 20
-1.86917
 30
0.0
  0
VERTEX
  5
23A
  8
GUIDE
 10
79.92962
 20
-2.01415
 30
0.0
  0
VERTEX
  5
23B
  8
GUIDE
 10
79.84764
 20
-2.14794
 30
0.0
  0
VERTEX
  5
23C
  8
GUIDE
 10
79.74572000000001
 20
-2.26727
 30
0.0
  0
VERTEX
  5
23D
  8
GUIDE
 10
79.6264
 20
-2.36918
 30
0.0
  0
VERTEX
  5
23E
  8
GUIDE
 10
79.49261
 20
-2.45117
 30
0.0
  0
VERTEX
  5
23F
  8
GUIDE
 10
79.34764
 20
-2.51121
 30
0.0
  0
VERTEX
  5
240
  8
GUIDE
 10
79.19506
 20
-2.54785
 30
0.0
  0
VERTEX
  5
241
  8
GUIDE
 10
79.03861000000001
 20
-2.56016
 30
0.0
  0
VERTEX
  5
242
  8
GUIDE
 10
69.53861000000001
 20
-2.56016
 30
0.0
  0
VERTEX
  5
243
  8
GUIDE
 10
69.38218000000001
 20
-2.54785
 30
0.0
  0
VERTEX
  5
244
  8
GUIDE
 10
69.22960000000001
 20
-2.51122
 30
0.0
  0
VERTEX
  5
245
  8
GUIDE
 10
69.08462
 20
-2.45117
 30
0.0
  0
VERTEX
  5
246
  8
GUIDE
 10
68.95083
 20
-2.36919
 30
0.0
  0
VERTEX
  5
247
  8
GUIDE
 10
68.83150000000001
 20
-2.26727
 30
0.0
  0
VERTEX
  5
248
  8
GUIDE
 10
68.72959
 20
-2.14795
 30
0.0
  0
VERTEX
  5
249
  8
GUIDE
 10
68.6476
 20
-2.01416
 30
0.0
  0
VERTEX
  5
24A
  8
GUIDE
 10
68.58756
 20
-1.86919
 30
0.0
  0
VERTEX
  5
24B
  8
GUIDE
 10
68.55092000000001
 20
-1.71661
 30
0.0
  0
VERTEX
  5
24C
  8
GUIDE
 10
68.53861000000001
 20
-1.56016
 30
0.0
  0
SEQEND
  5
30B
  8
GUIDE
  0
POLYLINE
  5
17D
  8
GUIDE
 66
     1
 10
0.0
 20
0.0
 30
0.0
 70
     1
  0
VERTEX
  5
24E
  8
GUIDE
 10
52.18861
 20
29.93984
 30
0.0
  0
VERTEX
  5
24F
  8
GUIDE
 10
52.18861
 20
30.58984
 30
0.0
  0
VERTEX
  5
250
  8
GUIDE
 10
57.18861
 20
30.58984
 30
0.0
  0
VERTEX
  5
251
  8
GUIDE
 10
57.18861
 20
29.93984
 30
0.0
  0
SEQEND
  5
30C
  8
GUIDE
  0
POLYLINE
  5
183
  8
GUIDE
 66
     1
 10
0.0
 20
0.0
 30
0.0
 70
     1
  0
VERTEX
  5
253
  8
GUIDE
 10
52.18861
 20
-3.21016
 30
0.0
  0
VERTEX
  5
254
  8
GUIDE
 10
52.18861
 20
-2.56016
 30
0.0
  0
VERTEX
  5
255
  8
GUIDE
 10
57.18861
 20
-2.56016
 30
0.0
  0
VERTEX
  5
256
  8
GUIDE
 10
57.18861
 20
-3.21016
 30
0.0
  0
SEQEND
  5
30D
  8
GUIDE
  0
POLYLINE
  5
189
  8
GUIDE
 66
     1
 10
0.0
 20
0.0
 30
0.0
 70
     1
  0
VERTEX
  5
258
  8
GUIDE
 10
48.93861
 20
-1.56016
 30
0.0
  0
VERTEX
  5
259
  8
GUIDE
 10
48.93861
 20
28.93984
 30
0.0
  0
VERTEX
  5
25A
  8
GUIDE
 10
48.95092
 20
29.09626
 30
0.0
  0
VERTEX
  5
25B
  8
GUIDE
 10
48.98755
 20
29.24884
 30
0.0
  0
VERTEX
  5
25C
  8
GUIDE
 10
49.04759
 20
29.39381
 30
0.0
  0
VERTEX
  5
25D
  8
GUIDE
 10
49.12957
 20
29.52761
 30
0.0
  0
VERTEX
  5
25E
  8
GUIDE
 10
49.23149
 20
29.64694
 30
0.0
  0
VERTEX
  5
25F
  8
GUIDE
 10
49.2315
 20
29.64695
 30
0.0
  0
VERTEX
  5
260
  8
GUIDE
 10
49.35081
 20
29.74885
 30
0.0
  0
VERTEX
  5
261
  8
GUIDE
 10
49.4846
 20
29.83084
 30
0.0
  0
VERTEX
  5
262
  8
GUIDE
 10
49.62957
 20
29.89089
 30
0.0
  0
VERTEX
  5
263
  8
GUIDE
 10
49.78216
 20
29.92753
 30
0.0
  0
VERTEX
  5
264
  8
GUIDE
 10
49.93859
 20
29.93984
 30
0.0
  0
VERTEX
  5
265
  8
GUIDE
 10
49.93861
 20
29.93984
 30
0.0
  0
VERTEX
  5
266
  8
GUIDE
 10
59.43861
 20
29.93984
 30
0.0
  0
VERTEX
  5
267
  8
GUIDE
 10
59.59504
 20
29.92753
 30
0.0
  0
VERTEX
  5
268
  8
GUIDE
 10
59.74762
 20
29.8909
 30
0.0
  0
VERTEX
  5
269
  8
GUIDE
 10
59.8926
 20
29.83085
 30
0.0
  0
VERTEX
  5
26A
  8
GUIDE
 10
60.0264
 20
29.74886
 30
0.0
  0
VERTEX
  5
26B
  8
GUIDE
 10
60.14572
 20
29.64695
 30
0.0
  0
VERTEX
  5
26C
  8
GUIDE
 10
60.24763
 20
29.52763
 30
0.0
  0
VERTEX
  5
26D
  8
GUIDE
 10
60.32962
 20
29.39384
 30
0.0
  0
VERTEX
  5
26E
  8
GUIDE
 10
60.38966
 20
29.24887
 30
0.0
  0
VERTEX
  5
26F
  8
GUIDE
 10
60.4263
 20
29.09629
 30
0.0
  0
VERTEX
  5
270
  8
GUIDE
 10
60.43861
 20
28.93984
 30
0.0
  0
VERTEX
  5
271
  8
GUIDE
 10
60.43861
 20
-1.56016
 30
0.0
  0
VERTEX
  5
272
  8
GUIDE
 10
60.4263
 20
-1.71659
 30
0.0
  0
VERTEX
  5
273
  8
GUIDE
 10
60.38967
 20
-1.86917
 30
0.0
  0
VERTEX
  5
274
  8
GUIDE
 10
60.32962
 20
-2.01415
 30
0.0
  0
VERTEX
  5
275
  8
GUIDE
 10
60.24764
 20
-2.14794
 30
0.0
  0
VERTEX
  5
276
  8
GUIDE
 10
60.14572
 20
-2.26727
 30
0.0
  0
VERTEX
  5
277
  8
GUIDE
 10
60.0264
 20
-2.36918
 30
0.0
  0
VERTEX
  5
278
  8
GUIDE
 10
59.89261
 20
-2.45117
 30
0.0
  0
VERTEX
  5
279
  8
GUIDE
 10
59.74764
 20
-2.51121
 30
0.0
  0
VERTEX
  5
27A
  8
GUIDE
 10
59.59506
 20
-2.54785
 30
0.0
  0
VERTEX
  5
27B
  8
GUIDE
 10
59.43861
 20
-2.56016
 30
0.0
  0
VERTEX
  5
27C
  8
GUIDE
 10
49.93861
 20
-2.56016
 30
0.0
  0
VERTEX
  5
27D
  8
GUIDE
 10
49.78218
 20
-2.54785
 30
0.0
  0
VERTEX
  5
27E
  8
GUIDE
 10
49.6296
 20
-2.51122
 30
0.0
  0
VERTEX
  5
27F
  8
GUIDE
 10
49.48462
 20
-2.45117
 30
0.0
  0
VERTEX
  5
280
  8
GUIDE
 10
49.35083
 20
-2.36919
 30
0.0
  0
VERTEX
  5
281
  8
GUIDE
 10
49.2315
 20
-2.26727
 30
0.0
  0
VERTEX
  5
282
  8
GUIDE
 10
49.12959
 20
-2.14795
 30
0.0
  0
VERTEX
  5
283
  8
GUIDE
 10
49.0476
 20
-2.01416
 30
0.0
  0
VERTEX
  5
284
  8
GUIDE
 10
48.98756
 20
-1.86919
 30
0.0
  0
VERTEX
  5
285
  8
GUIDE
 10
48.95092
 20
-1.71661
 30
0.0
  0
VERTEX
  5
286
  8
GUIDE
 10
48.93861
 20
-1.56016
 30
0.0
  0
SEQEND
  5
30E
  8
GUIDE
  0
LINE
  5
1BA
  8
GUIDE
 10
-80.19571999999999
 20
-60.28984
 30
0.0
 11
-80.19571999999999
 21
-63.28984
 31
0.0
  0
LINE
  5
1BB
  8
GUIDE
 10
-77.09572
 20
-48.18984
 30
0.0
 11
-77.09572
 21
-60.28984
 31
0.0
  0
LINE
  5
1BC
  8
GUIDE
 10
-80.19571999999999
 20
-60.28984
 30
0.0
 11
-77.09572
 21
-60.28984
 31
0.0
  0
LINE
  5
1BD
  8
GUIDE
 10
-80.19571999999999
 20
-63.28984
 30
0.0
 11
-77.09572
 21
-63.28984
 31
0.0
  0
LINE
  5
1BE
  8
GUIDE
 10
-77.09572
 20
-63.28984
 30
0.0
 11
-77.09572
 21
-75.38984000000001
 31
0.0
  0
LINE
  5
1BF
  8
GUIDE
 10
-111.19572
 20
-60.28984
 30
0.0
 11
-111.19572
 21
-63.28984
 31
0.0
  0
ARC
  5
1C0
  8
GUIDE
 10
-79.81898
 20
-94.61519
 30
0.0
 40
46.50516
 50
86.64308200000001
 51
132.430908
  0
ARC
  5
1C1
  8
GUIDE
 10
-79.81898
 20
-28.96449
 30
0.0
 40
46.50516
 50
227.569092
 51
273.356918
  0
LINE
  5
1C2
  8
GUIDE
 10
-111.24572
 20
-7.46016
 30
0.0
 11
-111.24572
 21
34.83984
 31
0.0
  0
LINE
  5
1C3
  8
GUIDE
 10
-80.24572000000001
 20
34.83984
 30
0.0
 11
-111.24572
 21
34.83984
 31
0.0
  0
LINE
  5
1C4
  8
GUIDE
 10
-80.24572000000001
 20
-7.46016
 30
0.0
 11
-111.24572
 21
-7.46016
 31
0.0
  0
LINE
  5
1C5
  8
AXIS
 62
     1
 10
-30.39572
 20
-55.78984
 30
0.0
 11
-30.39572
 21
-67.78984
 31
0.0
  0
ENDSEC
  0
EOF
