  0
SECTION
  2
HEADER
  9
$ACADVER
  1
AC1012
  9
$DWGCODEPAGE
  3
ansi_1252
  9
$INSBASE
 10
0.0
 20
0.0
 30
0.0
  9
$EXTMIN
 10
0.0
 20
-157.629568
 30
0.0
  9
$EXTMAX
 10
167.250137
 20
42.5
 30
0.0
  9
$LIMMIN
 10
0.0
 20
0.0
  9
$LIMMAX
 10
12.0
 20
9.0
  9
$ORTHOMODE
 70
     1
  9
$REGENMODE
 70
     1
  9
$FILLMODE
 70
     1
  9
$QTEXTMODE
 70
     0
  9
$MIRRTEXT
 70
     1
  9
$DRAGMODE
 70
     2
  9
$LTSCALE
 40
1.0
  9
$OSMODE
 70
    37
  9
$ATTMODE
 70
     1
  9
$TEXTSIZE
 40
0.2
  9
$TRACEWID
 40
0.05
  9
$TEXTSTYLE
  7
STANDARD
  9
$CLAYER
  8
0
  9
$CELTYPE
  6
BYLAYER
  9
$CECOLOR
 62
   256
  9
$CELTSCALE
 40
1.0
  9
$DELOBJ
 70
     1
  9
$DISPSILH
 70
     0
  9
$DIMSCALE
 40
1.0
  9
$DIMASZ
 40
0.18
  9
$DIMEXO
 40
0.0625
  9
$DIMDLI
 40
0.38
  9
$DIMRND
 40
0.0
  9
$DIMDLE
 40
0.0
  9
$DIMEXE
 40
0.18
  9
$DIMTP
 40
0.0
  9
$DIMTM
 40
0.0
  9
$DIMTXT
 40
0.18
  9
$DIMCEN
 40
0.09
  9
$DIMTSZ
 40
0.0
  9
$DIMTOL
 70
     0
  9
$DIMLIM
 70
     0
  9
$DIMTIH
 70
     1
  9
$DIMTOH
 70
     1
  9
$DIMSE1
 70
     0
  9
$DIMSE2
 70
     0
  9
$DIMTAD
 70
     0
  9
$DIMZIN
 70
     0
  9
$DIMBLK
  1

  9
$DIMASO
 70
     1
  9
$DIMSHO
 70
     1
  9
$DIMPOST
  1

  9
$DIMAPOST
  1

  9
$DIMALT
 70
     0
  9
$DIMALTD
 70
     2
  9
$DIMALTF
 40
25.4
  9
$DIMLFAC
 40
1.0
  9
$DIMTOFL
 70
     0
  9
$DIMTVP
 40
0.0
  9
$DIMTIX
 70
     0
  9
$DIMSOXD
 70
     0
  9
$DIMSAH
 70
     0
  9
$DIMBLK1
  1

  9
$DIMBLK2
  1

  9
$DIMSTYLE
  2
STANDARD
  9
$DIMCLRD
 70
     0
  9
$DIMCLRE
 70
     0
  9
$DIMCLRT
 70
     0
  9
$DIMTFAC
 40
1.0
  9
$DIMGAP
 40
0.09
  9
$DIMJUST
 70
     0
  9
$DIMSD1
 70
     0
  9
$DIMSD2
 70
     0
  9
$DIMTOLJ
 70
     1
  9
$DIMTZIN
 70
     0
  9
$DIMALTZ
 70
     0
  9
$DIMALTTZ
 70
     0
  9
$DIMFIT
 70
     3
  9
$DIMUPT
 70
     0
  9
$DIMUNIT
 70
     2
  9
$DIMDEC
 70
     4
  9
$DIMTDEC
 70
     4
  9
$DIMALTU
 70
     2
  9
$DIMALTTD
 70
     2
  9
$DIMTXSTY
  7
STANDARD
  9
$DIMAUNIT
 70
     0
  9
$LUNITS
 70
     2
  9
$LUPREC
 70
     4
  9
$SKETCHINC
 40
0.1
  9
$FILLETRAD
 40
0.0
  9
$AUNITS
 70
     0
  9
$AUPREC
 70
     0
  9
$MENU
  1
acad
  9
$ELEVATION
 40
0.0
  9
$PELEVATION
 40
0.0
  9
$THICKNESS
 40
0.0
  9
$LIMCHECK
 70
     0
  9
$CHAMFERA
 40
0.0
  9
$CHAMFERB
 40
0.0
  9
$CHAMFERC
 40
0.0
  9
$CHAMFERD
 40
0.0
  9
$SKPOLY
 70
     0
  9
$TDCREATE
 40
2447893.083333334
  9
$TDUPDATE
 40
2447893.083333334
  9
$TDINDWG
 40
0.002565162
  9
$TDUSRTIMER
 40
0.002565162
  9
$USRTIMER
 70
     1
  9
$ANGBASE
 50
0.0
  9
$ANGDIR
 70
     0
  9
$PDMODE
 70
     0
  9
$PDSIZE
 40
0.0
  9
$PLINEWID
 40
0.0
  9
$COORDS
 70
     1
  9
$SPLFRAME
 70
     0
  9
$SPLINETYPE
 70
     6
  9
$SPLINESEGS
 70
     8
  9
$ATTDIA
 70
     0
  9
$ATTREQ
 70
     1
  9
$HANDLING
 70
     1
  9
$HANDSEED
  5
260
  9
$SURFTAB1
 70
     6
  9
$SURFTAB2
 70
     6
  9
$SURFTYPE
 70
     6
  9
$SURFU
 70
     6
  9
$SURFV
 70
     6
  9
$UCSNAME
  2

  9
$UCSORG
 10
0.0
 20
0.0
 30
0.0
  9
$UCSXDIR
 10
1.0
 20
0.0
 30
0.0
  9
$UCSYDIR
 10
0.0
 20
1.0
 30
0.0
  9
$PUCSNAME
  2

  9
$PUCSORG
 10
0.0
 20
0.0
 30
0.0
  9
$PUCSXDIR
 10
1.0
 20
0.0
 30
0.0
  9
$PUCSYDIR
 10
0.0
 20
1.0
 30
0.0
  9
$USERI1
 70
     0
  9
$USERI2
 70
     0
  9
$USERI3
 70
     0
  9
$USERI4
 70
     0
  9
$USERI5
 70
     0
  9
$USERR1
 40
0.0
  9
$USERR2
 40
0.0
  9
$USERR3
 40
0.0
  9
$USERR4
 40
0.0
  9
$USERR5
 40
0.0
  9
$WORLDVIEW
 70
     1
  9
$SHADEDGE
 70
     3
  9
$SHADEDIF
 70
    70
  9
$TILEMODE
 70
     1
  9
$MAXACTVP
 70
    16
  9
$PINSBASE
 10
0.0
 20
0.0
 30
0.0
  9
$PLIMCHECK
 70
     0
  9
$PEXTMIN
 10
1.000000000000000E+20
 20
1.000000000000000E+20
 30
1.000000000000000E+20
  9
$PEXTMAX
 10
-1.000000000000000E+20
 20
-1.000000000000000E+20
 30
-1.000000000000000E+20
  9
$PLIMMIN
 10
0.0
 20
0.0
  9
$PLIMMAX
 10
12.0
 20
9.0
  9
$UNITMODE
 70
     0
  9
$VISRETAIN
 70
     0
  9
$PLINEGEN
 70
     0
  9
$PSLTSCALE
 70
     1
  9
$TREEDEPTH
 70
  3020
  9
$PICKSTYLE
 70
     1
  9
$CMLSTYLE
  2
STANDARD
  9
$CMLJUST
 70
     0
  9
$CMLSCALE
 40
1.0
  9
$SAVEIMAGES
 70
     1
  0
ENDSEC
  0
SECTION
  2
CLASSES
  0
CLASS
  1
XRECORD
  2
AcDbXrecord
  3
AutoCAD 2000
 90
    32768
280
     0
281
     0
  0
CLASS
  1
LWPOLYLINE
  2
AcDbPolyline
  3
AutoCAD 2000
 90
    32768
280
     0
281
     1
  0
CLASS
  1
HATCH
  2
AcDbHatch
  3
AutoCAD 2000
 90
    32768
280
     0
281
     1
  0
CLASS
  1
ACDBPLACEHOLDER
  2
AcDbPlaceHolder
  3
ObjectDBX Classes
 90
        0
280
     0
281
     0
  0
CLASS
  1
LAYOUT
  2
AcDbLayout
  3
ObjectDBX Classes
 90
        0
280
     0
281
     0
  0
ENDSEC
  0
SECTION
  2
TABLES
  0
TABLE
  2
VPORT
  5
8
330
0
100
AcDbSymbolTable
 70
     1
  0
VPORT
  5
1D3
102
{ACAD_XDICTIONARY
360
25E
102
}
330
8
100
AcDbSymbolTableRecord
100
AcDbViewportTableRecord
  2
*ACTIVE
 70
     0
 10
0.0
 20
0.0
 11
1.0
 21
1.0
 12
191.659517
 22
-57.564784
 13
0.0
 23
0.0
 14
1.0
 24
1.0
 15
0.0
 25
0.0
 16
0.0
 26
0.0
 36
1.0
 17
0.0
 27
0.0
 37
0.0
 40
200.129568
 41
1.915354
 42
50.0
 43
0.0
 44
0.0
 50
0.0
 51
0.0
 71
     0
 72
   100
 73
     1
 74
     1
 75
     0
 76
     0
 77
     0
 78
     0
  0
ENDTAB
  0
TABLE
  2
LTYPE
  5
5
330
0
100
AcDbSymbolTable
 70
     2
  0
LTYPE
  5
14
330
5
100
AcDbSymbolTableRecord
100
AcDbLinetypeTableRecord
  2
BYBLOCK
 70
     0
  3

 72
    65
 73
     0
 40
0.0
  0
LTYPE
  5
15
330
5
100
AcDbSymbolTableRecord
100
AcDbLinetypeTableRecord
  2
BYLAYER
 70
     0
  3

 72
    65
 73
     0
 40
0.0
  0
LTYPE
  5
16
330
5
100
AcDbSymbolTableRecord
100
AcDbLinetypeTableRecord
  2
CONTINUOUS
 70
     0
  3
Solid line
 72
    65
 73
     0
 40
0.0
  0
LTYPE
  5
DF
330
5
100
AcDbSymbolTableRecord
100
AcDbLinetypeTableRecord
  2
DASHDOT
 70
     0
  3
__ . __ . __ . __ . __ . __ . __ . __ . __ . __
 72
    65
 73
     4
 40
1.0
 49
0.5
 74
     0
 49
-0.25
 74
     0
 49
0.0
 74
     0
 49
-0.25
 74
     0
  0
ENDTAB
  0
TABLE
  2
LAYER
  5
2
330
0
100
AcDbSymbolTable
 70
     3
  0
LAYER
  5
F
330
2
100
AcDbSymbolTableRecord
100
AcDbLayerTableRecord
  2
0
 70
     0
 62
     7
  6
CONTINUOUS
  0
LAYER
  5
3F
330
2
100
AcDbSymbolTableRecord
100
AcDbLayerTableRecord
  2
GUIDE
 70
     0
 62
     7
  6
CONTINUOUS
  0
LAYER
  5
E0
330
2
100
AcDbSymbolTableRecord
100
AcDbLayerTableRecord
  2
AXIS
 70
     0
 62
     1
  6
DASHDOT
  0
ENDTAB
  0
TABLE
  2
STYLE
  5
3
330
0
100
AcDbSymbolTable
 70
     1
  0
STYLE
  5
10
330
3
100
AcDbSymbolTableRecord
100
AcDbTextStyleTableRecord
  2
STANDARD
 70
     0
 40
0.0
 41
1.0
 50
0.0
 71
     0
 42
0.2
  3
txt
  4

  0
ENDTAB
  0
TABLE
  2
VIEW
  5
6
330
0
100
AcDbSymbolTable
 70
     0
  0
ENDTAB
  0
TABLE
  2
UCS
  5
7
330
0
100
AcDbSymbolTable
 70
     0
  0
ENDTAB
  0
TABLE
  2
APPID
  5
9
330
0
100
AcDbSymbolTable
 70
     1
  0
APPID
  5
11
330
9
100
AcDbSymbolTableRecord
100
AcDbRegAppTableRecord
  2
ACAD
 70
     0
  0
ENDTAB
  0
TABLE
  2
DIMSTYLE
  5
A
330
0
100
AcDbSymbolTable
 70
     1
  0
DIMSTYLE
105
1D
330
A
100
AcDbSymbolTableRecord
100
AcDbDimStyleTableRecord
  2
STANDARD
 70
     0
  3

  4

  5

  6

  7

 40
1.0
 41
0.18
 42
0.0625
 43
0.38
 44
0.18
 45
0.0
 46
0.0
 47
0.0
 48
0.0
140
0.18
141
0.09
142
0.0
143
25.4
144
1.0
145
0.0
146
1.0
147
0.09
 71
     0
 72
     0
 73
     1
 74
     1
 75
     0
 76
     0
 77
     0
 78
     0
170
     0
171
     2
172
     0
173
     0
174
     0
175
     0
176
     0
177
     0
178
     0
270
     2
271
     4
272
     4
273
     2
274
     2
340
10
275
     0
280
     0
281
     0
282
     0
283
     1
284
     0
285
     0
286
     0
287
     3
288
     0
  0
ENDTAB
  0
TABLE
  2
BLOCK_RECORD
  5
1
330
0
100
AcDbSymbolTable
 70
     1
  0
BLOCK_RECORD
  5
1A
330
1
100
AcDbSymbolTableRecord
100
AcDbBlockTableRecord
  2
*MODEL_SPACE
  0
BLOCK_RECORD
  5
17
330
1
100
AcDbSymbolTableRecord
100
AcDbBlockTableRecord
  2
*PAPER_SPACE
  0
BLOCK_RECORD
  5
28
330
1
100
AcDbSymbolTableRecord
100
AcDbBlockTableRecord
  2
A$C3232
  0
ENDTAB
  0
ENDSEC
  0
SECTION
  2
BLOCKS
  0
BLOCK
  5
1B
330
1A
100
AcDbEntity
  8
0
100
AcDbBlockBegin
  2
*MODEL_SPACE
 70
     0
 71
     0
 10
0.0
 20
0.0
 30
0.0
  3
*MODEL_SPACE
  1

  0
ENDBLK
  5
1C
330
1A
100
AcDbEntity
  8
0
100
AcDbBlockEnd
  0
BLOCK
  5
18
330
17
100
AcDbEntity
 67
     1
  8
0
100
AcDbBlockBegin
  2
*PAPER_SPACE
 70
     0
 71
     0
 10
0.0
 20
0.0
 30
0.0
  3
*PAPER_SPACE
  1

  0
ENDBLK
  5
19
330
17
100
AcDbEntity
 67
     1
  8
0
100
AcDbBlockEnd
  0
BLOCK
  5
3D
330
28
100
AcDbEntity
  8
0
100
AcDbBlockBegin
  2
A$C3232
 70
     0
 71
     0
 10
0.0
 20
0.0
 30
0.0
  3
A$C3232
  1

  0
POLYLINE
  5
29
330
28
100
AcDbEntity
  8
0
100
AcDb2dPolyline
 66
     1
 10
0.0
 20
0.0
 30
0.0
 70
     1
  0
VERTEX
  5
24D
330
29
100
AcDbEntity
  8
0
100
AcDbVertex
100
AcDb2dVertex
 10
-18.337871
 20
25.143749
 30
0.0
  0
VERTEX
  5
24E
330
29
100
AcDbEntity
  8
0
100
AcDbVertex
100
AcDb2dVertex
 10
-18.337871
 20
55.643749
 30
0.0
 42
-0.414214
  0
VERTEX
  5
24F
330
29
100
AcDbEntity
  8
0
100
AcDbVertex
100
AcDb2dVertex
 10
-17.337871
 20
56.643749
 30
0.0
  0
VERTEX
  5
250
330
29
100
AcDbEntity
  8
0
100
AcDbVertex
100
AcDb2dVertex
 10
-7.837871
 20
56.643749
 30
0.0
 42
-0.414214
  0
VERTEX
  5
251
330
29
100
AcDbEntity
  8
0
100
AcDbVertex
100
AcDb2dVertex
 10
-6.837871
 20
55.643749
 30
0.0
  0
VERTEX
  5
252
330
29
100
AcDbEntity
  8
0
100
AcDbVertex
100
AcDb2dVertex
 10
-6.837871
 20
25.143749
 30
0.0
 42
-0.414214
  0
VERTEX
  5
253
330
29
100
AcDbEntity
  8
0
100
AcDbVertex
100
AcDb2dVertex
 10
-7.837871
 20
24.143749
 30
0.0
  0
VERTEX
  5
254
330
29
100
AcDbEntity
  8
0
100
AcDbVertex
100
AcDb2dVertex
 10
-17.337871
 20
24.143749
 30
0.0
 42
-0.414214
  0
SEQEND
  5
24C
330
29
100
AcDbEntity
  8
0
  0
POLYLINE
  5
33
330
28
100
AcDbEntity
  8
0
100
AcDb2dPolyline
 66
     1
 10
0.0
 20
0.0
 30
0.0
 70
     1
  0
VERTEX
  5
256
330
33
100
AcDbEntity
  8
0
100
AcDbVertex
100
AcDb2dVertex
 10
-18.337871
 20
-7.356251
 30
0.0
  0
VERTEX
  5
257
330
33
100
AcDbEntity
  8
0
100
AcDbVertex
100
AcDb2dVertex
 10
-18.337871
 20
23.143749
 30
0.0
 42
-0.414214
  0
VERTEX
  5
258
330
33
100
AcDbEntity
  8
0
100
AcDbVertex
100
AcDb2dVertex
 10
-17.337871
 20
24.143749
 30
0.0
  0
VERTEX
  5
259
330
33
100
AcDbEntity
  8
0
100
AcDbVertex
100
AcDb2dVertex
 10
-7.837871
 20
24.143749
 30
0.0
 42
-0.414214
  0
VERTEX
  5
25A
330
33
100
AcDbEntity
  8
0
100
AcDbVertex
100
AcDb2dVertex
 10
-6.837871
 20
23.143749
 30
0.0
  0
VERTEX
  5
25B
330
33
100
AcDbEntity
  8
0
100
AcDbVertex
100
AcDb2dVertex
 10
-6.837871
 20
-7.356251
 30
0.0
 42
-0.414214
  0
VERTEX
  5
25C
330
33
100
AcDbEntity
  8
0
100
AcDbVertex
100
AcDb2dVertex
 10
-7.837871
 20
-8.356251
 30
0.0
  0
VERTEX
  5
25D
330
33
100
AcDbEntity
  8
0
100
AcDbVertex
100
AcDb2dVertex
 10
-17.337871
 20
-8.356251
 30
0.0
 42
-0.414214
  0
SEQEND
  5
255
330
33
100
AcDbEntity
  8
0
  0
ENDBLK
  5
3E
330
28
100
AcDbEntity
  8
0
100
AcDbBlockEnd
  0
ENDSEC
  0
SECTION
  2
ENTITIES
  0
LINE
  5
114
330
1A
100
AcDbEntity
  8
GUIDE
100
AcDbLine
 10
0.05
 20
-140.579568
 30
0.0
 11
0.05
 21
-143.579568
 31
0.0
  0
LINE
  5
115
330
1A
100
AcDbEntity
  8
GUIDE
100
AcDbLine
 10
99.65000000000001
 20
-128.479568
 30
0.0
 11
99.65000000000001
 21
-155.679568
 31
0.0
  0
LINE
  5
116
330
1A
100
AcDbEntity
  8
GUIDE
100
AcDbLine
 10
102.65
 20
-140.579568
 30
0.0
 11
102.65
 21
-143.579568
 31
0.0
  0
LINE
  5
117
330
1A
100
AcDbEntity
  8
GUIDE
100
AcDbLine
 10
26.510053
 20
-136.079568
 30
0.0
 11
26.510053
 21
-139.079568
 31
0.0
  0
LINE
  5
118
330
1A
100
AcDbEntity
  8
GUIDE
100
AcDbLine
 10
73.189947
 20
-136.079568
 30
0.0
 11
73.189947
 21
-139.079568
 31
0.0
  0
LINE
  5
119
330
1A
100
AcDbEntity
  8
GUIDE
100
AcDbLine
 10
3.15
 20
-155.679568
 30
0.0
 11
99.65000000000001
 21
-155.679568
 31
0.0
  0
LINE
  5
11A
330
1A
100
AcDbEntity
  8
GUIDE
100
AcDbLine
 10
3.15
 20
-128.479568
 30
0.0
 11
99.65000000000001
 21
-128.479568
 31
0.0
  0
LINE
  5
11B
330
1A
100
AcDbEntity
  8
GUIDE
100
AcDbLine
 10
26.510053
 20
-136.079568
 30
0.0
 11
73.189947
 21
-136.079568
 31
0.0
  0
LINE
  5
11C
330
1A
100
AcDbEntity
  8
GUIDE
100
AcDbLine
 10
26.510053
 20
-148.079568
 30
0.0
 11
73.189947
 21
-148.079568
 31
0.0
  0
LINE
  5
11D
330
1A
100
AcDbEntity
  8
GUIDE
100
AcDbLine
 10
26.510053
 20
-139.079568
 30
0.0
 11
73.189947
 21
-139.079568
 31
0.0
  0
LINE
  5
11E
330
1A
100
AcDbEntity
  8
GUIDE
100
AcDbLine
 10
26.510053
 20
-145.079568
 30
0.0
 11
73.189947
 21
-145.079568
 31
0.0
  0
LINE
  5
11F
330
1A
100
AcDbEntity
  8
GUIDE
100
AcDbLine
 10
26.510053
 20
-145.079568
 30
0.0
 11
26.510053
 21
-148.079568
 31
0.0
  0
LINE
  5
120
330
1A
100
AcDbEntity
  8
GUIDE
100
AcDbLine
 10
73.189947
 20
-145.079568
 30
0.0
 11
73.189947
 21
-148.079568
 31
0.0
  0
LINE
  5
121
330
1A
100
AcDbEntity
  8
GUIDE
100
AcDbLine
 10
46.35
 20
-139.079568
 30
0.0
 11
46.35
 21
-145.079568
 31
0.0
  0
LINE
  5
122
330
1A
100
AcDbEntity
  8
GUIDE
100
AcDbLine
 10
53.35
 20
-139.079568
 30
0.0
 11
53.35
 21
-145.079568
 31
0.0
  0
LINE
  5
123
330
1A
100
AcDbEntity
  8
GUIDE
100
AcDbLine
 10
99.65000000000001
 20
-143.579568
 30
0.0
 11
102.65
 21
-143.579568
 31
0.0
  0
LINE
  5
124
330
1A
100
AcDbEntity
  8
GUIDE
100
AcDbLine
 10
99.65000000000001
 20
-140.579568
 30
0.0
 11
102.65
 21
-140.579568
 31
0.0
  0
LINE
  5
125
330
1A
100
AcDbEntity
  8
GUIDE
100
AcDbLine
 10
3.15
 20
-128.479568
 30
0.0
 11
3.15
 21
-140.579568
 31
0.0
  0
LINE
  5
126
330
1A
100
AcDbEntity
  8
GUIDE
100
AcDbLine
 10
0.05
 20
-140.579568
 30
0.0
 11
3.15
 21
-140.579568
 31
0.0
  0
LINE
  5
127
330
1A
100
AcDbEntity
  8
GUIDE
100
AcDbLine
 10
0.05
 20
-143.579568
 30
0.0
 11
3.15
 21
-143.579568
 31
0.0
  0
LINE
  5
128
330
1A
100
AcDbEntity
  8
GUIDE
100
AcDbLine
 10
3.15
 20
-143.579568
 30
0.0
 11
3.15
 21
-155.679568
 31
0.0
  0
LINE
  5
129
330
1A
100
AcDbEntity
  8
GUIDE
100
AcDbLine
 10
44.85
 20
-136.079568
 30
0.0
 11
54.85
 21
-136.079568
 31
0.0
  0
ARC
  5
12A
330
1A
100
AcDbEntity
  8
GUIDE
100
AcDbCircle
 10
49.85
 20
-146.491006
 30
0.0
 40
3.5
100
AcDbArc
 50
206.992564
 51
333.007436
  0
ARC
  5
12B
330
1A
100
AcDbEntity
  8
GUIDE
100
AcDbCircle
 10
49.85
 20
-143.935495
 30
0.0
 40
9.095051
100
AcDbArc
 50
59.741229
 51
120.258771
  0
LINE
  5
12C
330
1A
100
AcDbEntity
  8
AXIS
 48
0.5
100
AcDbLine
 10
49.85
 20
-136.079568
 30
0.0
 11
49.85
 21
-148.079568
 31
0.0
  0
ARC
  5
12D
330
1A
100
AcDbEntity
  8
GUIDE
100
AcDbCircle
 10
8.15
 20
-132.279568
 30
0.0
 40
5.75
100
AcDbArc
 50
150.408154
 51
209.591846
  0
ARC
  5
12E
330
1A
100
AcDbEntity
  8
GUIDE
100
AcDbCircle
 10
8.15
 20
-132.279568
 30
0.0
 40
5.75
100
AcDbArc
 50
41.366225
 51
138.633775
  0
ARC
  5
12F
330
1A
100
AcDbEntity
  8
GUIDE
100
AcDbCircle
 10
20.25
 20
-132.279568
 30
0.0
 40
5.75
100
AcDbArc
 50
41.366225
 51
138.633775
  0
ARC
  5
130
330
1A
100
AcDbEntity
  8
GUIDE
100
AcDbCircle
 10
32.35
 20
-132.279568
 30
0.0
 40
5.75
100
AcDbArc
 50
41.366225
 51
138.633775
  0
ARC
  5
131
330
1A
100
AcDbEntity
  8
GUIDE
100
AcDbCircle
 10
44.45
 20
-132.279568
 30
0.0
 40
5.75
100
AcDbArc
 50
41.366225
 51
138.633775
  0
ARC
  5
132
330
1A
100
AcDbEntity
  8
GUIDE
100
AcDbCircle
 10
56.55
 20
-132.279568
 30
0.0
 40
5.75
100
AcDbArc
 50
41.366225
 51
138.633775
  0
ARC
  5
133
330
1A
100
AcDbEntity
  8
GUIDE
100
AcDbCircle
 10
68.65000000000001
 20
-132.279568
 30
0.0
 40
5.75
100
AcDbArc
 50
41.366225
 51
138.633775
  0
ARC
  5
134
330
1A
100
AcDbEntity
  8
GUIDE
100
AcDbCircle
 10
80.75
 20
-132.279568
 30
0.0
 40
5.75
100
AcDbArc
 50
41.366225
 51
138.633775
  0
ARC
  5
135
330
1A
100
AcDbEntity
  8
GUIDE
100
AcDbCircle
 10
92.84999999999999
 20
-132.279568
 30
0.0
 40
5.75
100
AcDbArc
 50
41.366225
 51
138.633775
  0
ARC
  5
136
330
1A
100
AcDbEntity
  8
GUIDE
100
AcDbCircle
 10
56.55
 20
-151.879568
 30
0.0
 40
5.75
100
AcDbArc
 50
221.366225
 51
318.633775
  0
ARC
  5
137
330
1A
100
AcDbEntity
  8
GUIDE
100
AcDbCircle
 10
8.15
 20
-151.879568
 30
0.0
 40
5.75
100
AcDbArc
 50
221.366225
 51
318.633775
  0
ARC
  5
138
330
1A
100
AcDbEntity
  8
GUIDE
100
AcDbCircle
 10
32.35
 20
-151.879568
 30
0.0
 40
5.75
100
AcDbArc
 50
221.366225
 51
318.633775
  0
ARC
  5
139
330
1A
100
AcDbEntity
  8
GUIDE
100
AcDbCircle
 10
20.25
 20
-151.879568
 30
0.0
 40
5.75
100
AcDbArc
 50
221.366225
 51
318.633775
  0
ARC
  5
13A
330
1A
100
AcDbEntity
  8
GUIDE
100
AcDbCircle
 10
44.45
 20
-151.879568
 30
0.0
 40
5.75
100
AcDbArc
 50
221.366225
 51
318.633775
  0
ARC
  5
13B
330
1A
100
AcDbEntity
  8
GUIDE
100
AcDbCircle
 10
80.75
 20
-151.879568
 30
0.0
 40
5.75
100
AcDbArc
 50
221.366225
 51
318.633775
  0
ARC
  5
13C
330
1A
100
AcDbEntity
  8
GUIDE
100
AcDbCircle
 10
68.65000000000001
 20
-151.879568
 30
0.0
 40
5.75
100
AcDbArc
 50
221.366225
 51
318.633775
  0
ARC
  5
13D
330
1A
100
AcDbEntity
  8
GUIDE
100
AcDbCircle
 10
92.84999999999999
 20
-151.879568
 30
0.0
 40
5.75
100
AcDbArc
 50
221.366225
 51
318.633775
  0
ARC
  5
13E
330
1A
100
AcDbEntity
  8
GUIDE
100
AcDbCircle
 10
8.15
 20
-151.879568
 30
0.0
 40
5.75
100
AcDbArc
 50
150.408154
 51
209.591846
  0
LINE
  5
13F
330
1A
100
AcDbEntity
  8
GUIDE
100
AcDbLine
 10
3.2
 20
-4.25
 30
0.0
 11
99.7
 21
-4.25
 31
0.0
  0
LINE
  5
140
330
1A
100
AcDbEntity
  8
GUIDE
100
AcDbLine
 10
3.2
 20
-70.25
 30
0.0
 11
99.7
 21
-70.25
 31
0.0
  0
LINE
  5
141
330
1A
100
AcDbEntity
  8
GUIDE
100
AcDbLine
 10
0.0
 20
0.0
 30
0.0
 11
99.7
 21
0.0
 31
0.0
  0
LINE
  5
142
330
1A
100
AcDbEntity
  8
GUIDE
100
AcDbLine
 10
0.0
 20
-74.5
 30
0.0
 11
99.7
 21
-74.5
 31
0.0
  0
LINE
  5
143
330
1A
100
AcDbEntity
  8
GUIDE
100
AcDbLine
 10
99.7
 20
0.0
 30
0.0
 11
99.7
 21
-4.25
 31
0.0
  0
LINE
  5
144
330
1A
100
AcDbEntity
  8
GUIDE
100
AcDbLine
 10
0.0
 20
-74.5
 30
0.0
 11
0.0
 21
0.0
 31
0.0
  0
LINE
  5
145
330
1A
100
AcDbEntity
  8
GUIDE
100
AcDbLine
 10
99.7
 20
-70.25
 30
0.0
 11
99.7
 21
-74.5
 31
0.0
  0
LINE
  5
146
330
1A
100
AcDbEntity
  8
GUIDE
100
AcDbLine
 10
9.1
 20
-4.25
 30
0.0
 11
9.1
 21
0.0
 31
0.0
  0
LINE
  5
147
330
1A
100
AcDbEntity
  8
GUIDE
100
AcDbLine
 10
7.1
 20
-4.25
 30
0.0
 11
7.1
 21
0.0
 31
0.0
  0
LINE
  5
148
330
1A
100
AcDbEntity
  8
GUIDE
100
AcDbLine
 10
19.2
 20
-4.25
 30
0.0
 11
19.2
 21
0.0
 31
0.0
  0
LINE
  5
149
330
1A
100
AcDbEntity
  8
GUIDE
100
AcDbLine
 10
21.2
 20
-4.25
 30
0.0
 11
21.2
 21
0.0
 31
0.0
  0
LINE
  5
14A
330
1A
100
AcDbEntity
  8
GUIDE
100
AcDbLine
 10
31.2
 20
-4.25
 30
0.0
 11
31.2
 21
0.0
 31
0.0
  0
LINE
  5
14B
330
1A
100
AcDbEntity
  8
GUIDE
100
AcDbLine
 10
33.2
 20
-4.25
 30
0.0
 11
33.2
 21
0.0
 31
0.0
  0
LINE
  5
14C
330
1A
100
AcDbEntity
  8
GUIDE
100
AcDbLine
 10
43.3
 20
-4.25
 30
0.0
 11
43.3
 21
0.0
 31
0.0
  0
LINE
  5
14D
330
1A
100
AcDbEntity
  8
GUIDE
100
AcDbLine
 10
45.3
 20
-4.25
 30
0.0
 11
45.3
 21
0.0
 31
0.0
  0
LINE
  5
14E
330
1A
100
AcDbEntity
  8
GUIDE
100
AcDbLine
 10
55.4
 20
-4.25
 30
0.0
 11
55.4
 21
0.0
 31
0.0
  0
LINE
  5
14F
330
1A
100
AcDbEntity
  8
GUIDE
100
AcDbLine
 10
57.4
 20
-4.25
 30
0.0
 11
57.4
 21
0.0
 31
0.0
  0
LINE
  5
150
330
1A
100
AcDbEntity
  8
GUIDE
100
AcDbLine
 10
67.5
 20
-4.25
 30
0.0
 11
67.5
 21
0.0
 31
0.0
  0
LINE
  5
151
330
1A
100
AcDbEntity
  8
GUIDE
100
AcDbLine
 10
69.5
 20
-4.25
 30
0.0
 11
69.5
 21
0.0
 31
0.0
  0
LINE
  5
152
330
1A
100
AcDbEntity
  8
GUIDE
100
AcDbLine
 10
67.5
 20
-74.5
 30
0.0
 11
67.5
 21
-70.25
 31
0.0
  0
LINE
  5
153
330
1A
100
AcDbEntity
  8
GUIDE
100
AcDbLine
 10
69.5
 20
-74.5
 30
0.0
 11
69.5
 21
-70.25
 31
0.0
  0
LINE
  5
154
330
1A
100
AcDbEntity
  8
GUIDE
100
AcDbLine
 10
55.4
 20
-70.25
 30
0.0
 11
55.4
 21
-74.5
 31
0.0
  0
LINE
  5
155
330
1A
100
AcDbEntity
  8
GUIDE
100
AcDbLine
 10
57.4
 20
-70.25
 30
0.0
 11
57.4
 21
-74.5
 31
0.0
  0
LINE
  5
156
330
1A
100
AcDbEntity
  8
GUIDE
100
AcDbLine
 10
45.3
 20
-70.25
 30
0.0
 11
45.3
 21
-74.5
 31
0.0
  0
LINE
  5
157
330
1A
100
AcDbEntity
  8
GUIDE
100
AcDbLine
 10
43.3
 20
-70.25
 30
0.0
 11
43.3
 21
-74.5
 31
0.0
  0
LINE
  5
158
330
1A
100
AcDbEntity
  8
GUIDE
100
AcDbLine
 10
31.2
 20
-74.5
 30
0.0
 11
31.2
 21
-70.25
 31
0.0
  0
LINE
  5
159
330
1A
100
AcDbEntity
  8
GUIDE
100
AcDbLine
 10
33.2
 20
-74.5
 30
0.0
 11
33.2
 21
-70.25
 31
0.0
  0
LINE
  5
15A
330
1A
100
AcDbEntity
  8
GUIDE
100
AcDbLine
 10
21.2
 20
-70.25
 30
0.0
 11
21.2
 21
-74.5
 31
0.0
  0
LINE
  5
15B
330
1A
100
AcDbEntity
  8
GUIDE
100
AcDbLine
 10
19.2
 20
-70.25
 30
0.0
 11
19.2
 21
-74.5
 31
0.0
  0
LINE
  5
15C
330
1A
100
AcDbEntity
  8
GUIDE
100
AcDbLine
 10
9.1
 20
-70.25
 30
0.0
 11
9.1
 21
-74.5
 31
0.0
  0
LINE
  5
15D
330
1A
100
AcDbEntity
  8
GUIDE
100
AcDbLine
 10
7.1
 20
-70.25
 30
0.0
 11
7.1
 21
-74.5
 31
0.0
  0
LINE
  5
15E
330
1A
100
AcDbEntity
  8
GUIDE
100
AcDbLine
 10
3.2
 20
-4.25
 30
0.0
 11
3.2
 21
0.0
 31
0.0
  0
LINE
  5
15F
330
1A
100
AcDbEntity
  8
GUIDE
100
AcDbLine
 10
3.2
 20
-70.25
 30
0.0
 11
3.2
 21
-74.5
 31
0.0
  0
LINE
  5
160
330
1A
100
AcDbEntity
  8
GUIDE
100
AcDbLine
 10
99.2
 20
-4.75
 30
0.0
 11
102.7
 21
-4.75
 31
0.0
  0
LINE
  5
161
330
1A
100
AcDbEntity
  8
GUIDE
100
AcDbLine
 10
102.7
 20
-4.75
 30
0.0
 11
102.7
 21
-69.75
 31
0.0
  0
ARC
  5
162
330
1A
100
AcDbEntity
  8
GUIDE
100
AcDbCircle
 10
99.09764800000001
 20
-4.119948
 30
0.0
 40
0.638312
100
AcDbArc
 50
191.755997
 51
279.227079
  0
LINE
  5
163
330
1A
100
AcDbEntity
  8
GUIDE
100
AcDbLine
 10
99.2
 20
-69.75
 30
0.0
 11
102.7
 21
-69.75
 31
0.0
  0
ARC
  5
164
330
1A
100
AcDbEntity
  8
GUIDE
100
AcDbCircle
 10
99.09764800000001
 20
-70.38005200000001
 30
0.0
 40
0.638312
100
AcDbArc
 50
80.772921
 51
168.244003
  0
LINE
  5
165
330
1A
100
AcDbEntity
  8
GUIDE
100
AcDbLine
 10
81.59999999999999
 20
-4.25
 30
0.0
 11
81.59999999999999
 21
0.0
 31
0.0
  0
LINE
  5
166
330
1A
100
AcDbEntity
  8
GUIDE
100
AcDbLine
 10
79.59999999999999
 20
-4.25
 30
0.0
 11
79.59999999999999
 21
0.0
 31
0.0
  0
LINE
  5
167
330
1A
100
AcDbEntity
  8
GUIDE
100
AcDbLine
 10
93.7
 20
-4.25
 30
0.0
 11
93.7
 21
0.0
 31
0.0
  0
LINE
  5
168
330
1A
100
AcDbEntity
  8
GUIDE
100
AcDbLine
 10
91.7
 20
-4.25
 30
0.0
 11
91.7
 21
0.0
 31
0.0
  0
LINE
  5
169
330
1A
100
AcDbEntity
  8
GUIDE
100
AcDbLine
 10
81.59999999999999
 20
-70.25
 30
0.0
 11
81.59999999999999
 21
-74.5
 31
0.0
  0
LINE
  5
16A
330
1A
100
AcDbEntity
  8
GUIDE
100
AcDbLine
 10
79.59999999999999
 20
-70.25
 30
0.0
 11
79.59999999999999
 21
-74.5
 31
0.0
  0
LINE
  5
16B
330
1A
100
AcDbEntity
  8
GUIDE
100
AcDbLine
 10
93.7
 20
-74.5
 30
0.0
 11
93.7
 21
-70.25
 31
0.0
  0
LINE
  5
16C
330
1A
100
AcDbEntity
  8
GUIDE
100
AcDbLine
 10
91.7
 20
-74.5
 30
0.0
 11
91.7
 21
-70.25
 31
0.0
  0
CIRCLE
  5
16D
330
1A
100
AcDbEntity
  8
GUIDE
100
AcDbCircle
 10
49.9
 20
36.5
 30
0.0
 40
3.5
  0
LINE
  5
16E
330
1A
100
AcDbEntity
  8
GUIDE
100
AcDbLine
 10
29.296549
 20
1.770532
 30
0.0
 11
44.120765
 21
38.11259
 31
0.0
  0
ARC
  5
16F
330
1A
100
AcDbEntity
  8
GUIDE
100
AcDbCircle
 10
26.560053
 20
3.0
 30
0.0
 40
3.0
100
AcDbArc
 50
270.0
 51
335.806301
  0
ARC
  5
170
330
1A
100
AcDbEntity
  8
GUIDE
100
AcDbCircle
 10
73.239947
 20
3.0
 30
0.0
 40
3.0
100
AcDbArc
 50
204.193699
 51
270.0
  0
ARC
  5
171
330
1A
100
AcDbEntity
  8
GUIDE
100
AcDbCircle
 10
49.9
 20
36.5
 30
0.0
 40
6.0
100
AcDbArc
 50
15.590788
 51
164.409212
  0
LINE
  5
172
330
1A
100
AcDbEntity
  8
GUIDE
100
AcDbLine
 10
70.503451
 20
1.770532
 30
0.0
 11
55.679235
 21
38.11259
 31
0.0
  0
LINE
  5
173
330
1A
100
AcDbEntity
  8
GUIDE
100
AcDbLine
 10
46.435898
 20
37.0
 30
0.0
 11
53.364102
 21
37.0
 31
0.0
  0
LINE
  5
174
330
1A
100
AcDbEntity
  8
GUIDE
100
AcDbLine
 10
46.435898
 20
36.0
 30
0.0
 11
53.4
 21
36.0
 31
0.0
  0
POLYLINE
  5
175
330
1A
100
AcDbEntity
  8
GUIDE
100
AcDb2dPolyline
 66
     1
 10
0.0
 20
0.0
 30
0.0
 70
     1
  0
VERTEX
  5
22F
330
175
100
AcDbEntity
  8
GUIDE
100
AcDbVertex
100
AcDb2dVertex
 10
53.9
 20
-5.05
 30
0.0
  0
VERTEX
  5
230
330
175
100
AcDbEntity
  8
GUIDE
100
AcDbVertex
100
AcDb2dVertex
 10
53.9
 20
-4.25
 30
0.0
  0
VERTEX
  5
231
330
175
100
AcDbEntity
  8
GUIDE
100
AcDbVertex
100
AcDb2dVertex
 10
58.9
 20
-4.25
 30
0.0
  0
VERTEX
  5
232
330
175
100
AcDbEntity
  8
GUIDE
100
AcDbVertex
100
AcDb2dVertex
 10
58.9
 20
-5.05
 30
0.0
  0
SEQEND
  5
22E
330
175
100
AcDbEntity
  8
GUIDE
  0
LINE
  5
17B
330
1A
100
AcDbEntity
  8
GUIDE
100
AcDbLine
 10
17.7
 20
-4.25
 30
0.0
 11
17.7
 21
-5.05
 31
0.0
  0
LINE
  5
17C
330
1A
100
AcDbEntity
  8
GUIDE
100
AcDbLine
 10
22.7
 20
-5.05
 30
0.0
 11
22.7
 21
-4.25
 31
0.0
  0
LINE
  5
17D
330
1A
100
AcDbEntity
  8
GUIDE
100
AcDbLine
 10
22.7
 20
-4.25
 30
0.0
 11
17.7
 21
-4.25
 31
0.0
  0
POLYLINE
  5
17E
330
1A
100
AcDbEntity
  8
GUIDE
100
AcDb2dPolyline
 66
     1
 10
0.0
 20
0.0
 30
0.0
 70
     1
  0
VERTEX
  5
234
330
17E
100
AcDbEntity
  8
GUIDE
100
AcDbVertex
100
AcDb2dVertex
 10
5.6
 20
-5.2
 30
0.0
  0
VERTEX
  5
235
330
17E
100
AcDbEntity
  8
GUIDE
100
AcDbVertex
100
AcDb2dVertex
 10
5.6
 20
-4.25
 30
0.0
  0
VERTEX
  5
236
330
17E
100
AcDbEntity
  8
GUIDE
100
AcDbVertex
100
AcDb2dVertex
 10
10.6
 20
-4.25
 30
0.0
  0
VERTEX
  5
237
330
17E
100
AcDbEntity
  8
GUIDE
100
AcDbVertex
100
AcDb2dVertex
 10
10.6
 20
-5.2
 30
0.0
  0
SEQEND
  5
233
330
17E
100
AcDbEntity
  8
GUIDE
  0
LINE
  5
184
330
1A
100
AcDbEntity
  8
GUIDE
100
AcDbLine
 10
41.8
 20
-4.25
 30
0.0
 11
41.8
 21
-5.05
 31
0.0
  0
LINE
  5
185
330
1A
100
AcDbEntity
  8
GUIDE
100
AcDbLine
 10
46.8
 20
-5.05
 30
0.0
 11
46.8
 21
-4.25
 31
0.0
  0
LINE
  5
186
330
1A
100
AcDbEntity
  8
GUIDE
100
AcDbLine
 10
46.8
 20
-4.25
 30
0.0
 11
41.8
 21
-4.25
 31
0.0
  0
POLYLINE
  5
187
330
1A
100
AcDbEntity
  8
GUIDE
100
AcDb2dPolyline
 66
     1
 10
0.0
 20
0.0
 30
0.0
 70
     1
  0
VERTEX
  5
239
330
187
100
AcDbEntity
  8
GUIDE
100
AcDbVertex
100
AcDb2dVertex
 10
29.7
 20
-5.05
 30
0.0
  0
VERTEX
  5
23A
330
187
100
AcDbEntity
  8
GUIDE
100
AcDbVertex
100
AcDb2dVertex
 10
29.7
 20
-4.25
 30
0.0
  0
VERTEX
  5
23B
330
187
100
AcDbEntity
  8
GUIDE
100
AcDbVertex
100
AcDb2dVertex
 10
34.7
 20
-4.25
 30
0.0
  0
VERTEX
  5
23C
330
187
100
AcDbEntity
  8
GUIDE
100
AcDbVertex
100
AcDb2dVertex
 10
34.7
 20
-5.05
 30
0.0
  0
SEQEND
  5
238
330
187
100
AcDbEntity
  8
GUIDE
  0
POLYLINE
  5
18D
330
1A
100
AcDbEntity
  8
GUIDE
100
AcDb2dPolyline
 66
     1
 10
0.0
 20
0.0
 30
0.0
 70
     1
  0
VERTEX
  5
23E
330
18D
100
AcDbEntity
  8
GUIDE
100
AcDbVertex
100
AcDb2dVertex
 10
78.09999999999999
 20
-5.05
 30
0.0
  0
VERTEX
  5
23F
330
18D
100
AcDbEntity
  8
GUIDE
100
AcDbVertex
100
AcDb2dVertex
 10
78.09999999999999
 20
-4.25
 30
0.0
  0
VERTEX
  5
240
330
18D
100
AcDbEntity
  8
GUIDE
100
AcDbVertex
100
AcDb2dVertex
 10
83.09999999999999
 20
-4.25
 30
0.0
  0
VERTEX
  5
241
330
18D
100
AcDbEntity
  8
GUIDE
100
AcDbVertex
100
AcDb2dVertex
 10
83.09999999999999
 20
-5.05
 30
0.0
  0
SEQEND
  5
23D
330
18D
100
AcDbEntity
  8
GUIDE
  0
LINE
  5
193
330
1A
100
AcDbEntity
  8
GUIDE
100
AcDbLine
 10
66.0
 20
-4.25
 30
0.0
 11
66.0
 21
-5.05
 31
0.0
  0
LINE
  5
194
330
1A
100
AcDbEntity
  8
GUIDE
100
AcDbLine
 10
71.0
 20
-5.05
 30
0.0
 11
71.0
 21
-4.25
 31
0.0
  0
LINE
  5
195
330
1A
100
AcDbEntity
  8
GUIDE
100
AcDbLine
 10
71.0
 20
-4.25
 30
0.0
 11
66.0
 21
-4.25
 31
0.0
  0
LINE
  5
196
330
1A
100
AcDbEntity
  8
GUIDE
100
AcDbLine
 10
90.2
 20
-4.25
 30
0.0
 11
90.2
 21
-5.05
 31
0.0
  0
LINE
  5
197
330
1A
100
AcDbEntity
  8
GUIDE
100
AcDbLine
 10
95.2
 20
-5.05
 30
0.0
 11
95.2
 21
-4.25
 31
0.0
  0
LINE
  5
198
330
1A
100
AcDbEntity
  8
GUIDE
100
AcDbLine
 10
95.2
 20
-4.25
 30
0.0
 11
90.2
 21
-4.25
 31
0.0
  0
INSERT
  5
199
330
1A
100
AcDbEntity
  8
GUIDE
100
AcDbBlockReference
  2
A$C3232
 10
20.687871
 20
-61.843749
 30
0.0
  0
INSERT
  5
19A
330
1A
100
AcDbEntity
  8
GUIDE
100
AcDbBlockReference
  2
A$C3232
 10
32.787871
 20
-61.843749
 30
0.0
  0
INSERT
  5
19B
330
1A
100
AcDbEntity
  8
GUIDE
100
AcDbBlockReference
  2
A$C3232
 10
44.887871
 20
-61.843749
 30
0.0
  0
INSERT
  5
19C
330
1A
100
AcDbEntity
  8
GUIDE
100
AcDbBlockReference
  2
A$C3232
 10
56.987871
 20
-61.843749
 30
0.0
  0
INSERT
  5
19D
330
1A
100
AcDbEntity
  8
GUIDE
100
AcDbBlockReference
  2
A$C3232
 10
69.08787100000001
 20
-61.843749
 30
0.0
  0
INSERT
  5
19E
330
1A
100
AcDbEntity
  8
GUIDE
100
AcDbBlockReference
  2
A$C3232
 10
81.187871
 20
-61.843749
 30
0.0
  0
INSERT
  5
19F
330
1A
100
AcDbEntity
  8
GUIDE
100
AcDbBlockReference
  2
A$C3232
 10
93.287871
 20
-61.843749
 30
0.0
  0
INSERT
  5
1A0
330
1A
100
AcDbEntity
  8
GUIDE
100
AcDbBlockReference
  2
A$C3232
 10
105.387871
 20
-61.843749
 30
0.0
  0
POLYLINE
  5
1A1
330
1A
100
AcDbEntity
  8
GUIDE
100
AcDb2dPolyline
 66
     1
 10
0.0
 20
0.0
 30
0.0
 70
     1
  0
VERTEX
  5
243
330
1A1
100
AcDbEntity
  8
GUIDE
100
AcDbVertex
100
AcDb2dVertex
 10
158.793031
 20
-5.25
 30
0.0
  0
VERTEX
  5
244
330
1A1
100
AcDbEntity
  8
GUIDE
100
AcDbVertex
100
AcDb2dVertex
 10
158.793031
 20
-4.75
 30
0.0
  0
VERTEX
  5
245
330
1A1
100
AcDbEntity
  8
GUIDE
100
AcDbVertex
100
AcDb2dVertex
 10
163.793031
 20
-4.75
 30
0.0
  0
VERTEX
  5
246
330
1A1
100
AcDbEntity
  8
GUIDE
100
AcDbVertex
100
AcDb2dVertex
 10
163.793031
 20
-5.25
 30
0.0
  0
SEQEND
  5
242
330
1A1
100
AcDbEntity
  8
GUIDE
  0
LINE
  5
1A7
330
1A
100
AcDbEntity
  8
GUIDE
100
AcDbLine
 10
151.493031
 20
-74.5
 30
0.0
 11
165.093031
 21
-74.5
 31
0.0
  0
ARC
  5
1A8
330
1A
100
AcDbEntity
  8
GUIDE
100
AcDbCircle
 10
163.853416
 20
-71.466692
 30
0.0
 40
1.240062
100
AcDbArc
 50
358.460834
 51
78.858783
  0
LINE
  5
1A9
330
1A
100
AcDbEntity
  8
GUIDE
100
AcDbLine
 10
165.093031
 20
-71.5
 30
0.0
 11
165.093031
 21
-74.5
 31
0.0
  0
LINE
  5
1AA
330
1A
100
AcDbEntity
  8
GUIDE
100
AcDbLine
 10
165.093031
 20
-0.5
 30
0.0
 11
165.093031
 21
-3.75
 31
0.0
  0
ARC
  5
1AB
330
1A
100
AcDbEntity
  8
GUIDE
100
AcDbCircle
 10
164.093031
 20
-3.75
 30
0.0
 40
1.0
100
AcDbArc
 50
270.0
 51
0.0
  0
LINE
  5
1AC
330
1A
100
AcDbEntity
  8
GUIDE
100
AcDbLine
 10
164.093031
 20
-4.75
 30
0.0
 11
154.493031
 21
-4.75
 31
0.0
  0
ARC
  5
1AD
330
1A
100
AcDbEntity
  8
GUIDE
100
AcDbCircle
 10
154.493031
 20
-5.75
 30
0.0
 40
1.0
100
AcDbArc
 50
90.0
 51
180.0
  0
LINE
  5
1AE
330
1A
100
AcDbEntity
  8
GUIDE
100
AcDbLine
 10
153.493031
 20
-5.75
 30
0.0
 11
153.493031
 21
-69.25
 31
0.0
  0
ARC
  5
1AF
330
1A
100
AcDbEntity
  8
GUIDE
100
AcDbCircle
 10
154.493031
 20
-69.25
 30
0.0
 40
1.0
100
AcDbArc
 50
180.0
 51
270.0
  0
LINE
  5
1B0
330
1A
100
AcDbEntity
  8
GUIDE
100
AcDbLine
 10
154.493031
 20
-70.25
 30
0.0
 11
164.093031
 21
-70.25
 31
0.0
  0
LINE
  5
1B1
330
1A
100
AcDbEntity
  8
GUIDE
100
AcDbLine
 10
151.493031
 20
-74.5
 30
0.0
 11
137.893031
 21
-74.5
 31
0.0
  0
LINE
  5
1B2
330
1A
100
AcDbEntity
  8
GUIDE
100
AcDbLine
 10
149.493031
 20
-5.75
 30
0.0
 11
149.493031
 21
-69.25
 31
0.0
  0
LINE
  5
1B3
330
1A
100
AcDbEntity
  8
GUIDE
100
AcDbLine
 10
148.493031
 20
-70.25
 30
0.0
 11
138.893031
 21
-70.25
 31
0.0
  0
ARC
  5
1B4
330
1A
100
AcDbEntity
  8
GUIDE
100
AcDbCircle
 10
148.493031
 20
-69.25
 30
0.0
 40
1.0
100
AcDbArc
 50
270.0
 51
0.0
  0
LINE
  5
1B5
330
1A
100
AcDbEntity
  8
GUIDE
100
AcDbLine
 10
137.893031
 20
-71.5
 30
0.0
 11
137.893031
 21
-74.5
 31
0.0
  0
ARC
  5
1B6
330
1A
100
AcDbEntity
  8
GUIDE
100
AcDbCircle
 10
139.132645
 20
-71.466692
 30
0.0
 40
1.240062
100
AcDbArc
 50
101.141217
 51
181.539166
  0
LINE
  5
1B7
330
1A
100
AcDbEntity
  8
GUIDE
100
AcDbLine
 10
138.893031
 20
-4.75
 30
0.0
 11
148.493031
 21
-4.75
 31
0.0
  0
POLYLINE
  5
1B8
330
1A
100
AcDbEntity
  8
GUIDE
100
AcDb2dPolyline
 66
     1
 10
0.0
 20
0.0
 30
0.0
 70
     1
  0
VERTEX
  5
248
330
1B8
100
AcDbEntity
  8
GUIDE
100
AcDbVertex
100
AcDb2dVertex
 10
144.193031
 20
-5.25
 30
0.0
  0
VERTEX
  5
249
330
1B8
100
AcDbEntity
  8
GUIDE
100
AcDbVertex
100
AcDb2dVertex
 10
144.193031
 20
-4.75
 30
0.0
  0
VERTEX
  5
24A
330
1B8
100
AcDbEntity
  8
GUIDE
100
AcDbVertex
100
AcDb2dVertex
 10
139.193031
 20
-4.75
 30
0.0
  0
VERTEX
  5
24B
330
1B8
100
AcDbEntity
  8
GUIDE
100
AcDbVertex
100
AcDb2dVertex
 10
139.193031
 20
-5.25
 30
0.0
  0
SEQEND
  5
247
330
1B8
100
AcDbEntity
  8
GUIDE
  0
ARC
  5
1BE
330
1A
100
AcDbEntity
  8
GUIDE
100
AcDbCircle
 10
148.493031
 20
-5.75
 30
0.0
 40
1.0
100
AcDbArc
 50
0.0
 51
90.0
  0
LINE
  5
1BF
330
1A
100
AcDbEntity
  8
GUIDE
100
AcDbLine
 10
137.893031
 20
-0.5
 30
0.0
 11
137.893031
 21
-3.75
 31
0.0
  0
ARC
  5
1C0
330
1A
100
AcDbEntity
  8
GUIDE
100
AcDbCircle
 10
138.893031
 20
-3.75
 30
0.0
 40
1.0
100
AcDbArc
 50
180.0
 51
270.0
  0
LINE
  5
1C1
330
1A
100
AcDbEntity
  8
GUIDE
100
AcDbLine
 10
148.814823
 20
41.116828
 30
0.0
 11
145.814823
 21
41.116828
 31
0.0
  0
LINE
  5
1C2
330
1A
100
AcDbEntity
  8
GUIDE
100
AcDbLine
 10
145.814823
 20
41.116828
 30
0.0
 11
145.814823
 21
31.116828
 31
0.0
  0
ARC
  5
1C3
330
1A
100
AcDbEntity
  8
GUIDE
100
AcDbCircle
 10
147.403385
 20
36.116828
 30
0.0
 40
3.5
100
AcDbArc
 50
116.992564
 51
243.007436
  0
LINE
  5
1C4
330
1A
100
AcDbEntity
  8
GUIDE
100
AcDbLine
 10
157.814823
 20
41.116828
 30
0.0
 11
154.814823
 21
41.116828
 31
0.0
  0
LINE
  5
1C5
330
1A
100
AcDbEntity
  8
GUIDE
100
AcDbLine
 10
154.814823
 20
41.116828
 30
0.0
 11
154.814823
 21
31.116828
 31
0.0
  0
LINE
  5
1C6
330
1A
100
AcDbEntity
  8
GUIDE
100
AcDbLine
 10
148.814823
 20
41.116828
 30
0.0
 11
148.814823
 21
31.116828
 31
0.0
  0
LINE
  5
1C7
330
1A
100
AcDbEntity
  8
GUIDE
100
AcDbLine
 10
154.814823
 20
39.116828
 30
0.0
 11
148.814823
 21
39.116828
 31
0.0
  0
ARC
  5
1C8
330
1A
100
AcDbEntity
  8
GUIDE
100
AcDbCircle
 10
149.958896
 20
36.116828
 30
0.0
 40
9.095051
100
AcDbArc
 50
329.741229
 51
30.258771
  0
LINE
  5
1C9
330
1A
100
AcDbEntity
  8
GUIDE
100
AcDbLine
 10
157.814823
 20
41.116828
 30
0.0
 11
157.814823
 21
31.116828
 31
0.0
  0
LINE
  5
1CA
330
1A
100
AcDbEntity
  8
GUIDE
100
AcDbLine
 10
145.814823
 20
31.116828
 30
0.0
 11
145.814823
 21
-0.383172
 31
0.0
  0
LINE
  5
1CB
330
1A
100
AcDbEntity
  8
GUIDE
100
AcDbLine
 10
145.814823
 20
31.116828
 30
0.0
 11
139.214823
 21
-0.383172
 31
0.0
  0
LINE
  5
1CC
330
1A
100
AcDbEntity
  8
GUIDE
100
AcDbLine
 10
154.814823
 20
31.116828
 30
0.0
 11
154.814823
 21
-0.383172
 31
0.0
  0
LINE
  5
1CD
330
1A
100
AcDbEntity
  8
GUIDE
100
AcDbLine
 10
148.814823
 20
31.116828
 30
0.0
 11
148.814823
 21
-0.383172
 31
0.0
  0
LINE
  5
1CE
330
1A
100
AcDbEntity
  8
GUIDE
100
AcDbLine
 10
157.814823
 20
31.116828
 30
0.0
 11
157.814823
 21
-0.383172
 31
0.0
  0
LINE
  5
1CF
330
1A
100
AcDbEntity
  8
GUIDE
100
AcDbLine
 10
157.814823
 20
31.116828
 30
0.0
 11
164.414823
 21
-0.383172
 31
0.0
  0
INSERT
  5
1D0
330
1A
100
AcDbEntity
  8
GUIDE
100
AcDbBlockReference
  2
A$C3232
 10
173.880901
 20
-61.893749
 30
0.0
  0
INSERT
  5
1D1
330
1A
100
AcDbEntity
  8
GUIDE
100
AcDbBlockReference
  2
A$C3232
 10
154.280901
 20
-61.893749
 30
0.0
  0
LINE
  5
1D2
330
1A
100
AcDbEntity
  8
GUIDE
100
AcDbLine
 10
137.893031
 20
-0.5
 30
0.0
 11
165.093031
 21
-0.5
 31
0.0
  0
ENDSEC
  0
SECTION
  2
OBJECTS
  0
DICTIONARY
  5
C
330
0
100
AcDbDictionary
  3
ACAD_GROUP
350
D
  3
ACAD_LAYOUT
350
1D4
  3
ACAD_MLINESTYLE
350
E
1001
ACAD
1000
TREAT_AS_HARD
1070
     0
  0
DICTIONARY
  5
25E
330
1D3
100
AcDbDictionary
  3
ACAD_XREC_ROUNDTRIP
360
25F
  0
DICTIONARY
  5
D
102
{ACAD_REACTORS
330
C
102
}
330
C
100
AcDbDictionary
1001
ACAD
1000
TREAT_AS_HARD
1070
     0
  0
DICTIONARY
  5
1D4
102
{ACAD_REACTORS
330
C
102
}
330
C
100
AcDbDictionary
1001
ACAD
1000
TREAT_AS_HARD
1070
     0
  0
DICTIONARY
  5
E
102
{ACAD_REACTORS
330
C
102
}
330
C
100
AcDbDictionary
  3
STANDARD
350
13
1001
ACAD
1000
TREAT_AS_HARD
1070
     0
  0
XRECORD
  5
25F
102
{ACAD_REACTORS
330
25E
102
}
330
25E
100
AcDbXrecord
102
UCS
 74
     0
 71
     1
 10
0.0
 20
0.0
 30
0.0
 10
1.0
 20
0.0
 30
0.0
 10
0.0
 20
1.0
 30
0.0
146
0.0
 79
     0
102
VIEW
281
     0
  0
MLINESTYLE
  5
13
102
{ACAD_REACTORS
330
E
102
}
330
E
100
AcDbMlineStyle
  2
STANDARD
 70
     0
  3

 62
     0
 51
90.0
 52
90.0
 71
     2
 49
0.5
 62
   256
  6
BYLAYER
 49
-0.5
 62
   256
  6
BYLAYER
  0
ENDSEC
  0
EOF
