  0
SECTION
  2
HEADER
  9
$ACADVER
  1
AC1012
  9
$DWGCODEPAGE
  3
ansi_1252
  9
$INSBASE
 10
0.0
 20
0.0
 30
0.0
  9
$EXTMIN
 10
0.0
 20
-112.179678
 30
0.0
  9
$EXTMAX
 10
160.491434
 20
42.5
 30
0.0
  9
$LIMMIN
 10
0.0
 20
0.0
  9
$LIMMAX
 10
12.0
 20
9.0
  9
$ORTHOMODE
 70
     1
  9
$REGENMODE
 70
     1
  9
$FILLMODE
 70
     1
  9
$QTEXTMODE
 70
     0
  9
$MIRRTEXT
 70
     1
  9
$DRAGMODE
 70
     2
  9
$LTSCALE
 40
1.0
  9
$OSMODE
 70
    37
  9
$ATTMODE
 70
     1
  9
$TEXTSIZE
 40
0.2
  9
$TRACEWID
 40
0.05
  9
$TEXTSTYLE
  7
STANDARD
  9
$CLAYER
  8
0
  9
$CELTYPE
  6
BYLAYER
  9
$CECOLOR
 62
   256
  9
$CELTSCALE
 40
1.0
  9
$DELOBJ
 70
     1
  9
$DISPSILH
 70
     0
  9
$DIMSCALE
 40
1.0
  9
$DIMASZ
 40
0.18
  9
$DIMEXO
 40
0.0625
  9
$DIMDLI
 40
0.38
  9
$DIMRND
 40
0.0
  9
$DIMDLE
 40
0.0
  9
$DIMEXE
 40
0.18
  9
$DIMTP
 40
0.0
  9
$DIMTM
 40
0.0
  9
$DIMTXT
 40
0.18
  9
$DIMCEN
 40
0.09
  9
$DIMTSZ
 40
0.0
  9
$DIMTOL
 70
     0
  9
$DIMLIM
 70
     0
  9
$DIMTIH
 70
     1
  9
$DIMTOH
 70
     1
  9
$DIMSE1
 70
     0
  9
$DIMSE2
 70
     0
  9
$DIMTAD
 70
     0
  9
$DIMZIN
 70
     0
  9
$DIMBLK
  1

  9
$DIMASO
 70
     1
  9
$DIMSHO
 70
     1
  9
$DIMPOST
  1

  9
$DIMAPOST
  1

  9
$DIMALT
 70
     0
  9
$DIMALTD
 70
     2
  9
$DIMALTF
 40
25.4
  9
$DIMLFAC
 40
1.0
  9
$DIMTOFL
 70
     0
  9
$DIMTVP
 40
0.0
  9
$DIMTIX
 70
     0
  9
$DIMSOXD
 70
     0
  9
$DIMSAH
 70
     0
  9
$DIMBLK1
  1

  9
$DIMBLK2
  1

  9
$DIMSTYLE
  2
STANDARD
  9
$DIMCLRD
 70
     0
  9
$DIMCLRE
 70
     0
  9
$DIMCLRT
 70
     0
  9
$DIMTFAC
 40
1.0
  9
$DIMGAP
 40
0.09
  9
$DIMJUST
 70
     0
  9
$DIMSD1
 70
     0
  9
$DIMSD2
 70
     0
  9
$DIMTOLJ
 70
     1
  9
$DIMTZIN
 70
     0
  9
$DIMALTZ
 70
     0
  9
$DIMALTTZ
 70
     0
  9
$DIMFIT
 70
     3
  9
$DIMUPT
 70
     0
  9
$DIMUNIT
 70
     2
  9
$DIMDEC
 70
     4
  9
$DIMTDEC
 70
     4
  9
$DIMALTU
 70
     2
  9
$DIMALTTD
 70
     2
  9
$DIMTXSTY
  7
STANDARD
  9
$DIMAUNIT
 70
     0
  9
$LUNITS
 70
     2
  9
$LUPREC
 70
     4
  9
$SKETCHINC
 40
0.1
  9
$FILLETRAD
 40
0.0
  9
$AUNITS
 70
     0
  9
$AUPREC
 70
     0
  9
$MENU
  1
acad
  9
$ELEVATION
 40
0.0
  9
$PELEVATION
 40
0.0
  9
$THICKNESS
 40
0.0
  9
$LIMCHECK
 70
     0
  9
$CHAMFERA
 40
0.0
  9
$CHAMFERB
 40
0.0
  9
$CHAMFERC
 40
0.0
  9
$CHAMFERD
 40
0.0
  9
$SKPOLY
 70
     0
  9
$TDCREATE
 40
2447893.083333334
  9
$TDUPDATE
 40
2447893.083333334
  9
$TDINDWG
 40
0.0028689815
  9
$TDUSRTIMER
 40
0.0028689815
  9
$USRTIMER
 70
     1
  9
$ANGBASE
 50
0.0
  9
$ANGDIR
 70
     0
  9
$PDMODE
 70
     0
  9
$PDSIZE
 40
0.0
  9
$PLINEWID
 40
0.0
  9
$COORDS
 70
     1
  9
$SPLFRAME
 70
     0
  9
$SPLINETYPE
 70
     6
  9
$SPLINESEGS
 70
     8
  9
$ATTDIA
 70
     0
  9
$ATTREQ
 70
     1
  9
$HANDLING
 70
     1
  9
$HANDSEED
  5
2A6
  9
$SURFTAB1
 70
     6
  9
$SURFTAB2
 70
     6
  9
$SURFTYPE
 70
     6
  9
$SURFU
 70
     6
  9
$SURFV
 70
     6
  9
$UCSNAME
  2

  9
$UCSORG
 10
0.0
 20
0.0
 30
0.0
  9
$UCSXDIR
 10
1.0
 20
0.0
 30
0.0
  9
$UCSYDIR
 10
0.0
 20
1.0
 30
0.0
  9
$PUCSNAME
  2

  9
$PUCSORG
 10
0.0
 20
0.0
 30
0.0
  9
$PUCSXDIR
 10
1.0
 20
0.0
 30
0.0
  9
$PUCSYDIR
 10
0.0
 20
1.0
 30
0.0
  9
$USERI1
 70
     0
  9
$USERI2
 70
     0
  9
$USERI3
 70
     0
  9
$USERI4
 70
     0
  9
$USERI5
 70
     0
  9
$USERR1
 40
0.0
  9
$USERR2
 40
0.0
  9
$USERR3
 40
0.0
  9
$USERR4
 40
0.0
  9
$USERR5
 40
0.0
  9
$WORLDVIEW
 70
     1
  9
$SHADEDGE
 70
     3
  9
$SHADEDIF
 70
    70
  9
$TILEMODE
 70
     1
  9
$MAXACTVP
 70
    16
  9
$PINSBASE
 10
0.0
 20
0.0
 30
0.0
  9
$PLIMCHECK
 70
     0
  9
$PEXTMIN
 10
1.000000000000000E+20
 20
1.000000000000000E+20
 30
1.000000000000000E+20
  9
$PEXTMAX
 10
-1.000000000000000E+20
 20
-1.000000000000000E+20
 30
-1.000000000000000E+20
  9
$PLIMMIN
 10
0.0
 20
0.0
  9
$PLIMMAX
 10
12.0
 20
9.0
  9
$UNITMODE
 70
     0
  9
$VISRETAIN
 70
     0
  9
$PLINEGEN
 70
     0
  9
$PSLTSCALE
 70
     1
  9
$TREEDEPTH
 70
  3020
  9
$PICKSTYLE
 70
     1
  9
$CMLSTYLE
  2
STANDARD
  9
$CMLJUST
 70
     0
  9
$CMLSCALE
 40
1.0
  9
$SAVEIMAGES
 70
     1
  0
ENDSEC
  0
SECTION
  2
CLASSES
  0
CLASS
  1
XRECORD
  2
AcDbXrecord
  3
AutoCAD 2000
 90
    32768
280
     0
281
     0
  0
CLASS
  1
LWPOLYLINE
  2
AcDbPolyline
  3
AutoCAD 2000
 90
    32768
280
     0
281
     1
  0
CLASS
  1
HATCH
  2
AcDbHatch
  3
AutoCAD 2000
 90
    32768
280
     0
281
     1
  0
CLASS
  1
ACDBPLACEHOLDER
  2
AcDbPlaceHolder
  3
ObjectDBX Classes
 90
        0
280
     0
281
     0
  0
CLASS
  1
LAYOUT
  2
AcDbLayout
  3
ObjectDBX Classes
 90
        0
280
     0
281
     0
  0
ENDSEC
  0
SECTION
  2
TABLES
  0
TABLE
  2
VPORT
  5
8
330
0
100
AcDbSymbolTable
 70
     1
  0
VPORT
  5
1DF
102
{ACAD_XDICTIONARY
360
2A4
102
}
330
8
100
AcDbSymbolTableRecord
100
AcDbViewportTableRecord
  2
*ACTIVE
 70
     0
 10
0.0
 20
0.0
 11
1.0
 21
1.0
 12
147.721508
 22
-34.826153
 13
0.0
 23
0.0
 14
1.0
 24
1.0
 15
0.0
 25
0.0
 16
0.0
 26
0.0
 36
1.0
 17
0.0
 27
0.0
 37
0.0
 40
154.249796
 41
1.915354
 42
50.0
 43
0.0
 44
0.0
 50
0.0
 51
0.0
 71
     0
 72
   100
 73
     1
 74
     1
 75
     0
 76
     0
 77
     0
 78
     0
  0
ENDTAB
  0
TABLE
  2
LTYPE
  5
5
330
0
100
AcDbSymbolTable
 70
     2
  0
LTYPE
  5
14
330
5
100
AcDbSymbolTableRecord
100
AcDbLinetypeTableRecord
  2
BYBLOCK
 70
     0
  3

 72
    65
 73
     0
 40
0.0
  0
LTYPE
  5
15
330
5
100
AcDbSymbolTableRecord
100
AcDbLinetypeTableRecord
  2
BYLAYER
 70
     0
  3

 72
    65
 73
     0
 40
0.0
  0
LTYPE
  5
16
330
5
100
AcDbSymbolTableRecord
100
AcDbLinetypeTableRecord
  2
CONTINUOUS
 70
     0
  3
Solid line
 72
    65
 73
     0
 40
0.0
  0
LTYPE
  5
E6
330
5
100
AcDbSymbolTableRecord
100
AcDbLinetypeTableRecord
  2
DASHDOT
 70
     0
  3
__ . __ . __ . __ . __ . __ . __ . __ . __ . __
 72
    65
 73
     4
 40
1.0
 49
0.5
 74
     0
 49
-0.25
 74
     0
 49
0.0
 74
     0
 49
-0.25
 74
     0
  0
ENDTAB
  0
TABLE
  2
LAYER
  5
2
330
0
100
AcDbSymbolTable
 70
     3
  0
LAYER
  5
F
330
2
100
AcDbSymbolTableRecord
100
AcDbLayerTableRecord
  2
0
 70
     0
 62
     7
  6
CONTINUOUS
  0
LAYER
  5
41
330
2
100
AcDbSymbolTableRecord
100
AcDbLayerTableRecord
  2
GUIDE
 70
     0
 62
     7
  6
CONTINUOUS
  0
LAYER
  5
E7
330
2
100
AcDbSymbolTableRecord
100
AcDbLayerTableRecord
  2
AXIS
 70
     0
 62
     1
  6
DASHDOT
  0
ENDTAB
  0
TABLE
  2
STYLE
  5
3
330
0
100
AcDbSymbolTable
 70
     1
  0
STYLE
  5
10
330
3
100
AcDbSymbolTableRecord
100
AcDbTextStyleTableRecord
  2
STANDARD
 70
     0
 40
0.0
 41
1.0
 50
0.0
 71
     0
 42
0.2
  3
txt
  4

  0
ENDTAB
  0
TABLE
  2
VIEW
  5
6
330
0
100
AcDbSymbolTable
 70
     0
  0
ENDTAB
  0
TABLE
  2
UCS
  5
7
330
0
100
AcDbSymbolTable
 70
     0
  0
ENDTAB
  0
TABLE
  2
APPID
  5
9
330
0
100
AcDbSymbolTable
 70
     1
  0
APPID
  5
11
330
9
100
AcDbSymbolTableRecord
100
AcDbRegAppTableRecord
  2
ACAD
 70
     0
  0
ENDTAB
  0
TABLE
  2
DIMSTYLE
  5
A
330
0
100
AcDbSymbolTable
 70
     1
  0
DIMSTYLE
105
1D
330
A
100
AcDbSymbolTableRecord
100
AcDbDimStyleTableRecord
  2
STANDARD
 70
     0
  3

  4

  5

  6

  7

 40
1.0
 41
0.18
 42
0.0625
 43
0.38
 44
0.18
 45
0.0
 46
0.0
 47
0.0
 48
0.0
140
0.18
141
0.09
142
0.0
143
25.4
144
1.0
145
0.0
146
1.0
147
0.09
 71
     0
 72
     0
 73
     1
 74
     1
 75
     0
 76
     0
 77
     0
 78
     0
170
     0
171
     2
172
     0
173
     0
174
     0
175
     0
176
     0
177
     0
178
     0
270
     2
271
     4
272
     4
273
     2
274
     2
340
10
275
     0
280
     0
281
     0
282
     0
283
     1
284
     0
285
     0
286
     0
287
     3
288
     0
  0
ENDTAB
  0
TABLE
  2
BLOCK_RECORD
  5
1
330
0
100
AcDbSymbolTable
 70
     1
  0
BLOCK_RECORD
  5
1A
330
1
100
AcDbSymbolTableRecord
100
AcDbBlockTableRecord
  2
*MODEL_SPACE
  0
BLOCK_RECORD
  5
17
330
1
100
AcDbSymbolTableRecord
100
AcDbBlockTableRecord
  2
*PAPER_SPACE
  0
BLOCK_RECORD
  5
28
330
1
100
AcDbSymbolTableRecord
100
AcDbBlockTableRecord
  2
A$CD241
  0
ENDTAB
  0
ENDSEC
  0
SECTION
  2
BLOCKS
  0
BLOCK
  5
1B
330
1A
100
AcDbEntity
  8
0
100
AcDbBlockBegin
  2
*MODEL_SPACE
 70
     0
 71
     0
 10
0.0
 20
0.0
 30
0.0
  3
*MODEL_SPACE
  1

  0
ENDBLK
  5
1C
330
1A
100
AcDbEntity
  8
0
100
AcDbBlockEnd
  0
BLOCK
  5
18
330
17
100
AcDbEntity
 67
     1
  8
0
100
AcDbBlockBegin
  2
*PAPER_SPACE
 70
     0
 71
     0
 10
0.0
 20
0.0
 30
0.0
  3
*PAPER_SPACE
  1

  0
ENDBLK
  5
19
330
17
100
AcDbEntity
 67
     1
  8
0
100
AcDbBlockEnd
  0
BLOCK
  5
3F
330
28
100
AcDbEntity
  8
0
100
AcDbBlockBegin
  2
A$CD241
 70
     0
 71
     0
 10
0.0
 20
0.0
 30
0.0
  3
A$CD241
  1

  0
POLYLINE
  5
29
330
28
100
AcDbEntity
  8
0
100
AcDb2dPolyline
 66
     1
 10
0.0
 20
0.0
 30
0.0
 70
     1
  0
VERTEX
  5
292
330
29
100
AcDbEntity
  8
0
100
AcDbVertex
100
AcDb2dVertex
 10
16.368154
 20
1.746894
 30
0.0
  0
VERTEX
  5
293
330
29
100
AcDbEntity
  8
0
100
AcDbVertex
100
AcDb2dVertex
 10
16.368154
 20
32.246894
 30
0.0
 42
-0.414214
  0
VERTEX
  5
294
330
29
100
AcDbEntity
  8
0
100
AcDbVertex
100
AcDb2dVertex
 10
17.368154
 20
33.246894
 30
0.0
  0
VERTEX
  5
295
330
29
100
AcDbEntity
  8
0
100
AcDbVertex
100
AcDb2dVertex
 10
26.868154
 20
33.246894
 30
0.0
 42
-0.414214
  0
VERTEX
  5
296
330
29
100
AcDbEntity
  8
0
100
AcDbVertex
100
AcDb2dVertex
 10
27.868154
 20
32.246894
 30
0.0
  0
VERTEX
  5
297
330
29
100
AcDbEntity
  8
0
100
AcDbVertex
100
AcDb2dVertex
 10
27.868154
 20
1.746894
 30
0.0
 42
-0.414214
  0
VERTEX
  5
298
330
29
100
AcDbEntity
  8
0
100
AcDbVertex
100
AcDb2dVertex
 10
26.868154
 20
0.746894
 30
0.0
  0
VERTEX
  5
299
330
29
100
AcDbEntity
  8
0
100
AcDbVertex
100
AcDb2dVertex
 10
17.368154
 20
0.746894
 30
0.0
 42
-0.414214
  0
SEQEND
  5
291
330
29
100
AcDbEntity
  8
0
  0
POLYLINE
  5
33
330
28
100
AcDbEntity
  8
0
100
AcDb2dPolyline
 66
     1
 10
0.0
 20
0.0
 30
0.0
 70
     1
  0
VERTEX
  5
29B
330
33
100
AcDbEntity
  8
0
100
AcDbVertex
100
AcDb2dVertex
 10
19.618154
 20
33.246894
 30
0.0
  0
VERTEX
  5
29C
330
33
100
AcDbEntity
  8
0
100
AcDbVertex
100
AcDb2dVertex
 10
19.618154
 20
33.896894
 30
0.0
  0
VERTEX
  5
29D
330
33
100
AcDbEntity
  8
0
100
AcDbVertex
100
AcDb2dVertex
 10
24.618154
 20
33.896894
 30
0.0
  0
VERTEX
  5
29E
330
33
100
AcDbEntity
  8
0
100
AcDbVertex
100
AcDb2dVertex
 10
24.618154
 20
33.246894
 30
0.0
  0
SEQEND
  5
29A
330
33
100
AcDbEntity
  8
0
  0
POLYLINE
  5
39
330
28
100
AcDbEntity
  8
0
100
AcDb2dPolyline
 66
     1
 10
0.0
 20
0.0
 30
0.0
 70
     1
  0
VERTEX
  5
2A0
330
39
100
AcDbEntity
  8
0
100
AcDbVertex
100
AcDb2dVertex
 10
19.618154
 20
0.096894
 30
0.0
  0
VERTEX
  5
2A1
330
39
100
AcDbEntity
  8
0
100
AcDbVertex
100
AcDb2dVertex
 10
19.618154
 20
0.746894
 30
0.0
  0
VERTEX
  5
2A2
330
39
100
AcDbEntity
  8
0
100
AcDbVertex
100
AcDb2dVertex
 10
24.618154
 20
0.746894
 30
0.0
  0
VERTEX
  5
2A3
330
39
100
AcDbEntity
  8
0
100
AcDbVertex
100
AcDb2dVertex
 10
24.618154
 20
0.096894
 30
0.0
  0
SEQEND
  5
29F
330
39
100
AcDbEntity
  8
0
  0
ENDBLK
  5
40
330
28
100
AcDbEntity
  8
0
100
AcDbBlockEnd
  0
ENDSEC
  0
SECTION
  2
ENTITIES
  0
LINE
  5
11B
330
1A
100
AcDbEntity
  8
GUIDE
100
AcDbLine
 10
0.05
 20
-95.129678
 30
0.0
 11
0.05
 21
-98.129678
 31
0.0
  0
LINE
  5
11C
330
1A
100
AcDbEntity
  8
GUIDE
100
AcDbLine
 10
99.65000000000001
 20
-83.029678
 30
0.0
 11
99.65000000000001
 21
-110.229678
 31
0.0
  0
LINE
  5
11D
330
1A
100
AcDbEntity
  8
GUIDE
100
AcDbLine
 10
102.65
 20
-95.129678
 30
0.0
 11
102.65
 21
-98.129678
 31
0.0
  0
LINE
  5
11E
330
1A
100
AcDbEntity
  8
GUIDE
100
AcDbLine
 10
26.510053
 20
-90.629678
 30
0.0
 11
26.510053
 21
-93.629678
 31
0.0
  0
LINE
  5
11F
330
1A
100
AcDbEntity
  8
GUIDE
100
AcDbLine
 10
73.189947
 20
-90.629678
 30
0.0
 11
73.189947
 21
-93.629678
 31
0.0
  0
LINE
  5
120
330
1A
100
AcDbEntity
  8
GUIDE
100
AcDbLine
 10
3.15
 20
-110.229678
 30
0.0
 11
99.65000000000001
 21
-110.229678
 31
0.0
  0
LINE
  5
121
330
1A
100
AcDbEntity
  8
GUIDE
100
AcDbLine
 10
3.15
 20
-83.029678
 30
0.0
 11
99.65000000000001
 21
-83.029678
 31
0.0
  0
LINE
  5
122
330
1A
100
AcDbEntity
  8
GUIDE
100
AcDbLine
 10
26.510053
 20
-90.629678
 30
0.0
 11
73.189947
 21
-90.629678
 31
0.0
  0
LINE
  5
123
330
1A
100
AcDbEntity
  8
GUIDE
100
AcDbLine
 10
26.510053
 20
-102.629678
 30
0.0
 11
73.189947
 21
-102.629678
 31
0.0
  0
LINE
  5
124
330
1A
100
AcDbEntity
  8
GUIDE
100
AcDbLine
 10
26.510053
 20
-93.629678
 30
0.0
 11
73.189947
 21
-93.629678
 31
0.0
  0
LINE
  5
125
330
1A
100
AcDbEntity
  8
GUIDE
100
AcDbLine
 10
26.510053
 20
-99.629678
 30
0.0
 11
73.189947
 21
-99.629678
 31
0.0
  0
LINE
  5
126
330
1A
100
AcDbEntity
  8
GUIDE
100
AcDbLine
 10
26.510053
 20
-99.629678
 30
0.0
 11
26.510053
 21
-102.629678
 31
0.0
  0
LINE
  5
127
330
1A
100
AcDbEntity
  8
GUIDE
100
AcDbLine
 10
73.189947
 20
-99.629678
 30
0.0
 11
73.189947
 21
-102.629678
 31
0.0
  0
LINE
  5
128
330
1A
100
AcDbEntity
  8
GUIDE
100
AcDbLine
 10
46.35
 20
-93.629678
 30
0.0
 11
46.35
 21
-99.629678
 31
0.0
  0
LINE
  5
129
330
1A
100
AcDbEntity
  8
GUIDE
100
AcDbLine
 10
53.35
 20
-93.629678
 30
0.0
 11
53.35
 21
-99.629678
 31
0.0
  0
LINE
  5
12A
330
1A
100
AcDbEntity
  8
GUIDE
100
AcDbLine
 10
99.65000000000001
 20
-98.129678
 30
0.0
 11
102.65
 21
-98.129678
 31
0.0
  0
LINE
  5
12B
330
1A
100
AcDbEntity
  8
GUIDE
100
AcDbLine
 10
99.65000000000001
 20
-95.129678
 30
0.0
 11
102.65
 21
-95.129678
 31
0.0
  0
LINE
  5
12C
330
1A
100
AcDbEntity
  8
GUIDE
100
AcDbLine
 10
3.15
 20
-83.029678
 30
0.0
 11
3.15
 21
-95.129678
 31
0.0
  0
LINE
  5
12D
330
1A
100
AcDbEntity
  8
GUIDE
100
AcDbLine
 10
0.05
 20
-95.129678
 30
0.0
 11
3.15
 21
-95.129678
 31
0.0
  0
LINE
  5
12E
330
1A
100
AcDbEntity
  8
GUIDE
100
AcDbLine
 10
0.05
 20
-98.129678
 30
0.0
 11
3.15
 21
-98.129678
 31
0.0
  0
LINE
  5
12F
330
1A
100
AcDbEntity
  8
GUIDE
100
AcDbLine
 10
3.15
 20
-98.129678
 30
0.0
 11
3.15
 21
-110.229678
 31
0.0
  0
LINE
  5
130
330
1A
100
AcDbEntity
  8
GUIDE
100
AcDbLine
 10
44.85
 20
-90.629678
 30
0.0
 11
54.85
 21
-90.629678
 31
0.0
  0
ARC
  5
131
330
1A
100
AcDbEntity
  8
GUIDE
100
AcDbCircle
 10
49.85
 20
-101.041116
 30
0.0
 40
3.5
100
AcDbArc
 50
206.992564
 51
333.007436
  0
ARC
  5
132
330
1A
100
AcDbEntity
  8
GUIDE
100
AcDbCircle
 10
49.85
 20
-98.485604
 30
0.0
 40
9.095051
100
AcDbArc
 50
59.741229
 51
120.258771
  0
LINE
  5
133
330
1A
100
AcDbEntity
  8
AXIS
 48
0.5
100
AcDbLine
 10
49.85
 20
-90.629678
 30
0.0
 11
49.85
 21
-102.629678
 31
0.0
  0
ARC
  5
134
330
1A
100
AcDbEntity
  8
GUIDE
100
AcDbCircle
 10
8.15
 20
-86.829678
 30
0.0
 40
5.75
100
AcDbArc
 50
150.408154
 51
209.591846
  0
ARC
  5
135
330
1A
100
AcDbEntity
  8
GUIDE
100
AcDbCircle
 10
8.15
 20
-86.829678
 30
0.0
 40
5.75
100
AcDbArc
 50
41.366225
 51
138.633775
  0
ARC
  5
136
330
1A
100
AcDbEntity
  8
GUIDE
100
AcDbCircle
 10
20.25
 20
-86.829678
 30
0.0
 40
5.75
100
AcDbArc
 50
41.366225
 51
138.633775
  0
ARC
  5
137
330
1A
100
AcDbEntity
  8
GUIDE
100
AcDbCircle
 10
32.35
 20
-86.829678
 30
0.0
 40
5.75
100
AcDbArc
 50
41.366225
 51
138.633775
  0
ARC
  5
138
330
1A
100
AcDbEntity
  8
GUIDE
100
AcDbCircle
 10
44.45
 20
-86.829678
 30
0.0
 40
5.75
100
AcDbArc
 50
41.366225
 51
138.633775
  0
ARC
  5
139
330
1A
100
AcDbEntity
  8
GUIDE
100
AcDbCircle
 10
56.55
 20
-86.829678
 30
0.0
 40
5.75
100
AcDbArc
 50
41.366225
 51
138.633775
  0
ARC
  5
13A
330
1A
100
AcDbEntity
  8
GUIDE
100
AcDbCircle
 10
68.65000000000001
 20
-86.829678
 30
0.0
 40
5.75
100
AcDbArc
 50
41.366225
 51
138.633775
  0
ARC
  5
13B
330
1A
100
AcDbEntity
  8
GUIDE
100
AcDbCircle
 10
80.75
 20
-86.829678
 30
0.0
 40
5.75
100
AcDbArc
 50
41.366225
 51
138.633775
  0
ARC
  5
13C
330
1A
100
AcDbEntity
  8
GUIDE
100
AcDbCircle
 10
92.84999999999999
 20
-86.829678
 30
0.0
 40
5.75
100
AcDbArc
 50
41.366225
 51
138.633775
  0
ARC
  5
13D
330
1A
100
AcDbEntity
  8
GUIDE
100
AcDbCircle
 10
56.55
 20
-106.429678
 30
0.0
 40
5.75
100
AcDbArc
 50
221.366225
 51
318.633775
  0
ARC
  5
13E
330
1A
100
AcDbEntity
  8
GUIDE
100
AcDbCircle
 10
8.15
 20
-106.429678
 30
0.0
 40
5.75
100
AcDbArc
 50
221.366225
 51
318.633775
  0
ARC
  5
13F
330
1A
100
AcDbEntity
  8
GUIDE
100
AcDbCircle
 10
32.35
 20
-106.429678
 30
0.0
 40
5.75
100
AcDbArc
 50
221.366225
 51
318.633775
  0
ARC
  5
140
330
1A
100
AcDbEntity
  8
GUIDE
100
AcDbCircle
 10
20.25
 20
-106.429678
 30
0.0
 40
5.75
100
AcDbArc
 50
221.366225
 51
318.633775
  0
ARC
  5
141
330
1A
100
AcDbEntity
  8
GUIDE
100
AcDbCircle
 10
44.45
 20
-106.429678
 30
0.0
 40
5.75
100
AcDbArc
 50
221.366225
 51
318.633775
  0
ARC
  5
142
330
1A
100
AcDbEntity
  8
GUIDE
100
AcDbCircle
 10
80.75
 20
-106.429678
 30
0.0
 40
5.75
100
AcDbArc
 50
221.366225
 51
318.633775
  0
ARC
  5
143
330
1A
100
AcDbEntity
  8
GUIDE
100
AcDbCircle
 10
68.65000000000001
 20
-106.429678
 30
0.0
 40
5.75
100
AcDbArc
 50
221.366225
 51
318.633775
  0
ARC
  5
144
330
1A
100
AcDbEntity
  8
GUIDE
100
AcDbCircle
 10
92.84999999999999
 20
-106.429678
 30
0.0
 40
5.75
100
AcDbArc
 50
221.366225
 51
318.633775
  0
ARC
  5
145
330
1A
100
AcDbEntity
  8
GUIDE
100
AcDbCircle
 10
8.15
 20
-106.429678
 30
0.0
 40
5.75
100
AcDbArc
 50
150.408154
 51
209.591846
  0
LINE
  5
146
330
1A
100
AcDbEntity
  8
GUIDE
100
AcDbLine
 10
3.2
 20
-4.25
 30
0.0
 11
99.7
 21
-4.25
 31
0.0
  0
LINE
  5
147
330
1A
100
AcDbEntity
  8
GUIDE
100
AcDbLine
 10
3.2
 20
-38.05
 30
0.0
 11
99.7
 21
-38.05
 31
0.0
  0
LINE
  5
148
330
1A
100
AcDbEntity
  8
GUIDE
100
AcDbLine
 10
0.0
 20
0.0
 30
0.0
 11
99.7
 21
0.0
 31
0.0
  0
LINE
  5
149
330
1A
100
AcDbEntity
  8
GUIDE
100
AcDbLine
 10
0.0
 20
-42.3
 30
0.0
 11
99.7
 21
-42.3
 31
0.0
  0
LINE
  5
14A
330
1A
100
AcDbEntity
  8
GUIDE
100
AcDbLine
 10
99.7
 20
0.0
 30
0.0
 11
99.7
 21
-4.25
 31
0.0
  0
LINE
  5
14B
330
1A
100
AcDbEntity
  8
GUIDE
100
AcDbLine
 10
0.0
 20
-42.3
 30
0.0
 11
0.0
 21
0.0
 31
0.0
  0
LINE
  5
14C
330
1A
100
AcDbEntity
  8
GUIDE
100
AcDbLine
 10
99.7
 20
-38.05
 30
0.0
 11
99.7
 21
-42.3
 31
0.0
  0
LINE
  5
14D
330
1A
100
AcDbEntity
  8
GUIDE
100
AcDbLine
 10
9.1
 20
-4.25
 30
0.0
 11
9.1
 21
0.0
 31
0.0
  0
LINE
  5
14E
330
1A
100
AcDbEntity
  8
GUIDE
100
AcDbLine
 10
7.1
 20
-4.25
 30
0.0
 11
7.1
 21
0.0
 31
0.0
  0
LINE
  5
14F
330
1A
100
AcDbEntity
  8
GUIDE
100
AcDbLine
 10
19.2
 20
-4.25
 30
0.0
 11
19.2
 21
0.0
 31
0.0
  0
LINE
  5
150
330
1A
100
AcDbEntity
  8
GUIDE
100
AcDbLine
 10
21.2
 20
-4.25
 30
0.0
 11
21.2
 21
0.0
 31
0.0
  0
LINE
  5
151
330
1A
100
AcDbEntity
  8
GUIDE
100
AcDbLine
 10
31.2
 20
-4.25
 30
0.0
 11
31.2
 21
0.0
 31
0.0
  0
LINE
  5
152
330
1A
100
AcDbEntity
  8
GUIDE
100
AcDbLine
 10
33.2
 20
-4.25
 30
0.0
 11
33.2
 21
0.0
 31
0.0
  0
LINE
  5
153
330
1A
100
AcDbEntity
  8
GUIDE
100
AcDbLine
 10
43.3
 20
-4.25
 30
0.0
 11
43.3
 21
0.0
 31
0.0
  0
LINE
  5
154
330
1A
100
AcDbEntity
  8
GUIDE
100
AcDbLine
 10
45.3
 20
-4.25
 30
0.0
 11
45.3
 21
0.0
 31
0.0
  0
LINE
  5
155
330
1A
100
AcDbEntity
  8
GUIDE
100
AcDbLine
 10
55.4
 20
-4.25
 30
0.0
 11
55.4
 21
0.0
 31
0.0
  0
LINE
  5
156
330
1A
100
AcDbEntity
  8
GUIDE
100
AcDbLine
 10
57.4
 20
-4.25
 30
0.0
 11
57.4
 21
0.0
 31
0.0
  0
LINE
  5
157
330
1A
100
AcDbEntity
  8
GUIDE
100
AcDbLine
 10
67.5
 20
-4.25
 30
0.0
 11
67.5
 21
0.0
 31
0.0
  0
LINE
  5
158
330
1A
100
AcDbEntity
  8
GUIDE
100
AcDbLine
 10
69.5
 20
-4.25
 30
0.0
 11
69.5
 21
0.0
 31
0.0
  0
LINE
  5
159
330
1A
100
AcDbEntity
  8
GUIDE
100
AcDbLine
 10
67.5
 20
-42.3
 30
0.0
 11
67.5
 21
-38.05
 31
0.0
  0
LINE
  5
15A
330
1A
100
AcDbEntity
  8
GUIDE
100
AcDbLine
 10
69.5
 20
-42.3
 30
0.0
 11
69.5
 21
-38.05
 31
0.0
  0
LINE
  5
15B
330
1A
100
AcDbEntity
  8
GUIDE
100
AcDbLine
 10
55.4
 20
-38.05
 30
0.0
 11
55.4
 21
-42.3
 31
0.0
  0
LINE
  5
15C
330
1A
100
AcDbEntity
  8
GUIDE
100
AcDbLine
 10
57.4
 20
-38.05
 30
0.0
 11
57.4
 21
-42.3
 31
0.0
  0
LINE
  5
15D
330
1A
100
AcDbEntity
  8
GUIDE
100
AcDbLine
 10
45.3
 20
-38.05
 30
0.0
 11
45.3
 21
-42.3
 31
0.0
  0
LINE
  5
15E
330
1A
100
AcDbEntity
  8
GUIDE
100
AcDbLine
 10
43.3
 20
-38.05
 30
0.0
 11
43.3
 21
-42.3
 31
0.0
  0
LINE
  5
15F
330
1A
100
AcDbEntity
  8
GUIDE
100
AcDbLine
 10
31.2
 20
-42.3
 30
0.0
 11
31.2
 21
-38.05
 31
0.0
  0
LINE
  5
160
330
1A
100
AcDbEntity
  8
GUIDE
100
AcDbLine
 10
33.2
 20
-42.3
 30
0.0
 11
33.2
 21
-38.05
 31
0.0
  0
LINE
  5
161
330
1A
100
AcDbEntity
  8
GUIDE
100
AcDbLine
 10
21.2
 20
-38.05
 30
0.0
 11
21.2
 21
-42.3
 31
0.0
  0
LINE
  5
162
330
1A
100
AcDbEntity
  8
GUIDE
100
AcDbLine
 10
19.2
 20
-38.05
 30
0.0
 11
19.2
 21
-42.3
 31
0.0
  0
LINE
  5
163
330
1A
100
AcDbEntity
  8
GUIDE
100
AcDbLine
 10
9.1
 20
-38.05
 30
0.0
 11
9.1
 21
-42.3
 31
0.0
  0
LINE
  5
164
330
1A
100
AcDbEntity
  8
GUIDE
100
AcDbLine
 10
7.1
 20
-38.05
 30
0.0
 11
7.1
 21
-42.3
 31
0.0
  0
LINE
  5
165
330
1A
100
AcDbEntity
  8
GUIDE
100
AcDbLine
 10
3.2
 20
-4.25
 30
0.0
 11
3.2
 21
0.0
 31
0.0
  0
LINE
  5
166
330
1A
100
AcDbEntity
  8
GUIDE
100
AcDbLine
 10
3.2
 20
-38.05
 30
0.0
 11
3.2
 21
-42.3
 31
0.0
  0
LINE
  5
167
330
1A
100
AcDbEntity
  8
GUIDE
100
AcDbLine
 10
99.2
 20
-4.75
 30
0.0
 11
102.7
 21
-4.75
 31
0.0
  0
LINE
  5
168
330
1A
100
AcDbEntity
  8
GUIDE
100
AcDbLine
 10
102.7
 20
-4.75
 30
0.0
 11
102.7
 21
-37.55
 31
0.0
  0
ARC
  5
169
330
1A
100
AcDbEntity
  8
GUIDE
100
AcDbCircle
 10
99.09764800000001
 20
-4.119948
 30
0.0
 40
0.638312
100
AcDbArc
 50
191.755997
 51
279.227079
  0
LINE
  5
16A
330
1A
100
AcDbEntity
  8
GUIDE
100
AcDbLine
 10
99.2
 20
-37.55
 30
0.0
 11
102.7
 21
-37.55
 31
0.0
  0
ARC
  5
16B
330
1A
100
AcDbEntity
  8
GUIDE
100
AcDbCircle
 10
99.09764800000001
 20
-38.180052
 30
0.0
 40
0.638312
100
AcDbArc
 50
80.772921
 51
168.244003
  0
LINE
  5
16C
330
1A
100
AcDbEntity
  8
GUIDE
100
AcDbLine
 10
81.59999999999999
 20
-4.25
 30
0.0
 11
81.59999999999999
 21
0.0
 31
0.0
  0
LINE
  5
16D
330
1A
100
AcDbEntity
  8
GUIDE
100
AcDbLine
 10
79.59999999999999
 20
-4.25
 30
0.0
 11
79.59999999999999
 21
0.0
 31
0.0
  0
LINE
  5
16E
330
1A
100
AcDbEntity
  8
GUIDE
100
AcDbLine
 10
93.7
 20
-4.25
 30
0.0
 11
93.7
 21
0.0
 31
0.0
  0
LINE
  5
16F
330
1A
100
AcDbEntity
  8
GUIDE
100
AcDbLine
 10
91.7
 20
-4.25
 30
0.0
 11
91.7
 21
0.0
 31
0.0
  0
LINE
  5
170
330
1A
100
AcDbEntity
  8
GUIDE
100
AcDbLine
 10
81.59999999999999
 20
-38.05
 30
0.0
 11
81.59999999999999
 21
-42.3
 31
0.0
  0
LINE
  5
171
330
1A
100
AcDbEntity
  8
GUIDE
100
AcDbLine
 10
79.59999999999999
 20
-38.05
 30
0.0
 11
79.59999999999999
 21
-42.3
 31
0.0
  0
LINE
  5
172
330
1A
100
AcDbEntity
  8
GUIDE
100
AcDbLine
 10
93.7
 20
-42.3
 30
0.0
 11
93.7
 21
-38.05
 31
0.0
  0
LINE
  5
173
330
1A
100
AcDbEntity
  8
GUIDE
100
AcDbLine
 10
91.7
 20
-42.3
 30
0.0
 11
91.7
 21
-38.05
 31
0.0
  0
CIRCLE
  5
174
330
1A
100
AcDbEntity
  8
GUIDE
100
AcDbCircle
 10
49.9
 20
36.5
 30
0.0
 40
3.5
  0
LINE
  5
175
330
1A
100
AcDbEntity
  8
GUIDE
100
AcDbLine
 10
29.296549
 20
1.770532
 30
0.0
 11
44.120765
 21
38.11259
 31
0.0
  0
ARC
  5
176
330
1A
100
AcDbEntity
  8
GUIDE
100
AcDbCircle
 10
26.560053
 20
3.0
 30
0.0
 40
3.0
100
AcDbArc
 50
270.0
 51
335.806301
  0
ARC
  5
177
330
1A
100
AcDbEntity
  8
GUIDE
100
AcDbCircle
 10
73.239947
 20
3.0
 30
0.0
 40
3.0
100
AcDbArc
 50
204.193699
 51
270.0
  0
ARC
  5
178
330
1A
100
AcDbEntity
  8
GUIDE
100
AcDbCircle
 10
49.9
 20
36.5
 30
0.0
 40
6.0
100
AcDbArc
 50
15.590788
 51
164.409212
  0
LINE
  5
179
330
1A
100
AcDbEntity
  8
GUIDE
100
AcDbLine
 10
70.503451
 20
1.770532
 30
0.0
 11
55.679235
 21
38.11259
 31
0.0
  0
LINE
  5
17A
330
1A
100
AcDbEntity
  8
GUIDE
100
AcDbLine
 10
46.435898
 20
37.0
 30
0.0
 11
53.364102
 21
37.0
 31
0.0
  0
LINE
  5
17B
330
1A
100
AcDbEntity
  8
GUIDE
100
AcDbLine
 10
46.435898
 20
36.0
 30
0.0
 11
53.4
 21
36.0
 31
0.0
  0
INSERT
  5
17C
330
1A
100
AcDbEntity
  8
GUIDE
100
AcDbBlockReference
  2
A$CD241
 10
-14.018154
 20
-38.146894
 30
0.0
  0
INSERT
  5
17D
330
1A
100
AcDbEntity
  8
GUIDE
100
AcDbBlockReference
  2
A$CD241
 10
-1.918154
 20
-38.146894
 30
0.0
  0
INSERT
  5
17E
330
1A
100
AcDbEntity
  8
GUIDE
100
AcDbBlockReference
  2
A$CD241
 10
10.181846
 20
-38.146894
 30
0.0
  0
INSERT
  5
17F
330
1A
100
AcDbEntity
  8
GUIDE
100
AcDbBlockReference
  2
A$CD241
 10
22.281846
 20
-38.146894
 30
0.0
  0
INSERT
  5
180
330
1A
100
AcDbEntity
  8
GUIDE
100
AcDbBlockReference
  2
A$CD241
 10
34.381846
 20
-38.146894
 30
0.0
  0
INSERT
  5
181
330
1A
100
AcDbEntity
  8
GUIDE
100
AcDbBlockReference
  2
A$CD241
 10
46.481846
 20
-38.146894
 30
0.0
  0
INSERT
  5
182
330
1A
100
AcDbEntity
  8
GUIDE
100
AcDbBlockReference
  2
A$CD241
 10
58.581846
 20
-38.146894
 30
0.0
  0
INSERT
  5
183
330
1A
100
AcDbEntity
  8
GUIDE
100
AcDbBlockReference
  2
A$CD241
 10
70.68184599999999
 20
-38.146894
 30
0.0
  0
LINE
  5
184
330
1A
100
AcDbEntity
  8
GUIDE
100
AcDbLine
 10
146.234327
 20
-7.0
 30
0.0
 11
146.234327
 21
-35.3
 31
0.0
  0
ARC
  5
185
330
1A
100
AcDbEntity
  8
GUIDE
100
AcDbCircle
 10
148.5654
 20
-6.487403
 30
0.0
 40
2.386766
100
AcDbArc
 50
110.377265
 51
192.401815
  0
ARC
  5
186
330
1A
100
AcDbEntity
  8
GUIDE
100
AcDbCircle
 10
148.5654
 20
-35.812597
 30
0.0
 40
2.386766
100
AcDbArc
 50
167.598185
 51
249.622735
  0
POLYLINE
  5
187
330
1A
100
AcDbEntity
  8
GUIDE
100
AcDb2dPolyline
 66
     1
 10
0.0
 20
0.0
 30
0.0
  0
VERTEX
  5
258
330
187
100
AcDbEntity
  8
GUIDE
100
AcDbVertex
100
AcDb2dVertex
 10
158.334327
 20
0.0
 30
0.0
  0
VERTEX
  5
259
330
187
100
AcDbEntity
  8
GUIDE
100
AcDbVertex
100
AcDb2dVertex
 10
158.334327
 20
-3.25
 30
0.0
 42
-0.414214
  0
VERTEX
  5
25A
330
187
100
AcDbEntity
  8
GUIDE
100
AcDbVertex
100
AcDb2dVertex
 10
157.334327
 20
-4.25
 30
0.0
  0
VERTEX
  5
25B
330
187
100
AcDbEntity
  8
GUIDE
100
AcDbVertex
100
AcDb2dVertex
 10
147.734327
 20
-4.25
 30
0.0
  0
SEQEND
  5
257
330
187
100
AcDbEntity
  8
GUIDE
  0
POLYLINE
  5
18D
330
1A
100
AcDbEntity
  8
GUIDE
100
AcDb2dPolyline
 66
     1
 10
0.0
 20
0.0
 30
0.0
  0
VERTEX
  5
25D
330
18D
100
AcDbEntity
  8
GUIDE
100
AcDbVertex
100
AcDb2dVertex
 10
147.734327
 20
-38.05
 30
0.0
  0
VERTEX
  5
25E
330
18D
100
AcDbEntity
  8
GUIDE
100
AcDbVertex
100
AcDb2dVertex
 10
157.334327
 20
-38.05
 30
0.0
 42
-0.365938
  0
VERTEX
  5
25F
330
18D
100
AcDbEntity
  8
GUIDE
100
AcDbVertex
100
AcDb2dVertex
 10
158.334327
 20
-39.3
 30
0.0
  0
VERTEX
  5
260
330
18D
100
AcDbEntity
  8
GUIDE
100
AcDbVertex
100
AcDb2dVertex
 10
158.334327
 20
-42.3
 30
0.0
  0
SEQEND
  5
25C
330
18D
100
AcDbEntity
  8
GUIDE
  0
LINE
  5
193
330
1A
100
AcDbEntity
  8
GUIDE
100
AcDbLine
 10
158.334327
 20
0.0
 30
0.0
 11
131.134327
 21
0.0
 31
0.0
  0
LINE
  5
194
330
1A
100
AcDbEntity
  8
GUIDE
100
AcDbLine
 10
131.134327
 20
-42.3
 30
0.0
 11
158.334327
 21
-42.3
 31
0.0
  0
LINE
  5
195
330
1A
100
AcDbEntity
  8
GUIDE
100
AcDbLine
 10
143.234327
 20
-7.0
 30
0.0
 11
143.234327
 21
-35.3
 31
0.0
  0
POLYLINE
  5
196
330
1A
100
AcDbEntity
  8
GUIDE
100
AcDb2dPolyline
 66
     1
 10
0.0
 20
0.0
 30
0.0
  0
VERTEX
  5
262
330
196
100
AcDbEntity
  8
GUIDE
100
AcDbVertex
100
AcDb2dVertex
 10
141.734327
 20
-38.05
 30
0.0
  0
VERTEX
  5
263
330
196
100
AcDbEntity
  8
GUIDE
100
AcDbVertex
100
AcDb2dVertex
 10
132.134327
 20
-38.05
 30
0.0
 42
0.365938
  0
VERTEX
  5
264
330
196
100
AcDbEntity
  8
GUIDE
100
AcDbVertex
100
AcDb2dVertex
 10
131.134327
 20
-39.3
 30
0.0
  0
VERTEX
  5
265
330
196
100
AcDbEntity
  8
GUIDE
100
AcDbVertex
100
AcDb2dVertex
 10
131.134327
 20
-42.3
 30
0.0
  0
SEQEND
  5
261
330
196
100
AcDbEntity
  8
GUIDE
  0
ARC
  5
19C
330
1A
100
AcDbEntity
  8
GUIDE
100
AcDbCircle
 10
140.903255
 20
-35.812597
 30
0.0
 40
2.386766
100
AcDbArc
 50
290.377265
 51
12.401815
  0
POLYLINE
  5
19D
330
1A
100
AcDbEntity
  8
GUIDE
100
AcDb2dPolyline
 66
     1
 10
0.0
 20
0.0
 30
0.0
  0
VERTEX
  5
267
330
19D
100
AcDbEntity
  8
GUIDE
100
AcDbVertex
100
AcDb2dVertex
 10
131.134327
 20
0.0
 30
0.0
  0
VERTEX
  5
268
330
19D
100
AcDbEntity
  8
GUIDE
100
AcDbVertex
100
AcDb2dVertex
 10
131.134327
 20
-3.25
 30
0.0
 42
0.414214
  0
VERTEX
  5
269
330
19D
100
AcDbEntity
  8
GUIDE
100
AcDbVertex
100
AcDb2dVertex
 10
132.134327
 20
-4.25
 30
0.0
  0
VERTEX
  5
26A
330
19D
100
AcDbEntity
  8
GUIDE
100
AcDbVertex
100
AcDb2dVertex
 10
141.734327
 20
-4.25
 30
0.0
  0
SEQEND
  5
266
330
19D
100
AcDbEntity
  8
GUIDE
  0
ARC
  5
1A3
330
1A
100
AcDbEntity
  8
GUIDE
100
AcDbCircle
 10
140.903255
 20
-6.487403
 30
0.0
 40
2.386766
100
AcDbArc
 50
347.5981850000001
 51
69.62273500000001
  0
LINE
  5
1A4
330
1A
100
AcDbEntity
  8
GUIDE
100
AcDbLine
 10
150.734327
 20
41.5
 30
0.0
 11
147.734327
 21
41.5
 31
0.0
  0
LINE
  5
1A5
330
1A
100
AcDbEntity
  8
GUIDE
100
AcDbLine
 10
138.734327
 20
41.5
 30
0.0
 11
138.734327
 21
31.5
 31
0.0
  0
LINE
  5
1A6
330
1A
100
AcDbEntity
  8
GUIDE
100
AcDbLine
 10
150.734327
 20
41.5
 30
0.0
 11
150.734327
 21
31.5
 31
0.0
  0
LINE
  5
1A7
330
1A
100
AcDbEntity
  8
GUIDE
100
AcDbLine
 10
138.734327
 20
31.5
 30
0.0
 11
132.134327
 21
0.0
 31
0.0
  0
LINE
  5
1A8
330
1A
100
AcDbEntity
  8
GUIDE
100
AcDbLine
 10
150.734327
 20
31.5
 30
0.0
 11
157.334327
 21
0.0
 31
0.0
  0
LINE
  5
1A9
330
1A
100
AcDbEntity
  8
GUIDE
100
AcDbLine
 10
141.734327
 20
41.5
 30
0.0
 11
141.734327
 21
31.5
 31
0.0
  0
LINE
  5
1AA
330
1A
100
AcDbEntity
  8
GUIDE
100
AcDbLine
 10
147.734327
 20
41.5
 30
0.0
 11
147.734327
 21
31.5
 31
0.0
  0
ARC
  5
1AB
330
1A
100
AcDbEntity
  8
GUIDE
100
AcDbCircle
 10
140.322889
 20
36.5
 30
0.0
 40
3.5
100
AcDbArc
 50
116.992564
 51
243.007436
  0
ARC
  5
1AC
330
1A
100
AcDbEntity
  8
GUIDE
100
AcDbCircle
 10
142.878401
 20
36.5
 30
0.0
 40
9.095051
100
AcDbArc
 50
329.741229
 51
30.258771
  0
LINE
  5
1AD
330
1A
100
AcDbEntity
  8
GUIDE
100
AcDbLine
 10
138.734327
 20
31.5
 30
0.0
 11
138.734327
 21
0.0
 31
0.0
  0
LINE
  5
1AE
330
1A
100
AcDbEntity
  8
GUIDE
100
AcDbLine
 10
150.734327
 20
31.5
 30
0.0
 11
150.734327
 21
0.0
 31
0.0
  0
LINE
  5
1AF
330
1A
100
AcDbEntity
  8
GUIDE
100
AcDbLine
 10
147.734327
 20
39.5
 30
0.0
 11
141.734327
 21
39.5
 31
0.0
  0
LINE
  5
1B0
330
1A
100
AcDbEntity
  8
GUIDE
100
AcDbLine
 10
141.734327
 20
31.5
 30
0.0
 11
141.734327
 21
0.0
 31
0.0
  0
LINE
  5
1B1
330
1A
100
AcDbEntity
  8
GUIDE
100
AcDbLine
 10
147.734327
 20
31.5
 30
0.0
 11
147.734327
 21
0.0
 31
0.0
  0
LINE
  5
1B2
330
1A
100
AcDbEntity
  8
GUIDE
100
AcDbLine
 10
141.734327
 20
41.5
 30
0.0
 11
138.734327
 21
41.5
 31
0.0
  0
POLYLINE
  5
1B3
330
1A
100
AcDbEntity
  8
GUIDE
100
AcDb2dPolyline
 66
     1
 10
0.0
 20
0.0
 30
0.0
 70
     1
  0
VERTEX
  5
26C
330
1B3
100
AcDbEntity
  8
GUIDE
100
AcDbVertex
100
AcDb2dVertex
 10
152.034327
 20
-4.9
 30
0.0
  0
VERTEX
  5
26D
330
1B3
100
AcDbEntity
  8
GUIDE
100
AcDbVertex
100
AcDb2dVertex
 10
152.034327
 20
-4.25
 30
0.0
  0
VERTEX
  5
26E
330
1B3
100
AcDbEntity
  8
GUIDE
100
AcDbVertex
100
AcDb2dVertex
 10
157.034327
 20
-4.25
 30
0.0
  0
VERTEX
  5
26F
330
1B3
100
AcDbEntity
  8
GUIDE
100
AcDbVertex
100
AcDb2dVertex
 10
157.034327
 20
-4.9
 30
0.0
  0
SEQEND
  5
26B
330
1B3
100
AcDbEntity
  8
GUIDE
  0
POLYLINE
  5
1B9
330
1A
100
AcDbEntity
  8
GUIDE
100
AcDb2dPolyline
 66
     1
 10
0.0
 20
0.0
 30
0.0
 70
     1
  0
VERTEX
  5
271
330
1B9
100
AcDbEntity
  8
GUIDE
100
AcDbVertex
100
AcDb2dVertex
 10
152.034327
 20
-38.05
 30
0.0
  0
VERTEX
  5
272
330
1B9
100
AcDbEntity
  8
GUIDE
100
AcDbVertex
100
AcDb2dVertex
 10
152.034327
 20
-37.4
 30
0.0
  0
VERTEX
  5
273
330
1B9
100
AcDbEntity
  8
GUIDE
100
AcDbVertex
100
AcDb2dVertex
 10
157.034327
 20
-37.4
 30
0.0
  0
VERTEX
  5
274
330
1B9
100
AcDbEntity
  8
GUIDE
100
AcDbVertex
100
AcDb2dVertex
 10
157.034327
 20
-38.05
 30
0.0
  0
SEQEND
  5
270
330
1B9
100
AcDbEntity
  8
GUIDE
  0
POLYLINE
  5
1BF
330
1A
100
AcDbEntity
  8
GUIDE
100
AcDb2dPolyline
 66
     1
 10
0.0
 20
0.0
 30
0.0
 70
     1
  0
VERTEX
  5
276
330
1BF
100
AcDbEntity
  8
GUIDE
100
AcDbVertex
100
AcDb2dVertex
 10
148.784327
 20
-36.4
 30
0.0
  0
VERTEX
  5
277
330
1BF
100
AcDbEntity
  8
GUIDE
100
AcDbVertex
100
AcDb2dVertex
 10
148.784327
 20
-5.9
 30
0.0
 42
-0.414214
  0
VERTEX
  5
278
330
1BF
100
AcDbEntity
  8
GUIDE
100
AcDbVertex
100
AcDb2dVertex
 10
149.784327
 20
-4.9
 30
0.0
  0
VERTEX
  5
279
330
1BF
100
AcDbEntity
  8
GUIDE
100
AcDbVertex
100
AcDb2dVertex
 10
159.284327
 20
-4.9
 30
0.0
 42
-0.414214
  0
VERTEX
  5
27A
330
1BF
100
AcDbEntity
  8
GUIDE
100
AcDbVertex
100
AcDb2dVertex
 10
160.284327
 20
-5.9
 30
0.0
  0
VERTEX
  5
27B
330
1BF
100
AcDbEntity
  8
GUIDE
100
AcDbVertex
100
AcDb2dVertex
 10
160.284327
 20
-36.4
 30
0.0
 42
-0.414214
  0
VERTEX
  5
27C
330
1BF
100
AcDbEntity
  8
GUIDE
100
AcDbVertex
100
AcDb2dVertex
 10
159.284327
 20
-37.4
 30
0.0
  0
VERTEX
  5
27D
330
1BF
100
AcDbEntity
  8
GUIDE
100
AcDbVertex
100
AcDb2dVertex
 10
149.784327
 20
-37.4
 30
0.0
 42
-0.414214
  0
SEQEND
  5
275
330
1BF
100
AcDbEntity
  8
GUIDE
  0
POLYLINE
  5
1C9
330
1A
100
AcDbEntity
  8
GUIDE
100
AcDb2dPolyline
 66
     1
 10
0.0
 20
0.0
 30
0.0
 70
     1
  0
VERTEX
  5
27F
330
1C9
100
AcDbEntity
  8
GUIDE
100
AcDbVertex
100
AcDb2dVertex
 10
132.434327
 20
-4.9
 30
0.0
  0
VERTEX
  5
280
330
1C9
100
AcDbEntity
  8
GUIDE
100
AcDbVertex
100
AcDb2dVertex
 10
132.434327
 20
-4.25
 30
0.0
  0
VERTEX
  5
281
330
1C9
100
AcDbEntity
  8
GUIDE
100
AcDbVertex
100
AcDb2dVertex
 10
137.434327
 20
-4.25
 30
0.0
  0
VERTEX
  5
282
330
1C9
100
AcDbEntity
  8
GUIDE
100
AcDbVertex
100
AcDb2dVertex
 10
137.434327
 20
-4.9
 30
0.0
  0
SEQEND
  5
27E
330
1C9
100
AcDbEntity
  8
GUIDE
  0
POLYLINE
  5
1CF
330
1A
100
AcDbEntity
  8
GUIDE
100
AcDb2dPolyline
 66
     1
 10
0.0
 20
0.0
 30
0.0
 70
     1
  0
VERTEX
  5
284
330
1CF
100
AcDbEntity
  8
GUIDE
100
AcDbVertex
100
AcDb2dVertex
 10
132.434327
 20
-38.05
 30
0.0
  0
VERTEX
  5
285
330
1CF
100
AcDbEntity
  8
GUIDE
100
AcDbVertex
100
AcDb2dVertex
 10
132.434327
 20
-37.4
 30
0.0
  0
VERTEX
  5
286
330
1CF
100
AcDbEntity
  8
GUIDE
100
AcDbVertex
100
AcDb2dVertex
 10
137.434327
 20
-37.4
 30
0.0
  0
VERTEX
  5
287
330
1CF
100
AcDbEntity
  8
GUIDE
100
AcDbVertex
100
AcDb2dVertex
 10
137.434327
 20
-38.05
 30
0.0
  0
SEQEND
  5
283
330
1CF
100
AcDbEntity
  8
GUIDE
  0
POLYLINE
  5
1D5
330
1A
100
AcDbEntity
  8
GUIDE
100
AcDb2dPolyline
 66
     1
 10
0.0
 20
0.0
 30
0.0
 70
     1
  0
VERTEX
  5
289
330
1D5
100
AcDbEntity
  8
GUIDE
100
AcDbVertex
100
AcDb2dVertex
 10
129.184327
 20
-36.4
 30
0.0
  0
VERTEX
  5
28A
330
1D5
100
AcDbEntity
  8
GUIDE
100
AcDbVertex
100
AcDb2dVertex
 10
129.184327
 20
-5.9
 30
0.0
 42
-0.414214
  0
VERTEX
  5
28B
330
1D5
100
AcDbEntity
  8
GUIDE
100
AcDbVertex
100
AcDb2dVertex
 10
130.184327
 20
-4.9
 30
0.0
  0
VERTEX
  5
28C
330
1D5
100
AcDbEntity
  8
GUIDE
100
AcDbVertex
100
AcDb2dVertex
 10
139.684327
 20
-4.9
 30
0.0
 42
-0.414214
  0
VERTEX
  5
28D
330
1D5
100
AcDbEntity
  8
GUIDE
100
AcDbVertex
100
AcDb2dVertex
 10
140.684327
 20
-5.9
 30
0.0
  0
VERTEX
  5
28E
330
1D5
100
AcDbEntity
  8
GUIDE
100
AcDbVertex
100
AcDb2dVertex
 10
140.684327
 20
-36.4
 30
0.0
 42
-0.414214
  0
VERTEX
  5
28F
330
1D5
100
AcDbEntity
  8
GUIDE
100
AcDbVertex
100
AcDb2dVertex
 10
139.684327
 20
-37.4
 30
0.0
  0
VERTEX
  5
290
330
1D5
100
AcDbEntity
  8
GUIDE
100
AcDbVertex
100
AcDb2dVertex
 10
130.184327
 20
-37.4
 30
0.0
 42
-0.414214
  0
SEQEND
  5
288
330
1D5
100
AcDbEntity
  8
GUIDE
  0
ENDSEC
  0
SECTION
  2
OBJECTS
  0
DICTIONARY
  5
C
330
0
100
AcDbDictionary
  3
ACAD_GROUP
350
D
  3
ACAD_LAYOUT
350
1E0
  3
ACAD_MLINESTYLE
350
E
1001
ACAD
1000
TREAT_AS_HARD
1070
     0
  0
DICTIONARY
  5
2A4
330
1DF
100
AcDbDictionary
  3
ACAD_XREC_ROUNDTRIP
360
2A5
  0
DICTIONARY
  5
D
102
{ACAD_REACTORS
330
C
102
}
330
C
100
AcDbDictionary
1001
ACAD
1000
TREAT_AS_HARD
1070
     0
  0
DICTIONARY
  5
1E0
102
{ACAD_REACTORS
330
C
102
}
330
C
100
AcDbDictionary
1001
ACAD
1000
TREAT_AS_HARD
1070
     0
  0
DICTIONARY
  5
E
102
{ACAD_REACTORS
330
C
102
}
330
C
100
AcDbDictionary
  3
STANDARD
350
13
1001
ACAD
1000
TREAT_AS_HARD
1070
     0
  0
XRECORD
  5
2A5
102
{ACAD_REACTORS
330
2A4
102
}
330
2A4
100
AcDbXrecord
102
UCS
 74
     0
 71
     1
 10
0.0
 20
0.0
 30
0.0
 10
1.0
 20
0.0
 30
0.0
 10
0.0
 20
1.0
 30
0.0
146
0.0
 79
     0
102
VIEW
281
     0
  0
MLINESTYLE
  5
13
102
{ACAD_REACTORS
330
E
102
}
330
E
100
AcDbMlineStyle
  2
STANDARD
 70
     0
  3

 62
     0
 51
90.0
 52
90.0
 71
     2
 49
0.5
 62
   256
  6
BYLAYER
 49
-0.5
 62
   256
  6
BYLAYER
  0
ENDSEC
  0
EOF
