  0
SECTION
  2
HEADER
  9
$ACADVER
  1
AC1012
  9
$DWGCODEPAGE
  3
ansi_1252
  9
$INSBASE
 10
0.0
 20
0.0
 30
0.0
  9
$EXTMIN
 10
-1.743192
 20
-43.379301
 30
0.0
  9
$EXTMAX
 10
126.127266
 20
57.831439
 30
0.0
  9
$LIMMIN
 10
0.0
 20
0.0
  9
$LIMMAX
 10
12.0
 20
9.0
  9
$ORTHOMODE
 70
     1
  9
$REGENMODE
 70
     1
  9
$FILLMODE
 70
     1
  9
$QTEXTMODE
 70
     0
  9
$MIRRTEXT
 70
     1
  9
$DRAGMODE
 70
     2
  9
$LTSCALE
 40
1.0
  9
$OSMODE
 70
    37
  9
$ATTMODE
 70
     1
  9
$TEXTSIZE
 40
0.2
  9
$TRACEWID
 40
0.05
  9
$TEXTSTYLE
  7
STANDARD
  9
$CLAYER
  8
0
  9
$CELTYPE
  6
BYLAYER
  9
$CECOLOR
 62
   256
  9
$CELTSCALE
 40
1.0
  9
$DELOBJ
 70
     1
  9
$DISPSILH
 70
     0
  9
$DIMSCALE
 40
1.0
  9
$DIMASZ
 40
0.18
  9
$DIMEXO
 40
0.0625
  9
$DIMDLI
 40
0.38
  9
$DIMRND
 40
0.0
  9
$DIMDLE
 40
0.0
  9
$DIMEXE
 40
0.18
  9
$DIMTP
 40
0.0
  9
$DIMTM
 40
0.0
  9
$DIMTXT
 40
0.18
  9
$DIMCEN
 40
0.09
  9
$DIMTSZ
 40
0.0
  9
$DIMTOL
 70
     0
  9
$DIMLIM
 70
     0
  9
$DIMTIH
 70
     1
  9
$DIMTOH
 70
     1
  9
$DIMSE1
 70
     0
  9
$DIMSE2
 70
     0
  9
$DIMTAD
 70
     0
  9
$DIMZIN
 70
     0
  9
$DIMBLK
  1

  9
$DIMASO
 70
     1
  9
$DIMSHO
 70
     1
  9
$DIMPOST
  1

  9
$DIMAPOST
  1

  9
$DIMALT
 70
     0
  9
$DIMALTD
 70
     2
  9
$DIMALTF
 40
25.4
  9
$DIMLFAC
 40
1.0
  9
$DIMTOFL
 70
     0
  9
$DIMTVP
 40
0.0
  9
$DIMTIX
 70
     0
  9
$DIMSOXD
 70
     0
  9
$DIMSAH
 70
     0
  9
$DIMBLK1
  1

  9
$DIMBLK2
  1

  9
$DIMSTYLE
  2
STANDARD
  9
$DIMCLRD
 70
     0
  9
$DIMCLRE
 70
     0
  9
$DIMCLRT
 70
     0
  9
$DIMTFAC
 40
1.0
  9
$DIMGAP
 40
0.09
  9
$DIMJUST
 70
     0
  9
$DIMSD1
 70
     0
  9
$DIMSD2
 70
     0
  9
$DIMTOLJ
 70
     1
  9
$DIMTZIN
 70
     0
  9
$DIMALTZ
 70
     0
  9
$DIMALTTZ
 70
     0
  9
$DIMFIT
 70
     3
  9
$DIMUPT
 70
     0
  9
$DIMUNIT
 70
     2
  9
$DIMDEC
 70
     4
  9
$DIMTDEC
 70
     4
  9
$DIMALTU
 70
     2
  9
$DIMALTTD
 70
     2
  9
$DIMTXSTY
  7
STANDARD
  9
$DIMAUNIT
 70
     0
  9
$LUNITS
 70
     2
  9
$LUPREC
 70
     4
  9
$SKETCHINC
 40
0.1
  9
$FILLETRAD
 40
0.0
  9
$AUNITS
 70
     0
  9
$AUPREC
 70
     0
  9
$MENU
  1
acad
  9
$ELEVATION
 40
0.0
  9
$PELEVATION
 40
0.0
  9
$THICKNESS
 40
0.0
  9
$LIMCHECK
 70
     0
  9
$CHAMFERA
 40
0.0
  9
$CHAMFERB
 40
0.0
  9
$CHAMFERC
 40
0.0
  9
$CHAMFERD
 40
0.0
  9
$SKPOLY
 70
     0
  9
$TDCREATE
 40
2447893.083333334
  9
$TDUPDATE
 40
2447893.083333334
  9
$TDINDWG
 40
0.0028116898
  9
$TDUSRTIMER
 40
0.0028116898
  9
$USRTIMER
 70
     1
  9
$ANGBASE
 50
0.0
  9
$ANGDIR
 70
     0
  9
$PDMODE
 70
     0
  9
$PDSIZE
 40
0.0
  9
$PLINEWID
 40
0.0
  9
$COORDS
 70
     1
  9
$SPLFRAME
 70
     0
  9
$SPLINETYPE
 70
     6
  9
$SPLINESEGS
 70
     8
  9
$ATTDIA
 70
     0
  9
$ATTREQ
 70
     1
  9
$HANDLING
 70
     1
  9
$HANDSEED
  5
286
  9
$SURFTAB1
 70
     6
  9
$SURFTAB2
 70
     6
  9
$SURFTYPE
 70
     6
  9
$SURFU
 70
     6
  9
$SURFV
 70
     6
  9
$UCSNAME
  2

  9
$UCSORG
 10
0.0
 20
0.0
 30
0.0
  9
$UCSXDIR
 10
1.0
 20
0.0
 30
0.0
  9
$UCSYDIR
 10
0.0
 20
1.0
 30
0.0
  9
$PUCSNAME
  2

  9
$PUCSORG
 10
0.0
 20
0.0
 30
0.0
  9
$PUCSXDIR
 10
1.0
 20
0.0
 30
0.0
  9
$PUCSYDIR
 10
0.0
 20
1.0
 30
0.0
  9
$USERI1
 70
     0
  9
$USERI2
 70
     0
  9
$USERI3
 70
     0
  9
$USERI4
 70
     0
  9
$USERI5
 70
     0
  9
$USERR1
 40
0.0
  9
$USERR2
 40
0.0
  9
$USERR3
 40
0.0
  9
$USERR4
 40
0.0
  9
$USERR5
 40
0.0
  9
$WORLDVIEW
 70
     1
  9
$SHADEDGE
 70
     3
  9
$SHADEDIF
 70
    70
  9
$TILEMODE
 70
     1
  9
$MAXACTVP
 70
    16
  9
$PINSBASE
 10
0.0
 20
0.0
 30
0.0
  9
$PLIMCHECK
 70
     0
  9
$PEXTMIN
 10
1.000000000000000E+20
 20
1.000000000000000E+20
 30
1.000000000000000E+20
  9
$PEXTMAX
 10
-1.000000000000000E+20
 20
-1.000000000000000E+20
 30
-1.000000000000000E+20
  9
$PLIMMIN
 10
0.0
 20
0.0
  9
$PLIMMAX
 10
12.0
 20
9.0
  9
$UNITMODE
 70
     0
  9
$VISRETAIN
 70
     0
  9
$PLINEGEN
 70
     0
  9
$PSLTSCALE
 70
     1
  9
$TREEDEPTH
 70
  3020
  9
$PICKSTYLE
 70
     1
  9
$CMLSTYLE
  2
STANDARD
  9
$CMLJUST
 70
     0
  9
$CMLSCALE
 40
1.0
  9
$SAVEIMAGES
 70
     1
  0
ENDSEC
  0
SECTION
  2
CLASSES
  0
CLASS
  1
XRECORD
  2
AcDbXrecord
  3
AutoCAD 2000
 90
    32768
280
     0
281
     0
  0
CLASS
  1
LWPOLYLINE
  2
AcDbPolyline
  3
AutoCAD 2000
 90
    32768
280
     0
281
     1
  0
CLASS
  1
HATCH
  2
AcDbHatch
  3
AutoCAD 2000
 90
    32768
280
     0
281
     1
  0
CLASS
  1
ACDBPLACEHOLDER
  2
AcDbPlaceHolder
  3
ObjectDBX Classes
 90
        0
280
     0
281
     0
  0
CLASS
  1
LAYOUT
  2
AcDbLayout
  3
ObjectDBX Classes
 90
        0
280
     0
281
     0
  0
ENDSEC
  0
SECTION
  2
TABLES
  0
TABLE
  2
VPORT
  5
8
330
0
100
AcDbSymbolTable
 70
     1
  0
VPORT
  5
1C5
102
{ACAD_XDICTIONARY
360
284
102
}
330
8
100
AcDbSymbolTableRecord
100
AcDbViewportTableRecord
  2
*ACTIVE
 70
     0
 10
0.0
 20
0.0
 11
1.0
 21
1.0
 12
96.72539399999999
 22
7.225
 13
0.0
 23
0.0
 14
1.0
 24
1.0
 15
0.0
 25
0.0
 16
0.0
 26
0.0
 36
1.0
 17
0.0
 27
0.0
 37
0.0
 40
101.0
 41
1.915354
 42
50.0
 43
0.0
 44
0.0
 50
0.0
 51
0.0
 71
     0
 72
   100
 73
     1
 74
     1
 75
     0
 76
     0
 77
     0
 78
     0
  0
ENDTAB
  0
TABLE
  2
LTYPE
  5
5
330
0
100
AcDbSymbolTable
 70
     1
  0
LTYPE
  5
14
330
5
100
AcDbSymbolTableRecord
100
AcDbLinetypeTableRecord
  2
BYBLOCK
 70
     0
  3

 72
    65
 73
     0
 40
0.0
  0
LTYPE
  5
15
330
5
100
AcDbSymbolTableRecord
100
AcDbLinetypeTableRecord
  2
BYLAYER
 70
     0
  3

 72
    65
 73
     0
 40
0.0
  0
LTYPE
  5
16
330
5
100
AcDbSymbolTableRecord
100
AcDbLinetypeTableRecord
  2
CONTINUOUS
 70
     0
  3
Solid line
 72
    65
 73
     0
 40
0.0
  0
ENDTAB
  0
TABLE
  2
LAYER
  5
2
330
0
100
AcDbSymbolTable
 70
     2
  0
LAYER
  5
F
330
2
100
AcDbSymbolTableRecord
100
AcDbLayerTableRecord
  2
0
 70
     0
 62
     7
  6
CONTINUOUS
  0
LAYER
  5
35
330
2
100
AcDbSymbolTableRecord
100
AcDbLayerTableRecord
  2
GUIDE
 70
     0
 62
     7
  6
CONTINUOUS
  0
ENDTAB
  0
TABLE
  2
STYLE
  5
3
330
0
100
AcDbSymbolTable
 70
     1
  0
STYLE
  5
10
330
3
100
AcDbSymbolTableRecord
100
AcDbTextStyleTableRecord
  2
STANDARD
 70
     0
 40
0.0
 41
1.0
 50
0.0
 71
     0
 42
0.2
  3
txt
  4

  0
ENDTAB
  0
TABLE
  2
VIEW
  5
6
330
0
100
AcDbSymbolTable
 70
     0
  0
ENDTAB
  0
TABLE
  2
UCS
  5
7
330
0
100
AcDbSymbolTable
 70
     0
  0
ENDTAB
  0
TABLE
  2
APPID
  5
9
330
0
100
AcDbSymbolTable
 70
     1
  0
APPID
  5
11
330
9
100
AcDbSymbolTableRecord
100
AcDbRegAppTableRecord
  2
ACAD
 70
     0
  0
ENDTAB
  0
TABLE
  2
DIMSTYLE
  5
A
330
0
100
AcDbSymbolTable
 70
     1
  0
DIMSTYLE
105
1D
330
A
100
AcDbSymbolTableRecord
100
AcDbDimStyleTableRecord
  2
STANDARD
 70
     0
  3

  4

  5

  6

  7

 40
1.0
 41
0.18
 42
0.0625
 43
0.38
 44
0.18
 45
0.0
 46
0.0
 47
0.0
 48
0.0
140
0.18
141
0.09
142
0.0
143
25.4
144
1.0
145
0.0
146
1.0
147
0.09
 71
     0
 72
     0
 73
     1
 74
     1
 75
     0
 76
     0
 77
     0
 78
     0
170
     0
171
     2
172
     0
173
     0
174
     0
175
     0
176
     0
177
     0
178
     0
270
     2
271
     4
272
     4
273
     2
274
     2
340
10
275
     0
280
     0
281
     0
282
     0
283
     1
284
     0
285
     0
286
     0
287
     3
288
     0
  0
ENDTAB
  0
TABLE
  2
BLOCK_RECORD
  5
1
330
0
100
AcDbSymbolTable
 70
     1
  0
BLOCK_RECORD
  5
1A
330
1
100
AcDbSymbolTableRecord
100
AcDbBlockTableRecord
  2
*MODEL_SPACE
  0
BLOCK_RECORD
  5
17
330
1
100
AcDbSymbolTableRecord
100
AcDbBlockTableRecord
  2
*PAPER_SPACE
  0
BLOCK_RECORD
  5
28
330
1
100
AcDbSymbolTableRecord
100
AcDbBlockTableRecord
  2
A$C61E0
  0
ENDTAB
  0
ENDSEC
  0
SECTION
  2
BLOCKS
  0
BLOCK
  5
1B
330
1A
100
AcDbEntity
  8
0
100
AcDbBlockBegin
  2
*MODEL_SPACE
 70
     0
 71
     0
 10
0.0
 20
0.0
 30
0.0
  3
*MODEL_SPACE
  1

  0
ENDBLK
  5
1C
330
1A
100
AcDbEntity
  8
0
100
AcDbBlockEnd
  0
BLOCK
  5
18
330
17
100
AcDbEntity
 67
     1
  8
0
100
AcDbBlockBegin
  2
*PAPER_SPACE
 70
     0
 71
     0
 10
0.0
 20
0.0
 30
0.0
  3
*PAPER_SPACE
  1

  0
ENDBLK
  5
19
330
17
100
AcDbEntity
 67
     1
  8
0
100
AcDbBlockEnd
  0
BLOCK
  5
33
330
28
100
AcDbEntity
  8
0
100
AcDbBlockBegin
  2
A$C61E0
 70
     0
 71
     0
 10
0.0
 20
0.0
 30
0.0
  3
A$C61E0
  1

  0
POLYLINE
  5
29
330
28
100
AcDbEntity
  8
0
100
AcDb2dPolyline
 66
     1
 10
0.0
 20
0.0
 30
0.0
 70
     1
  0
VERTEX
  5
27C
330
29
100
AcDbEntity
  8
0
100
AcDbVertex
100
AcDb2dVertex
 10
18.85
 20
6.875
 30
0.0
  0
VERTEX
  5
27D
330
29
100
AcDbEntity
  8
0
100
AcDbVertex
100
AcDb2dVertex
 10
18.85
 20
37.375
 30
0.0
 42
-0.414214
  0
VERTEX
  5
27E
330
29
100
AcDbEntity
  8
0
100
AcDbVertex
100
AcDb2dVertex
 10
19.85
 20
38.375
 30
0.0
  0
VERTEX
  5
27F
330
29
100
AcDbEntity
  8
0
100
AcDbVertex
100
AcDb2dVertex
 10
29.35
 20
38.375
 30
0.0
 42
-0.414214
  0
VERTEX
  5
280
330
29
100
AcDbEntity
  8
0
100
AcDbVertex
100
AcDb2dVertex
 10
30.35
 20
37.375
 30
0.0
  0
VERTEX
  5
281
330
29
100
AcDbEntity
  8
0
100
AcDbVertex
100
AcDb2dVertex
 10
30.35
 20
6.875
 30
0.0
 42
-0.414214
  0
VERTEX
  5
282
330
29
100
AcDbEntity
  8
0
100
AcDbVertex
100
AcDb2dVertex
 10
29.35
 20
5.875
 30
0.0
  0
VERTEX
  5
283
330
29
100
AcDbEntity
  8
0
100
AcDbVertex
100
AcDb2dVertex
 10
19.85
 20
5.875
 30
0.0
 42
-0.414214
  0
SEQEND
  5
27B
330
29
100
AcDbEntity
  8
0
  0
ENDBLK
  5
34
330
28
100
AcDbEntity
  8
0
100
AcDbBlockEnd
  0
ENDSEC
  0
SECTION
  2
ENTITIES
  0
LINE
  5
107
330
1A
100
AcDbEntity
  8
GUIDE
100
AcDbLine
 10
74.3
 20
55.775
 30
0.0
 11
74.3
 21
44.075
 31
0.0
  0
LINE
  5
108
330
1A
100
AcDbEntity
  8
GUIDE
100
AcDbLine
 10
6.0
 20
55.775
 30
0.0
 11
74.3
 21
55.775
 31
0.0
  0
LINE
  5
109
330
1A
100
AcDbEntity
  8
GUIDE
100
AcDbLine
 10
16.2
 20
27.875
 30
0.0
 11
64.09999999999999
 21
27.875
 31
0.0
  0
LINE
  5
10A
330
1A
100
AcDbEntity
  8
GUIDE
100
AcDbLine
 10
2.914856
 20
44.075
 30
0.0
 11
77.385144
 21
44.075
 31
0.0
  0
ARC
  5
10B
330
1A
100
AcDbEntity
  8
GUIDE
100
AcDbCircle
 10
74.3
 20
49.775
 30
0.0
 40
6.0
100
AcDbArc
 50
320.645827
 51
90.0
  0
LINE
  5
10C
330
1A
100
AcDbEntity
  8
GUIDE
100
AcDbLine
 10
64.09999999999999
 20
27.875
 30
0.0
 11
78.939446
 21
45.970327
 31
0.0
  0
ARC
  5
10D
330
1A
100
AcDbEntity
  8
GUIDE
100
AcDbCircle
 10
6.0
 20
49.775
 30
0.0
 40
6.0
100
AcDbArc
 50
90.0
 51
219.354173
  0
LINE
  5
10E
330
1A
100
AcDbEntity
  8
GUIDE
100
AcDbLine
 10
16.2
 20
27.875
 30
0.0
 11
1.360554
 21
45.970327
 31
0.0
  0
ARC
  5
10F
330
1A
100
AcDbEntity
  8
GUIDE
100
AcDbCircle
 10
8.9
 20
51.975
 30
0.0
 40
5.75
100
AcDbArc
 50
41.366225
 51
141.446523
  0
ARC
  5
110
330
1A
100
AcDbEntity
  8
GUIDE
100
AcDbCircle
 10
21.0
 20
51.975
 30
0.0
 40
5.75
100
AcDbArc
 50
41.366225
 51
138.633775
  0
ARC
  5
111
330
1A
100
AcDbEntity
  8
GUIDE
100
AcDbCircle
 10
33.0
 20
51.975
 30
0.0
 40
5.75
100
AcDbArc
 50
41.366225
 51
138.633775
  0
ARC
  5
112
330
1A
100
AcDbEntity
  8
GUIDE
100
AcDbCircle
 10
45.1
 20
51.975
 30
0.0
 40
5.75
100
AcDbArc
 50
41.366225
 51
138.633775
  0
ARC
  5
113
330
1A
100
AcDbEntity
  8
GUIDE
100
AcDbCircle
 10
57.2
 20
51.975
 30
0.0
 40
5.75
100
AcDbArc
 50
41.366225
 51
138.633775
  0
ARC
  5
114
330
1A
100
AcDbEntity
  8
GUIDE
100
AcDbCircle
 10
69.3
 20
51.975
 30
0.0
 40
5.75
100
AcDbArc
 50
41.366225
 51
138.633775
  0
LINE
  5
115
330
1A
100
AcDbEntity
  8
GUIDE
100
AcDbLine
 10
6.0
 20
-4.25
 30
0.0
 11
80.3
 21
-4.25
 31
0.0
  0
LINE
  5
116
330
1A
100
AcDbEntity
  8
GUIDE
100
AcDbLine
 10
6.0
 20
-38.05
 30
0.0
 11
80.3
 21
-38.05
 31
0.0
  0
LINE
  5
117
330
1A
100
AcDbEntity
  8
GUIDE
100
AcDbLine
 10
0.0
 20
0.0
 30
0.0
 11
74.3
 21
0.0
 31
0.0
  0
LINE
  5
118
330
1A
100
AcDbEntity
  8
GUIDE
100
AcDbLine
 10
0.0
 20
-42.3
 30
0.0
 11
74.3
 21
-42.3
 31
0.0
  0
LINE
  5
119
330
1A
100
AcDbEntity
  8
GUIDE
100
AcDbLine
 10
0.0
 20
-42.3
 30
0.0
 11
0.0
 21
-40.175
 31
0.0
  0
LINE
  5
11A
330
1A
100
AcDbEntity
  8
GUIDE
100
AcDbLine
 10
80.3
 20
-2.125
 30
0.0
 11
80.3
 21
-4.25
 31
0.0
  0
LINE
  5
11B
330
1A
100
AcDbEntity
  8
GUIDE
100
AcDbLine
 10
74.3
 20
0.0
 30
0.0
 11
74.3
 21
-2.125
 31
0.0
  0
LINE
  5
11C
330
1A
100
AcDbEntity
  8
GUIDE
100
AcDbLine
 10
6.0
 20
-2.125
 30
0.0
 11
6.0
 21
-4.25
 31
0.0
  0
LINE
  5
11D
330
1A
100
AcDbEntity
  8
GUIDE
100
AcDbLine
 10
0.0
 20
-2.125
 30
0.0
 11
6.0
 21
-2.125
 31
0.0
  0
LINE
  5
11E
330
1A
100
AcDbEntity
  8
GUIDE
100
AcDbLine
 10
0.0
 20
-40.175
 30
0.0
 11
6.0
 21
-40.175
 31
0.0
  0
LINE
  5
11F
330
1A
100
AcDbEntity
  8
GUIDE
100
AcDbLine
 10
0.0
 20
-2.125
 30
0.0
 11
0.0
 21
0.0
 31
0.0
  0
LINE
  5
120
330
1A
100
AcDbEntity
  8
GUIDE
100
AcDbLine
 10
6.0
 20
-38.05
 30
0.0
 11
6.0
 21
-40.175
 31
0.0
  0
LINE
  5
121
330
1A
100
AcDbEntity
  8
GUIDE
100
AcDbLine
 10
74.3
 20
-2.125
 30
0.0
 11
80.3
 21
-2.125
 31
0.0
  0
LINE
  5
122
330
1A
100
AcDbEntity
  8
GUIDE
100
AcDbLine
 10
74.3
 20
-40.175
 30
0.0
 11
74.3
 21
-42.3
 31
0.0
  0
LINE
  5
123
330
1A
100
AcDbEntity
  8
GUIDE
100
AcDbLine
 10
80.3
 20
-38.05
 30
0.0
 11
80.3
 21
-40.175
 31
0.0
  0
LINE
  5
124
330
1A
100
AcDbEntity
  8
GUIDE
100
AcDbLine
 10
74.3
 20
-40.175
 30
0.0
 11
80.3
 21
-40.175
 31
0.0
  0
LINE
  5
125
330
1A
100
AcDbEntity
  8
GUIDE
100
AcDbLine
 10
9.9
 20
-4.25
 30
0.0
 11
9.9
 21
0.0
 31
0.0
  0
LINE
  5
126
330
1A
100
AcDbEntity
  8
GUIDE
100
AcDbLine
 10
7.9
 20
-4.25
 30
0.0
 11
7.9
 21
0.0
 31
0.0
  0
LINE
  5
127
330
1A
100
AcDbEntity
  8
GUIDE
100
AcDbLine
 10
20.0
 20
-4.25
 30
0.0
 11
20.0
 21
0.0
 31
0.0
  0
LINE
  5
128
330
1A
100
AcDbEntity
  8
GUIDE
100
AcDbLine
 10
22.0
 20
-4.25
 30
0.0
 11
22.0
 21
0.0
 31
0.0
  0
LINE
  5
129
330
1A
100
AcDbEntity
  8
GUIDE
100
AcDbLine
 10
32.0
 20
-4.25
 30
0.0
 11
32.0
 21
0.0
 31
0.0
  0
LINE
  5
12A
330
1A
100
AcDbEntity
  8
GUIDE
100
AcDbLine
 10
34.0
 20
-4.25
 30
0.0
 11
34.0
 21
0.0
 31
0.0
  0
LINE
  5
12B
330
1A
100
AcDbEntity
  8
GUIDE
100
AcDbLine
 10
44.1
 20
-4.25
 30
0.0
 11
44.1
 21
0.0
 31
0.0
  0
LINE
  5
12C
330
1A
100
AcDbEntity
  8
GUIDE
100
AcDbLine
 10
46.1
 20
-4.25
 30
0.0
 11
46.1
 21
0.0
 31
0.0
  0
LINE
  5
12D
330
1A
100
AcDbEntity
  8
GUIDE
100
AcDbLine
 10
56.2
 20
-4.25
 30
0.0
 11
56.2
 21
0.0
 31
0.0
  0
LINE
  5
12E
330
1A
100
AcDbEntity
  8
GUIDE
100
AcDbLine
 10
58.2
 20
-4.25
 30
0.0
 11
58.2
 21
0.0
 31
0.0
  0
LINE
  5
12F
330
1A
100
AcDbEntity
  8
GUIDE
100
AcDbLine
 10
68.3
 20
-4.25
 30
0.0
 11
68.3
 21
0.0
 31
0.0
  0
LINE
  5
130
330
1A
100
AcDbEntity
  8
GUIDE
100
AcDbLine
 10
70.3
 20
-4.25
 30
0.0
 11
70.3
 21
0.0
 31
0.0
  0
LINE
  5
131
330
1A
100
AcDbEntity
  8
GUIDE
100
AcDbLine
 10
68.3
 20
-42.3
 30
0.0
 11
68.3
 21
-38.05
 31
0.0
  0
LINE
  5
132
330
1A
100
AcDbEntity
  8
GUIDE
100
AcDbLine
 10
70.3
 20
-42.3
 30
0.0
 11
70.3
 21
-38.05
 31
0.0
  0
LINE
  5
133
330
1A
100
AcDbEntity
  8
GUIDE
100
AcDbLine
 10
56.2
 20
-38.05
 30
0.0
 11
56.2
 21
-42.3
 31
0.0
  0
LINE
  5
134
330
1A
100
AcDbEntity
  8
GUIDE
100
AcDbLine
 10
58.2
 20
-38.05
 30
0.0
 11
58.2
 21
-42.3
 31
0.0
  0
LINE
  5
135
330
1A
100
AcDbEntity
  8
GUIDE
100
AcDbLine
 10
46.1
 20
-38.05
 30
0.0
 11
46.1
 21
-42.3
 31
0.0
  0
LINE
  5
136
330
1A
100
AcDbEntity
  8
GUIDE
100
AcDbLine
 10
44.1
 20
-38.05
 30
0.0
 11
44.1
 21
-42.3
 31
0.0
  0
LINE
  5
137
330
1A
100
AcDbEntity
  8
GUIDE
100
AcDbLine
 10
32.0
 20
-42.3
 30
0.0
 11
32.0
 21
-38.05
 31
0.0
  0
LINE
  5
138
330
1A
100
AcDbEntity
  8
GUIDE
100
AcDbLine
 10
34.0
 20
-42.3
 30
0.0
 11
34.0
 21
-38.05
 31
0.0
  0
LINE
  5
139
330
1A
100
AcDbEntity
  8
GUIDE
100
AcDbLine
 10
22.0
 20
-38.05
 30
0.0
 11
22.0
 21
-42.3
 31
0.0
  0
LINE
  5
13A
330
1A
100
AcDbEntity
  8
GUIDE
100
AcDbLine
 10
20.0
 20
-38.05
 30
0.0
 11
20.0
 21
-42.3
 31
0.0
  0
LINE
  5
13B
330
1A
100
AcDbEntity
  8
GUIDE
100
AcDbLine
 10
9.9
 20
-38.05
 30
0.0
 11
9.9
 21
-42.3
 31
0.0
  0
LINE
  5
13C
330
1A
100
AcDbEntity
  8
GUIDE
100
AcDbLine
 10
7.9
 20
-38.05
 30
0.0
 11
7.9
 21
-42.3
 31
0.0
  0
LINE
  5
13D
330
1A
100
AcDbEntity
  8
GUIDE
100
AcDbLine
 10
7.9
 20
0.975
 30
0.0
 11
70.3
 21
0.975
 31
0.0
  0
LINE
  5
13E
330
1A
100
AcDbEntity
  8
GUIDE
100
AcDbLine
 10
7.9
 20
0.975
 30
0.0
 11
3.124372
 21
0.0
 31
0.0
  0
LINE
  5
13F
330
1A
100
AcDbEntity
  8
GUIDE
100
AcDbLine
 10
70.3
 20
0.975
 30
0.0
 11
71.163161
 21
0.0
 31
0.0
  0
LINE
  5
140
330
1A
100
AcDbEntity
  8
GUIDE
100
AcDbLine
 10
7.9
 20
-43.275
 30
0.0
 11
3.124372
 21
-42.3
 31
0.0
  0
LINE
  5
141
330
1A
100
AcDbEntity
  8
GUIDE
100
AcDbLine
 10
7.9
 20
-43.275
 30
0.0
 11
70.3
 21
-43.275
 31
0.0
  0
LINE
  5
142
330
1A
100
AcDbEntity
  8
GUIDE
100
AcDbLine
 10
70.3
 20
-43.275
 30
0.0
 11
71.163161
 21
-42.3
 31
0.0
  0
LINE
  5
143
330
1A
100
AcDbEntity
  8
GUIDE
100
AcDbLine
 10
42.6
 20
-4.25
 30
0.0
 11
42.6
 21
-4.9
 31
0.0
  0
LINE
  5
144
330
1A
100
AcDbEntity
  8
GUIDE
100
AcDbLine
 10
47.6
 20
-4.9
 30
0.0
 11
47.6
 21
-4.25
 31
0.0
  0
LINE
  5
145
330
1A
100
AcDbEntity
  8
GUIDE
100
AcDbLine
 10
47.6
 20
-4.25
 30
0.0
 11
42.6
 21
-4.25
 31
0.0
  0
LINE
  5
146
330
1A
100
AcDbEntity
  8
GUIDE
100
AcDbLine
 10
42.6
 20
-37.4
 30
0.0
 11
42.6
 21
-38.05
 31
0.0
  0
LINE
  5
147
330
1A
100
AcDbEntity
  8
GUIDE
100
AcDbLine
 10
42.6
 20
-38.05
 30
0.0
 11
47.6
 21
-38.05
 31
0.0
  0
LINE
  5
148
330
1A
100
AcDbEntity
  8
GUIDE
100
AcDbLine
 10
47.6
 20
-38.05
 30
0.0
 11
47.6
 21
-37.4
 31
0.0
  0
POLYLINE
  5
149
330
1A
100
AcDbEntity
  8
GUIDE
100
AcDb2dPolyline
 66
     1
 10
0.0
 20
0.0
 30
0.0
 70
     1
  0
VERTEX
  5
23B
330
149
100
AcDbEntity
  8
GUIDE
100
AcDbVertex
100
AcDb2dVertex
 10
30.5
 20
-38.05
 30
0.0
  0
VERTEX
  5
23C
330
149
100
AcDbEntity
  8
GUIDE
100
AcDbVertex
100
AcDb2dVertex
 10
30.5
 20
-37.4
 30
0.0
  0
VERTEX
  5
23D
330
149
100
AcDbEntity
  8
GUIDE
100
AcDbVertex
100
AcDb2dVertex
 10
35.5
 20
-37.4
 30
0.0
  0
VERTEX
  5
23E
330
149
100
AcDbEntity
  8
GUIDE
100
AcDbVertex
100
AcDb2dVertex
 10
35.5
 20
-38.05
 30
0.0
  0
SEQEND
  5
23A
330
149
100
AcDbEntity
  8
GUIDE
  0
POLYLINE
  5
14F
330
1A
100
AcDbEntity
  8
GUIDE
100
AcDb2dPolyline
 66
     1
 10
0.0
 20
0.0
 30
0.0
 70
     1
  0
VERTEX
  5
240
330
14F
100
AcDbEntity
  8
GUIDE
100
AcDbVertex
100
AcDb2dVertex
 10
30.5
 20
-4.9
 30
0.0
  0
VERTEX
  5
241
330
14F
100
AcDbEntity
  8
GUIDE
100
AcDbVertex
100
AcDb2dVertex
 10
30.5
 20
-4.25
 30
0.0
  0
VERTEX
  5
242
330
14F
100
AcDbEntity
  8
GUIDE
100
AcDbVertex
100
AcDb2dVertex
 10
35.5
 20
-4.25
 30
0.0
  0
VERTEX
  5
243
330
14F
100
AcDbEntity
  8
GUIDE
100
AcDbVertex
100
AcDb2dVertex
 10
35.5
 20
-4.9
 30
0.0
  0
SEQEND
  5
23F
330
14F
100
AcDbEntity
  8
GUIDE
  0
LINE
  5
155
330
1A
100
AcDbEntity
  8
GUIDE
100
AcDbLine
 10
18.5
 20
-4.25
 30
0.0
 11
18.5
 21
-4.9
 31
0.0
  0
LINE
  5
156
330
1A
100
AcDbEntity
  8
GUIDE
100
AcDbLine
 10
23.5
 20
-4.9
 30
0.0
 11
23.5
 21
-4.25
 31
0.0
  0
LINE
  5
157
330
1A
100
AcDbEntity
  8
GUIDE
100
AcDbLine
 10
23.5
 20
-4.25
 30
0.0
 11
18.5
 21
-4.25
 31
0.0
  0
LINE
  5
158
330
1A
100
AcDbEntity
  8
GUIDE
100
AcDbLine
 10
18.5
 20
-37.4
 30
0.0
 11
18.5
 21
-38.05
 31
0.0
  0
LINE
  5
159
330
1A
100
AcDbEntity
  8
GUIDE
100
AcDbLine
 10
18.5
 20
-38.05
 30
0.0
 11
23.5
 21
-38.05
 31
0.0
  0
LINE
  5
15A
330
1A
100
AcDbEntity
  8
GUIDE
100
AcDbLine
 10
23.5
 20
-38.05
 30
0.0
 11
23.5
 21
-37.4
 31
0.0
  0
POLYLINE
  5
15B
330
1A
100
AcDbEntity
  8
GUIDE
100
AcDb2dPolyline
 66
     1
 10
0.0
 20
0.0
 30
0.0
 70
     1
  0
VERTEX
  5
245
330
15B
100
AcDbEntity
  8
GUIDE
100
AcDbVertex
100
AcDb2dVertex
 10
6.4
 20
-38.05
 30
0.0
  0
VERTEX
  5
246
330
15B
100
AcDbEntity
  8
GUIDE
100
AcDbVertex
100
AcDb2dVertex
 10
6.4
 20
-37.4
 30
0.0
  0
VERTEX
  5
247
330
15B
100
AcDbEntity
  8
GUIDE
100
AcDbVertex
100
AcDb2dVertex
 10
11.4
 20
-37.4
 30
0.0
  0
VERTEX
  5
248
330
15B
100
AcDbEntity
  8
GUIDE
100
AcDbVertex
100
AcDb2dVertex
 10
11.4
 20
-38.05
 30
0.0
  0
SEQEND
  5
244
330
15B
100
AcDbEntity
  8
GUIDE
  0
POLYLINE
  5
161
330
1A
100
AcDbEntity
  8
GUIDE
100
AcDb2dPolyline
 66
     1
 10
0.0
 20
0.0
 30
0.0
 70
     1
  0
VERTEX
  5
24A
330
161
100
AcDbEntity
  8
GUIDE
100
AcDbVertex
100
AcDb2dVertex
 10
6.4
 20
-4.9
 30
0.0
  0
VERTEX
  5
24B
330
161
100
AcDbEntity
  8
GUIDE
100
AcDbVertex
100
AcDb2dVertex
 10
6.4
 20
-4.25
 30
0.0
  0
VERTEX
  5
24C
330
161
100
AcDbEntity
  8
GUIDE
100
AcDbVertex
100
AcDb2dVertex
 10
11.4
 20
-4.25
 30
0.0
  0
VERTEX
  5
24D
330
161
100
AcDbEntity
  8
GUIDE
100
AcDbVertex
100
AcDb2dVertex
 10
11.4
 20
-4.9
 30
0.0
  0
SEQEND
  5
249
330
161
100
AcDbEntity
  8
GUIDE
  0
POLYLINE
  5
167
330
1A
100
AcDbEntity
  8
GUIDE
100
AcDb2dPolyline
 66
     1
 10
0.0
 20
0.0
 30
0.0
 70
     1
  0
VERTEX
  5
24F
330
167
100
AcDbEntity
  8
GUIDE
100
AcDbVertex
100
AcDb2dVertex
 10
54.7
 20
-38.05
 30
0.0
  0
VERTEX
  5
250
330
167
100
AcDbEntity
  8
GUIDE
100
AcDbVertex
100
AcDb2dVertex
 10
54.7
 20
-37.4
 30
0.0
  0
VERTEX
  5
251
330
167
100
AcDbEntity
  8
GUIDE
100
AcDbVertex
100
AcDb2dVertex
 10
59.7
 20
-37.4
 30
0.0
  0
VERTEX
  5
252
330
167
100
AcDbEntity
  8
GUIDE
100
AcDbVertex
100
AcDb2dVertex
 10
59.7
 20
-38.05
 30
0.0
  0
SEQEND
  5
24E
330
167
100
AcDbEntity
  8
GUIDE
  0
POLYLINE
  5
16D
330
1A
100
AcDbEntity
  8
GUIDE
100
AcDb2dPolyline
 66
     1
 10
0.0
 20
0.0
 30
0.0
 70
     1
  0
VERTEX
  5
254
330
16D
100
AcDbEntity
  8
GUIDE
100
AcDbVertex
100
AcDb2dVertex
 10
54.7
 20
-4.9
 30
0.0
  0
VERTEX
  5
255
330
16D
100
AcDbEntity
  8
GUIDE
100
AcDbVertex
100
AcDb2dVertex
 10
54.7
 20
-4.25
 30
0.0
  0
VERTEX
  5
256
330
16D
100
AcDbEntity
  8
GUIDE
100
AcDbVertex
100
AcDb2dVertex
 10
59.7
 20
-4.25
 30
0.0
  0
VERTEX
  5
257
330
16D
100
AcDbEntity
  8
GUIDE
100
AcDbVertex
100
AcDb2dVertex
 10
59.7
 20
-4.9
 30
0.0
  0
SEQEND
  5
253
330
16D
100
AcDbEntity
  8
GUIDE
  0
LINE
  5
173
330
1A
100
AcDbEntity
  8
GUIDE
100
AcDbLine
 10
66.8
 20
-4.25
 30
0.0
 11
66.8
 21
-4.9
 31
0.0
  0
LINE
  5
174
330
1A
100
AcDbEntity
  8
GUIDE
100
AcDbLine
 10
71.8
 20
-4.9
 30
0.0
 11
71.8
 21
-4.25
 31
0.0
  0
LINE
  5
175
330
1A
100
AcDbEntity
  8
GUIDE
100
AcDbLine
 10
71.8
 20
-4.25
 30
0.0
 11
66.8
 21
-4.25
 31
0.0
  0
LINE
  5
176
330
1A
100
AcDbEntity
  8
GUIDE
100
AcDbLine
 10
66.8
 20
-37.4
 30
0.0
 11
66.8
 21
-38.05
 31
0.0
  0
LINE
  5
177
330
1A
100
AcDbEntity
  8
GUIDE
100
AcDbLine
 10
66.8
 20
-38.05
 30
0.0
 11
71.8
 21
-38.05
 31
0.0
  0
LINE
  5
178
330
1A
100
AcDbEntity
  8
GUIDE
100
AcDbLine
 10
71.8
 20
-38.05
 30
0.0
 11
71.8
 21
-37.4
 31
0.0
  0
LINE
  5
179
330
1A
100
AcDbEntity
  8
GUIDE
100
AcDbLine
 10
18.5
 20
-37.4
 30
0.0
 11
23.5
 21
-37.4
 31
0.0
  0
LINE
  5
17A
330
1A
100
AcDbEntity
  8
GUIDE
100
AcDbLine
 10
42.6
 20
-37.4
 30
0.0
 11
47.6
 21
-37.4
 31
0.0
  0
LINE
  5
17B
330
1A
100
AcDbEntity
  8
GUIDE
100
AcDbLine
 10
66.8
 20
-37.4
 30
0.0
 11
71.8
 21
-37.4
 31
0.0
  0
LINE
  5
17C
330
1A
100
AcDbEntity
  8
GUIDE
100
AcDbLine
 10
18.5
 20
-4.9
 30
0.0
 11
23.5
 21
-4.9
 31
0.0
  0
LINE
  5
17D
330
1A
100
AcDbEntity
  8
GUIDE
100
AcDbLine
 10
42.6
 20
-4.9
 30
0.0
 11
47.6
 21
-4.9
 31
0.0
  0
LINE
  5
17E
330
1A
100
AcDbEntity
  8
GUIDE
100
AcDbLine
 10
66.8
 20
-4.9
 30
0.0
 11
71.8
 21
-4.9
 31
0.0
  0
INSERT
  5
17F
330
1A
100
AcDbEntity
  8
GUIDE
100
AcDbBlockReference
  2
A$C61E0
 10
-15.7
 20
-43.275
 30
0.0
  0
INSERT
  5
180
330
1A
100
AcDbEntity
  8
GUIDE
100
AcDbBlockReference
  2
A$C61E0
 10
-3.6
 20
-43.275
 30
0.0
  0
INSERT
  5
181
330
1A
100
AcDbEntity
  8
GUIDE
100
AcDbBlockReference
  2
A$C61E0
 10
8.4
 20
-43.275
 30
0.0
  0
INSERT
  5
182
330
1A
100
AcDbEntity
  8
GUIDE
100
AcDbBlockReference
  2
A$C61E0
 10
20.5
 20
-43.275
 30
0.0
  0
INSERT
  5
183
330
1A
100
AcDbEntity
  8
GUIDE
100
AcDbBlockReference
  2
A$C61E0
 10
32.6
 20
-43.275
 30
0.0
  0
INSERT
  5
184
330
1A
100
AcDbEntity
  8
GUIDE
100
AcDbBlockReference
  2
A$C61E0
 10
44.7
 20
-43.275
 30
0.0
  0
LINE
  5
185
330
1A
100
AcDbEntity
  8
GUIDE
100
AcDbLine
 10
123.970159
 20
-42.3
 30
0.0
 11
112.270159
 21
-42.3
 31
0.0
  0
POLYLINE
  5
186
330
1A
100
AcDbEntity
  8
GUIDE
100
AcDb2dPolyline
 66
     1
 10
0.0
 20
0.0
 30
0.0
 70
     1
  0
VERTEX
  5
259
330
186
100
AcDbEntity
  8
GUIDE
100
AcDbVertex
100
AcDb2dVertex
 10
117.670159
 20
-4.9
 30
0.0
  0
VERTEX
  5
25A
330
186
100
AcDbEntity
  8
GUIDE
100
AcDbVertex
100
AcDb2dVertex
 10
117.670159
 20
-4.25
 30
0.0
  0
VERTEX
  5
25B
330
186
100
AcDbEntity
  8
GUIDE
100
AcDbVertex
100
AcDb2dVertex
 10
122.670159
 20
-4.25
 30
0.0
  0
VERTEX
  5
25C
330
186
100
AcDbEntity
  8
GUIDE
100
AcDbVertex
100
AcDb2dVertex
 10
122.670159
 20
-4.9
 30
0.0
  0
SEQEND
  5
258
330
186
100
AcDbEntity
  8
GUIDE
  0
LINE
  5
18C
330
1A
100
AcDbEntity
  8
GUIDE
100
AcDbLine
 10
111.370159
 20
-7.0
 30
0.0
 11
111.370159
 21
-35.3
 31
0.0
  0
POLYLINE
  5
18D
330
1A
100
AcDbEntity
  8
GUIDE
100
AcDb2dPolyline
 66
     1
 10
0.0
 20
0.0
 30
0.0
 70
     1
  0
VERTEX
  5
25E
330
18D
100
AcDbEntity
  8
GUIDE
100
AcDbVertex
100
AcDb2dVertex
 10
117.670159
 20
-38.05
 30
0.0
  0
VERTEX
  5
25F
330
18D
100
AcDbEntity
  8
GUIDE
100
AcDbVertex
100
AcDb2dVertex
 10
117.670159
 20
-37.4
 30
0.0
  0
VERTEX
  5
260
330
18D
100
AcDbEntity
  8
GUIDE
100
AcDbVertex
100
AcDb2dVertex
 10
122.670159
 20
-37.4
 30
0.0
  0
VERTEX
  5
261
330
18D
100
AcDbEntity
  8
GUIDE
100
AcDbVertex
100
AcDb2dVertex
 10
122.670159
 20
-38.05
 30
0.0
  0
SEQEND
  5
25D
330
18D
100
AcDbEntity
  8
GUIDE
  0
LINE
  5
193
330
1A
100
AcDbEntity
  8
GUIDE
100
AcDbLine
 10
112.270159
 20
0.0
 30
0.0
 11
123.970159
 21
0.0
 31
0.0
  0
LINE
  5
194
330
1A
100
AcDbEntity
  8
GUIDE
100
AcDbLine
 10
111.370159
 20
0.975
 30
0.0
 11
112.270159
 21
0.0
 31
0.0
  0
LINE
  5
195
330
1A
100
AcDbEntity
  8
GUIDE
100
AcDbLine
 10
111.370159
 20
-43.275
 30
0.0
 11
112.270159
 21
-42.3
 31
0.0
  0
ARC
  5
196
330
1A
100
AcDbEntity
  8
GUIDE
100
AcDbCircle
 10
114.128683
 20
-6.903926
 30
0.0
 40
2.760196
100
AcDbArc
 50
105.950562
 51
181.994691
  0
ARC
  5
197
330
1A
100
AcDbEntity
  8
GUIDE
100
AcDbCircle
 10
114.128683
 20
-35.396074
 30
0.0
 40
2.760196
100
AcDbArc
 50
178.005309
 51
254.049438
  0
LINE
  5
198
330
1A
100
AcDbEntity
  8
GUIDE
100
AcDbLine
 10
108.370159
 20
-41.15
 30
0.0
 11
108.370159
 21
-1.15
 31
0.0
  0
LINE
  5
199
330
1A
100
AcDbEntity
  8
GUIDE
100
AcDbLine
 10
100.370159
 20
-2.15
 30
0.0
 11
95.786964
 21
0.062932
 31
0.0
  0
ARC
  5
19A
330
1A
100
AcDbEntity
  8
GUIDE
100
AcDbCircle
 10
96.070159
 20
0.475
 30
0.0
 40
0.5
100
AcDbArc
 50
90.0
 51
235.501061
  0
POLYLINE
  5
19B
330
1A
100
AcDbEntity
  8
GUIDE
100
AcDb2dPolyline
 66
     1
 10
0.0
 20
0.0
 30
0.0
  0
VERTEX
  5
263
330
19B
100
AcDbEntity
  8
GUIDE
100
AcDbVertex
100
AcDb2dVertex
 10
96.070159
 20
0.975
 30
0.0
  0
VERTEX
  5
264
330
19B
100
AcDbEntity
  8
GUIDE
100
AcDbVertex
100
AcDb2dVertex
 10
111.370159
 20
0.975
 30
0.0
  0
SEQEND
  5
262
330
19B
100
AcDbEntity
  8
GUIDE
  0
LINE
  5
19F
330
1A
100
AcDbEntity
  8
GUIDE
100
AcDbLine
 10
100.370159
 20
-40.15
 30
0.0
 11
95.786964
 21
-42.362932
 31
0.0
  0
ARC
  5
1A0
330
1A
100
AcDbEntity
  8
GUIDE
100
AcDbCircle
 10
96.070159
 20
-42.775
 30
0.0
 40
0.5
100
AcDbArc
 50
124.498939
 51
270.0
  0
POLYLINE
  5
1A1
330
1A
100
AcDbEntity
  8
GUIDE
100
AcDb2dPolyline
 66
     1
 10
0.0
 20
0.0
 30
0.0
  0
VERTEX
  5
266
330
1A1
100
AcDbEntity
  8
GUIDE
100
AcDbVertex
100
AcDb2dVertex
 10
111.370159
 20
-43.275
 30
0.0
  0
VERTEX
  5
267
330
1A1
100
AcDbEntity
  8
GUIDE
100
AcDbVertex
100
AcDb2dVertex
 10
96.070159
 20
-43.275
 30
0.0
  0
SEQEND
  5
265
330
1A1
100
AcDbEntity
  8
GUIDE
  0
ARC
  5
1A5
330
1A
100
AcDbEntity
  8
GUIDE
100
AcDbCircle
 10
109.057659
 20
-1.9
 30
0.0
 40
0.8125
100
AcDbArc
 50
292.619865
 51
67.380135
  0
LINE
  5
1A6
330
1A
100
AcDbEntity
  8
GUIDE
100
AcDbLine
 10
109.370159
 20
-1.15
 30
0.0
 11
108.370159
 21
-1.15
 31
0.0
  0
LINE
  5
1A7
330
1A
100
AcDbEntity
  8
GUIDE
100
AcDbLine
 10
109.370159
 20
-2.65
 30
0.0
 11
108.370159
 21
-2.65
 31
0.0
  0
LINE
  5
1A8
330
1A
100
AcDbEntity
  8
GUIDE
100
AcDbLine
 10
109.370159
 20
-39.65
 30
0.0
 11
108.370159
 21
-39.65
 31
0.0
  0
LINE
  5
1A9
330
1A
100
AcDbEntity
  8
GUIDE
100
AcDbLine
 10
109.370159
 20
-41.15
 30
0.0
 11
108.370159
 21
-41.15
 31
0.0
  0
ARC
  5
1AA
330
1A
100
AcDbEntity
  8
GUIDE
100
AcDbCircle
 10
109.057659
 20
-40.4
 30
0.0
 40
0.8125
100
AcDbArc
 50
292.619865
 51
67.380135
  0
POLYLINE
  5
1AB
330
1A
100
AcDbEntity
  8
GUIDE
100
AcDb2dPolyline
 66
     1
 10
0.0
 20
0.0
 30
0.0
  0
VERTEX
  5
269
330
1AB
100
AcDbEntity
  8
GUIDE
100
AcDbVertex
100
AcDb2dVertex
 10
123.970159
 20
0.0
 30
0.0
  0
VERTEX
  5
26A
330
1AB
100
AcDbEntity
  8
GUIDE
100
AcDbVertex
100
AcDb2dVertex
 10
123.970159
 20
-3.25
 30
0.0
 42
-0.414214
  0
VERTEX
  5
26B
330
1AB
100
AcDbEntity
  8
GUIDE
100
AcDbVertex
100
AcDb2dVertex
 10
122.970159
 20
-4.25
 30
0.0
  0
VERTEX
  5
26C
330
1AB
100
AcDbEntity
  8
GUIDE
100
AcDbVertex
100
AcDb2dVertex
 10
113.370159
 20
-4.25
 30
0.0
  0
SEQEND
  5
268
330
1AB
100
AcDbEntity
  8
GUIDE
  0
POLYLINE
  5
1B1
330
1A
100
AcDbEntity
  8
GUIDE
100
AcDb2dPolyline
 66
     1
 10
0.0
 20
0.0
 30
0.0
  0
VERTEX
  5
26E
330
1B1
100
AcDbEntity
  8
GUIDE
100
AcDbVertex
100
AcDb2dVertex
 10
113.370159
 20
-38.05
 30
0.0
  0
VERTEX
  5
26F
330
1B1
100
AcDbEntity
  8
GUIDE
100
AcDbVertex
100
AcDb2dVertex
 10
122.970159
 20
-38.05
 30
0.0
 42
-0.365938
  0
VERTEX
  5
270
330
1B1
100
AcDbEntity
  8
GUIDE
100
AcDbVertex
100
AcDb2dVertex
 10
123.970159
 20
-39.3
 30
0.0
  0
VERTEX
  5
271
330
1B1
100
AcDbEntity
  8
GUIDE
100
AcDbVertex
100
AcDb2dVertex
 10
123.970159
 20
-42.3
 30
0.0
  0
SEQEND
  5
26D
330
1B1
100
AcDbEntity
  8
GUIDE
  0
POLYLINE
  5
1B7
330
1A
100
AcDbEntity
  8
GUIDE
100
AcDb2dPolyline
 66
     1
 10
0.0
 20
0.0
 30
0.0
 70
     1
  0
VERTEX
  5
273
330
1B7
100
AcDbEntity
  8
GUIDE
100
AcDbVertex
100
AcDb2dVertex
 10
114.420159
 20
-36.4
 30
0.0
  0
VERTEX
  5
274
330
1B7
100
AcDbEntity
  8
GUIDE
100
AcDbVertex
100
AcDb2dVertex
 10
114.420159
 20
-5.9
 30
0.0
 42
-0.414214
  0
VERTEX
  5
275
330
1B7
100
AcDbEntity
  8
GUIDE
100
AcDbVertex
100
AcDb2dVertex
 10
115.420159
 20
-4.9
 30
0.0
  0
VERTEX
  5
276
330
1B7
100
AcDbEntity
  8
GUIDE
100
AcDbVertex
100
AcDb2dVertex
 10
124.920159
 20
-4.9
 30
0.0
 42
-0.414214
  0
VERTEX
  5
277
330
1B7
100
AcDbEntity
  8
GUIDE
100
AcDbVertex
100
AcDb2dVertex
 10
125.920159
 20
-5.9
 30
0.0
  0
VERTEX
  5
278
330
1B7
100
AcDbEntity
  8
GUIDE
100
AcDbVertex
100
AcDb2dVertex
 10
125.920159
 20
-36.4
 30
0.0
 42
-0.414214
  0
VERTEX
  5
279
330
1B7
100
AcDbEntity
  8
GUIDE
100
AcDbVertex
100
AcDb2dVertex
 10
124.920159
 20
-37.4
 30
0.0
  0
VERTEX
  5
27A
330
1B7
100
AcDbEntity
  8
GUIDE
100
AcDbVertex
100
AcDb2dVertex
 10
115.420159
 20
-37.4
 30
0.0
 42
-0.414214
  0
SEQEND
  5
272
330
1B7
100
AcDbEntity
  8
GUIDE
  0
LINE
  5
1C1
330
1A
100
AcDbEntity
  8
GUIDE
100
AcDbLine
 10
100.370159
 20
-41.15
 30
0.0
 11
100.370159
 21
-1.15
 31
0.0
  0
LINE
  5
1C2
330
1A
100
AcDbEntity
  8
GUIDE
100
AcDbLine
 10
100.370159
 20
-1.15
 30
0.0
 11
108.370159
 21
-1.15
 31
0.0
  0
LINE
  5
1C3
330
1A
100
AcDbEntity
  8
GUIDE
100
AcDbLine
 10
108.370159
 20
-1.15
 30
0.0
 11
108.370159
 21
-41.15
 31
0.0
  0
LINE
  5
1C4
330
1A
100
AcDbEntity
  8
GUIDE
100
AcDbLine
 10
108.370159
 20
-41.15
 30
0.0
 11
100.370159
 21
-41.15
 31
0.0
  0
ENDSEC
  0
SECTION
  2
OBJECTS
  0
DICTIONARY
  5
C
330
0
100
AcDbDictionary
  3
ACAD_GROUP
350
D
  3
ACAD_LAYOUT
350
1C6
  3
ACAD_MLINESTYLE
350
E
1001
ACAD
1000
TREAT_AS_HARD
1070
     0
  0
DICTIONARY
  5
284
330
1C5
100
AcDbDictionary
  3
ACAD_XREC_ROUNDTRIP
360
285
  0
DICTIONARY
  5
D
102
{ACAD_REACTORS
330
C
102
}
330
C
100
AcDbDictionary
1001
ACAD
1000
TREAT_AS_HARD
1070
     0
  0
DICTIONARY
  5
1C6
102
{ACAD_REACTORS
330
C
102
}
330
C
100
AcDbDictionary
1001
ACAD
1000
TREAT_AS_HARD
1070
     0
  0
DICTIONARY
  5
E
102
{ACAD_REACTORS
330
C
102
}
330
C
100
AcDbDictionary
  3
STANDARD
350
13
1001
ACAD
1000
TREAT_AS_HARD
1070
     0
  0
XRECORD
  5
285
102
{ACAD_REACTORS
330
284
102
}
330
284
100
AcDbXrecord
102
UCS
 74
     0
 71
     1
 10
0.0
 20
0.0
 30
0.0
 10
1.0
 20
0.0
 30
0.0
 10
0.0
 20
1.0
 30
0.0
146
0.0
 79
     0
102
VIEW
281
     0
  0
MLINESTYLE
  5
13
102
{ACAD_REACTORS
330
E
102
}
330
E
100
AcDbMlineStyle
  2
STANDARD
 70
     0
  3

 62
     0
 51
90.0
 52
90.0
 71
     2
 49
0.5
 62
   256
  6
BYLAYER
 49
-0.5
 62
   256
  6
BYLAYER
  0
ENDSEC
  0
EOF
