  0
SECTION
  2
HEADER
  9
$ACADVER
  1
AC1012
  9
$DWGCODEPAGE
  3
ansi_1252
  9
$INSBASE
 10
0.0
 20
0.0
 30
0.0
  9
$EXTMIN
 10
-1.743192
 20
-75.32842700000001
 30
0.0
  9
$EXTMAX
 10
132.613959
 20
47.831439
 30
0.0
  9
$LIMMIN
 10
0.0
 20
0.0
  9
$LIMMAX
 10
12.0
 20
9.0
  9
$ORTHOMODE
 70
     1
  9
$REGENMODE
 70
     1
  9
$FILLMODE
 70
     1
  9
$QTEXTMODE
 70
     0
  9
$MIRRTEXT
 70
     1
  9
$DRAGMODE
 70
     2
  9
$LTSCALE
 40
1.0
  9
$OSMODE
 70
    37
  9
$ATTMODE
 70
     1
  9
$TEXTSIZE
 40
0.2
  9
$TRACEWID
 40
0.05
  9
$TEXTSTYLE
  7
STANDARD
  9
$CLAYER
  8
0
  9
$CELTYPE
  6
BYLAYER
  9
$CECOLOR
 62
   256
  9
$CELTSCALE
 40
1.0
  9
$DELOBJ
 70
     1
  9
$DISPSILH
 70
     0
  9
$DIMSCALE
 40
1.0
  9
$DIMASZ
 40
0.18
  9
$DIMEXO
 40
0.0625
  9
$DIMDLI
 40
0.38
  9
$DIMRND
 40
0.0
  9
$DIMDLE
 40
0.0
  9
$DIMEXE
 40
0.18
  9
$DIMTP
 40
0.0
  9
$DIMTM
 40
0.0
  9
$DIMTXT
 40
0.18
  9
$DIMCEN
 40
0.09
  9
$DIMTSZ
 40
0.0
  9
$DIMTOL
 70
     0
  9
$DIMLIM
 70
     0
  9
$DIMTIH
 70
     1
  9
$DIMTOH
 70
     1
  9
$DIMSE1
 70
     0
  9
$DIMSE2
 70
     0
  9
$DIMTAD
 70
     0
  9
$DIMZIN
 70
     0
  9
$DIMBLK
  1

  9
$DIMASO
 70
     1
  9
$DIMSHO
 70
     1
  9
$DIMPOST
  1

  9
$DIMAPOST
  1

  9
$DIMALT
 70
     0
  9
$DIMALTD
 70
     2
  9
$DIMALTF
 40
25.4
  9
$DIMLFAC
 40
1.0
  9
$DIMTOFL
 70
     0
  9
$DIMTVP
 40
0.0
  9
$DIMTIX
 70
     0
  9
$DIMSOXD
 70
     0
  9
$DIMSAH
 70
     0
  9
$DIMBLK1
  1

  9
$DIMBLK2
  1

  9
$DIMSTYLE
  2
STANDARD
  9
$DIMCLRD
 70
     0
  9
$DIMCLRE
 70
     0
  9
$DIMCLRT
 70
     0
  9
$DIMTFAC
 40
1.0
  9
$DIMGAP
 40
0.09
  9
$DIMJUST
 70
     0
  9
$DIMSD1
 70
     0
  9
$DIMSD2
 70
     0
  9
$DIMTOLJ
 70
     1
  9
$DIMTZIN
 70
     0
  9
$DIMALTZ
 70
     0
  9
$DIMALTTZ
 70
     0
  9
$DIMFIT
 70
     3
  9
$DIMUPT
 70
     0
  9
$DIMUNIT
 70
     2
  9
$DIMDEC
 70
     4
  9
$DIMTDEC
 70
     4
  9
$DIMALTU
 70
     2
  9
$DIMALTTD
 70
     2
  9
$DIMTXSTY
  7
STANDARD
  9
$DIMAUNIT
 70
     0
  9
$LUNITS
 70
     2
  9
$LUPREC
 70
     4
  9
$SKETCHINC
 40
0.1
  9
$FILLETRAD
 40
0.0
  9
$AUNITS
 70
     0
  9
$AUPREC
 70
     0
  9
$MENU
  1
acad
  9
$ELEVATION
 40
0.0
  9
$PELEVATION
 40
0.0
  9
$THICKNESS
 40
0.0
  9
$LIMCHECK
 70
     0
  9
$CHAMFERA
 40
0.0
  9
$CHAMFERB
 40
0.0
  9
$CHAMFERC
 40
0.0
  9
$CHAMFERD
 40
0.0
  9
$SKPOLY
 70
     0
  9
$TDCREATE
 40
2447893.083333334
  9
$TDUPDATE
 40
2447893.083333334
  9
$TDINDWG
 40
0.002793287
  9
$TDUSRTIMER
 40
0.002793287
  9
$USRTIMER
 70
     1
  9
$ANGBASE
 50
0.0
  9
$ANGDIR
 70
     0
  9
$PDMODE
 70
     0
  9
$PDSIZE
 40
0.0
  9
$PLINEWID
 40
0.0
  9
$COORDS
 70
     1
  9
$SPLFRAME
 70
     0
  9
$SPLINETYPE
 70
     6
  9
$SPLINESEGS
 70
     8
  9
$ATTDIA
 70
     0
  9
$ATTREQ
 70
     1
  9
$HANDLING
 70
     1
  9
$HANDSEED
  5
230
  9
$SURFTAB1
 70
     6
  9
$SURFTAB2
 70
     6
  9
$SURFTYPE
 70
     6
  9
$SURFU
 70
     6
  9
$SURFV
 70
     6
  9
$UCSNAME
  2

  9
$UCSORG
 10
0.0
 20
0.0
 30
0.0
  9
$UCSXDIR
 10
1.0
 20
0.0
 30
0.0
  9
$UCSYDIR
 10
0.0
 20
1.0
 30
0.0
  9
$PUCSNAME
  2

  9
$PUCSORG
 10
0.0
 20
0.0
 30
0.0
  9
$PUCSXDIR
 10
1.0
 20
0.0
 30
0.0
  9
$PUCSYDIR
 10
0.0
 20
1.0
 30
0.0
  9
$USERI1
 70
     0
  9
$USERI2
 70
     0
  9
$USERI3
 70
     0
  9
$USERI4
 70
     0
  9
$USERI5
 70
     0
  9
$USERR1
 40
0.0
  9
$USERR2
 40
0.0
  9
$USERR3
 40
0.0
  9
$USERR4
 40
0.0
  9
$USERR5
 40
0.0
  9
$WORLDVIEW
 70
     1
  9
$SHADEDGE
 70
     3
  9
$SHADEDIF
 70
    70
  9
$TILEMODE
 70
     1
  9
$MAXACTVP
 70
    16
  9
$PINSBASE
 10
0.0
 20
0.0
 30
0.0
  9
$PLIMCHECK
 70
     0
  9
$PEXTMIN
 10
1.000000000000000E+20
 20
1.000000000000000E+20
 30
1.000000000000000E+20
  9
$PEXTMAX
 10
-1.000000000000000E+20
 20
-1.000000000000000E+20
 30
-1.000000000000000E+20
  9
$PLIMMIN
 10
0.0
 20
0.0
  9
$PLIMMAX
 10
12.0
 20
9.0
  9
$UNITMODE
 70
     0
  9
$VISRETAIN
 70
     0
  9
$PLINEGEN
 70
     0
  9
$PSLTSCALE
 70
     1
  9
$TREEDEPTH
 70
  3020
  9
$PICKSTYLE
 70
     1
  9
$CMLSTYLE
  2
STANDARD
  9
$CMLJUST
 70
     0
  9
$CMLSCALE
 40
1.0
  9
$SAVEIMAGES
 70
     1
  0
ENDSEC
  0
SECTION
  2
CLASSES
  0
CLASS
  1
XRECORD
  2
AcDbXrecord
  3
AutoCAD 2000
 90
    32768
280
     0
281
     0
  0
CLASS
  1
LWPOLYLINE
  2
AcDbPolyline
  3
AutoCAD 2000
 90
    32768
280
     0
281
     1
  0
CLASS
  1
HATCH
  2
AcDbHatch
  3
AutoCAD 2000
 90
    32768
280
     0
281
     1
  0
CLASS
  1
ACDBPLACEHOLDER
  2
AcDbPlaceHolder
  3
ObjectDBX Classes
 90
        0
280
     0
281
     0
  0
CLASS
  1
LAYOUT
  2
AcDbLayout
  3
ObjectDBX Classes
 90
        0
280
     0
281
     0
  0
ENDSEC
  0
SECTION
  2
TABLES
  0
TABLE
  2
VPORT
  5
8
330
0
100
AcDbSymbolTable
 70
     1
  0
VPORT
  5
187
102
{ACAD_XDICTIONARY
360
22E
102
}
330
8
100
AcDbSymbolTableRecord
100
AcDbViewportTableRecord
  2
*ACTIVE
 70
     0
 10
0.0
 20
0.0
 11
1.0
 21
1.0
 12
117.052092
 22
-13.3875
 13
0.0
 23
0.0
 14
1.0
 24
1.0
 15
0.0
 25
0.0
 16
0.0
 26
0.0
 36
1.0
 17
0.0
 27
0.0
 37
0.0
 40
122.225
 41
1.915354
 42
50.0
 43
0.0
 44
0.0
 50
0.0
 51
0.0
 71
     0
 72
   100
 73
     1
 74
     1
 75
     0
 76
     0
 77
     0
 78
     0
  0
ENDTAB
  0
TABLE
  2
LTYPE
  5
5
330
0
100
AcDbSymbolTable
 70
     1
  0
LTYPE
  5
14
330
5
100
AcDbSymbolTableRecord
100
AcDbLinetypeTableRecord
  2
BYBLOCK
 70
     0
  3

 72
    65
 73
     0
 40
0.0
  0
LTYPE
  5
15
330
5
100
AcDbSymbolTableRecord
100
AcDbLinetypeTableRecord
  2
BYLAYER
 70
     0
  3

 72
    65
 73
     0
 40
0.0
  0
LTYPE
  5
16
330
5
100
AcDbSymbolTableRecord
100
AcDbLinetypeTableRecord
  2
CONTINUOUS
 70
     0
  3
Solid line
 72
    65
 73
     0
 40
0.0
  0
ENDTAB
  0
TABLE
  2
LAYER
  5
2
330
0
100
AcDbSymbolTable
 70
     2
  0
LAYER
  5
F
330
2
100
AcDbSymbolTableRecord
100
AcDbLayerTableRecord
  2
0
 70
     0
 62
     7
  6
CONTINUOUS
  0
LAYER
  5
3F
330
2
100
AcDbSymbolTableRecord
100
AcDbLayerTableRecord
  2
GUIDE
 70
     0
 62
     7
  6
CONTINUOUS
  0
ENDTAB
  0
TABLE
  2
STYLE
  5
3
330
0
100
AcDbSymbolTable
 70
     1
  0
STYLE
  5
10
330
3
100
AcDbSymbolTableRecord
100
AcDbTextStyleTableRecord
  2
STANDARD
 70
     0
 40
0.0
 41
1.0
 50
0.0
 71
     0
 42
0.2
  3
txt
  4

  0
ENDTAB
  0
TABLE
  2
VIEW
  5
6
330
0
100
AcDbSymbolTable
 70
     0
  0
ENDTAB
  0
TABLE
  2
UCS
  5
7
330
0
100
AcDbSymbolTable
 70
     0
  0
ENDTAB
  0
TABLE
  2
APPID
  5
9
330
0
100
AcDbSymbolTable
 70
     1
  0
APPID
  5
11
330
9
100
AcDbSymbolTableRecord
100
AcDbRegAppTableRecord
  2
ACAD
 70
     0
  0
ENDTAB
  0
TABLE
  2
DIMSTYLE
  5
A
330
0
100
AcDbSymbolTable
 70
     1
  0
DIMSTYLE
105
1D
330
A
100
AcDbSymbolTableRecord
100
AcDbDimStyleTableRecord
  2
STANDARD
 70
     0
  3

  4

  5

  6

  7

 40
1.0
 41
0.18
 42
0.0625
 43
0.38
 44
0.18
 45
0.0
 46
0.0
 47
0.0
 48
0.0
140
0.18
141
0.09
142
0.0
143
25.4
144
1.0
145
0.0
146
1.0
147
0.09
 71
     0
 72
     0
 73
     1
 74
     1
 75
     0
 76
     0
 77
     0
 78
     0
170
     0
171
     2
172
     0
173
     0
174
     0
175
     0
176
     0
177
     0
178
     0
270
     2
271
     4
272
     4
273
     2
274
     2
340
10
275
     0
280
     0
281
     0
282
     0
283
     1
284
     0
285
     0
286
     0
287
     3
288
     0
  0
ENDTAB
  0
TABLE
  2
BLOCK_RECORD
  5
1
330
0
100
AcDbSymbolTable
 70
     1
  0
BLOCK_RECORD
  5
1A
330
1
100
AcDbSymbolTableRecord
100
AcDbBlockTableRecord
  2
*MODEL_SPACE
  0
BLOCK_RECORD
  5
17
330
1
100
AcDbSymbolTableRecord
100
AcDbBlockTableRecord
  2
*PAPER_SPACE
  0
BLOCK_RECORD
  5
28
330
1
100
AcDbSymbolTableRecord
100
AcDbBlockTableRecord
  2
A$C3232
  0
ENDTAB
  0
ENDSEC
  0
SECTION
  2
BLOCKS
  0
BLOCK
  5
1B
330
1A
100
AcDbEntity
  8
0
100
AcDbBlockBegin
  2
*MODEL_SPACE
 70
     0
 71
     0
 10
0.0
 20
0.0
 30
0.0
  3
*MODEL_SPACE
  1

  0
ENDBLK
  5
1C
330
1A
100
AcDbEntity
  8
0
100
AcDbBlockEnd
  0
BLOCK
  5
18
330
17
100
AcDbEntity
 67
     1
  8
0
100
AcDbBlockBegin
  2
*PAPER_SPACE
 70
     0
 71
     0
 10
0.0
 20
0.0
 30
0.0
  3
*PAPER_SPACE
  1

  0
ENDBLK
  5
19
330
17
100
AcDbEntity
 67
     1
  8
0
100
AcDbBlockEnd
  0
BLOCK
  5
3D
330
28
100
AcDbEntity
  8
0
100
AcDbBlockBegin
  2
A$C3232
 70
     0
 71
     0
 10
0.0
 20
0.0
 30
0.0
  3
A$C3232
  1

  0
POLYLINE
  5
29
330
28
100
AcDbEntity
  8
0
100
AcDb2dPolyline
 66
     1
 10
0.0
 20
0.0
 30
0.0
 70
     1
  0
VERTEX
  5
21D
330
29
100
AcDbEntity
  8
0
100
AcDbVertex
100
AcDb2dVertex
 10
-18.337871
 20
25.143749
 30
0.0
  0
VERTEX
  5
21E
330
29
100
AcDbEntity
  8
0
100
AcDbVertex
100
AcDb2dVertex
 10
-18.337871
 20
55.643749
 30
0.0
 42
-0.414214
  0
VERTEX
  5
21F
330
29
100
AcDbEntity
  8
0
100
AcDbVertex
100
AcDb2dVertex
 10
-17.337871
 20
56.643749
 30
0.0
  0
VERTEX
  5
220
330
29
100
AcDbEntity
  8
0
100
AcDbVertex
100
AcDb2dVertex
 10
-7.837871
 20
56.643749
 30
0.0
 42
-0.414214
  0
VERTEX
  5
221
330
29
100
AcDbEntity
  8
0
100
AcDbVertex
100
AcDb2dVertex
 10
-6.837871
 20
55.643749
 30
0.0
  0
VERTEX
  5
222
330
29
100
AcDbEntity
  8
0
100
AcDbVertex
100
AcDb2dVertex
 10
-6.837871
 20
25.143749
 30
0.0
 42
-0.414214
  0
VERTEX
  5
223
330
29
100
AcDbEntity
  8
0
100
AcDbVertex
100
AcDb2dVertex
 10
-7.837871
 20
24.143749
 30
0.0
  0
VERTEX
  5
224
330
29
100
AcDbEntity
  8
0
100
AcDbVertex
100
AcDb2dVertex
 10
-17.337871
 20
24.143749
 30
0.0
 42
-0.414214
  0
SEQEND
  5
21C
330
29
100
AcDbEntity
  8
0
  0
POLYLINE
  5
33
330
28
100
AcDbEntity
  8
0
100
AcDb2dPolyline
 66
     1
 10
0.0
 20
0.0
 30
0.0
 70
     1
  0
VERTEX
  5
226
330
33
100
AcDbEntity
  8
0
100
AcDbVertex
100
AcDb2dVertex
 10
-18.337871
 20
-7.356251
 30
0.0
  0
VERTEX
  5
227
330
33
100
AcDbEntity
  8
0
100
AcDbVertex
100
AcDb2dVertex
 10
-18.337871
 20
23.143749
 30
0.0
 42
-0.414214
  0
VERTEX
  5
228
330
33
100
AcDbEntity
  8
0
100
AcDbVertex
100
AcDb2dVertex
 10
-17.337871
 20
24.143749
 30
0.0
  0
VERTEX
  5
229
330
33
100
AcDbEntity
  8
0
100
AcDbVertex
100
AcDb2dVertex
 10
-7.837871
 20
24.143749
 30
0.0
 42
-0.414214
  0
VERTEX
  5
22A
330
33
100
AcDbEntity
  8
0
100
AcDbVertex
100
AcDb2dVertex
 10
-6.837871
 20
23.143749
 30
0.0
  0
VERTEX
  5
22B
330
33
100
AcDbEntity
  8
0
100
AcDbVertex
100
AcDb2dVertex
 10
-6.837871
 20
-7.356251
 30
0.0
 42
-0.414214
  0
VERTEX
  5
22C
330
33
100
AcDbEntity
  8
0
100
AcDbVertex
100
AcDb2dVertex
 10
-7.837871
 20
-8.356251
 30
0.0
  0
VERTEX
  5
22D
330
33
100
AcDbEntity
  8
0
100
AcDbVertex
100
AcDb2dVertex
 10
-17.337871
 20
-8.356251
 30
0.0
 42
-0.414214
  0
SEQEND
  5
225
330
33
100
AcDbEntity
  8
0
  0
ENDBLK
  5
3E
330
28
100
AcDbEntity
  8
0
100
AcDbBlockEnd
  0
ENDSEC
  0
SECTION
  2
ENTITIES
  0
LINE
  5
ED
330
1A
100
AcDbEntity
  8
GUIDE
100
AcDbLine
 10
74.3
 20
45.775
 30
0.0
 11
74.3
 21
31.175
 31
0.0
  0
LINE
  5
EE
330
1A
100
AcDbEntity
  8
GUIDE
100
AcDbLine
 10
6.0
 20
45.775
 30
0.0
 11
74.3
 21
45.775
 31
0.0
  0
LINE
  5
EF
330
1A
100
AcDbEntity
  8
GUIDE
100
AcDbLine
 10
16.2
 20
17.875
 30
0.0
 11
64.09999999999999
 21
17.875
 31
0.0
  0
ARC
  5
F0
330
1A
100
AcDbEntity
  8
GUIDE
100
AcDbCircle
 10
74.3
 20
39.775
 30
0.0
 40
6.0
100
AcDbArc
 50
320.645827
 51
90.0
  0
LINE
  5
F1
330
1A
100
AcDbEntity
  8
GUIDE
100
AcDbLine
 10
64.09999999999999
 20
17.875
 30
0.0
 11
78.939446
 21
35.970327
 31
0.0
  0
ARC
  5
F2
330
1A
100
AcDbEntity
  8
GUIDE
100
AcDbCircle
 10
6.0
 20
39.775
 30
0.0
 40
6.0
100
AcDbArc
 50
90.0
 51
219.354173
  0
LINE
  5
F3
330
1A
100
AcDbEntity
  8
GUIDE
100
AcDbLine
 10
16.2
 20
17.875
 30
0.0
 11
1.360554
 21
35.970327
 31
0.0
  0
LINE
  5
F4
330
1A
100
AcDbEntity
  8
GUIDE
100
AcDbLine
 10
5.29306
 20
31.175
 30
0.0
 11
75.00694
 21
31.175
 31
0.0
  0
ARC
  5
F5
330
1A
100
AcDbEntity
  8
GUIDE
100
AcDbCircle
 10
8.9
 20
41.975
 30
0.0
 40
5.75
100
AcDbArc
 50
41.366225
 51
141.446523
  0
ARC
  5
F6
330
1A
100
AcDbEntity
  8
GUIDE
100
AcDbCircle
 10
21.0
 20
41.975
 30
0.0
 40
5.75
100
AcDbArc
 50
41.366225
 51
138.633775
  0
ARC
  5
F7
330
1A
100
AcDbEntity
  8
GUIDE
100
AcDbCircle
 10
33.0
 20
41.975
 30
0.0
 40
5.75
100
AcDbArc
 50
41.366225
 51
138.633775
  0
ARC
  5
F8
330
1A
100
AcDbEntity
  8
GUIDE
100
AcDbCircle
 10
45.1
 20
41.975
 30
0.0
 40
5.75
100
AcDbArc
 50
41.366225
 51
138.633775
  0
ARC
  5
F9
330
1A
100
AcDbEntity
  8
GUIDE
100
AcDbCircle
 10
57.2
 20
41.975
 30
0.0
 40
5.75
100
AcDbArc
 50
41.366225
 51
138.633775
  0
ARC
  5
FA
330
1A
100
AcDbEntity
  8
GUIDE
100
AcDbCircle
 10
69.3
 20
41.975
 30
0.0
 40
5.75
100
AcDbArc
 50
41.366225
 51
138.633775
  0
LINE
  5
FB
330
1A
100
AcDbEntity
  8
GUIDE
100
AcDbLine
 10
6.0
 20
-4.25
 30
0.0
 11
80.3
 21
-4.25
 31
0.0
  0
LINE
  5
FC
330
1A
100
AcDbEntity
  8
GUIDE
100
AcDbLine
 10
6.0
 20
-70.25
 30
0.0
 11
80.3
 21
-70.25
 31
0.0
  0
LINE
  5
FD
330
1A
100
AcDbEntity
  8
GUIDE
100
AcDbLine
 10
0.0
 20
0.0
 30
0.0
 11
74.3
 21
0.0
 31
0.0
  0
LINE
  5
FE
330
1A
100
AcDbEntity
  8
GUIDE
100
AcDbLine
 10
0.0
 20
-74.5
 30
0.0
 11
74.3
 21
-74.5
 31
0.0
  0
LINE
  5
FF
330
1A
100
AcDbEntity
  8
GUIDE
100
AcDbLine
 10
0.0
 20
-74.5
 30
0.0
 11
0.0
 21
-72.375
 31
0.0
  0
LINE
  5
100
330
1A
100
AcDbEntity
  8
GUIDE
100
AcDbLine
 10
80.3
 20
-2.125
 30
0.0
 11
80.3
 21
-4.25
 31
0.0
  0
LINE
  5
101
330
1A
100
AcDbEntity
  8
GUIDE
100
AcDbLine
 10
74.3
 20
0.0
 30
0.0
 11
74.3
 21
-2.125
 31
0.0
  0
LINE
  5
102
330
1A
100
AcDbEntity
  8
GUIDE
100
AcDbLine
 10
6.0
 20
-2.125
 30
0.0
 11
6.0
 21
-4.25
 31
0.0
  0
LINE
  5
103
330
1A
100
AcDbEntity
  8
GUIDE
100
AcDbLine
 10
0.0
 20
-2.125
 30
0.0
 11
6.0
 21
-2.125
 31
0.0
  0
LINE
  5
104
330
1A
100
AcDbEntity
  8
GUIDE
100
AcDbLine
 10
0.0
 20
-72.375
 30
0.0
 11
6.0
 21
-72.375
 31
0.0
  0
LINE
  5
105
330
1A
100
AcDbEntity
  8
GUIDE
100
AcDbLine
 10
0.0
 20
-2.125
 30
0.0
 11
0.0
 21
0.0
 31
0.0
  0
LINE
  5
106
330
1A
100
AcDbEntity
  8
GUIDE
100
AcDbLine
 10
6.0
 20
-70.25
 30
0.0
 11
6.0
 21
-72.375
 31
0.0
  0
LINE
  5
107
330
1A
100
AcDbEntity
  8
GUIDE
100
AcDbLine
 10
74.3
 20
-2.125
 30
0.0
 11
80.3
 21
-2.125
 31
0.0
  0
LINE
  5
108
330
1A
100
AcDbEntity
  8
GUIDE
100
AcDbLine
 10
74.3
 20
-72.375
 30
0.0
 11
74.3
 21
-74.5
 31
0.0
  0
LINE
  5
109
330
1A
100
AcDbEntity
  8
GUIDE
100
AcDbLine
 10
80.3
 20
-70.25
 30
0.0
 11
80.3
 21
-72.375
 31
0.0
  0
LINE
  5
10A
330
1A
100
AcDbEntity
  8
GUIDE
100
AcDbLine
 10
74.3
 20
-72.375
 30
0.0
 11
80.3
 21
-72.375
 31
0.0
  0
LINE
  5
10B
330
1A
100
AcDbEntity
  8
GUIDE
100
AcDbLine
 10
9.9
 20
-4.25
 30
0.0
 11
9.9
 21
0.0
 31
0.0
  0
LINE
  5
10C
330
1A
100
AcDbEntity
  8
GUIDE
100
AcDbLine
 10
7.9
 20
-4.25
 30
0.0
 11
7.9
 21
0.0
 31
0.0
  0
LINE
  5
10D
330
1A
100
AcDbEntity
  8
GUIDE
100
AcDbLine
 10
20.0
 20
-4.25
 30
0.0
 11
20.0
 21
0.0
 31
0.0
  0
LINE
  5
10E
330
1A
100
AcDbEntity
  8
GUIDE
100
AcDbLine
 10
22.0
 20
-4.25
 30
0.0
 11
22.0
 21
0.0
 31
0.0
  0
LINE
  5
10F
330
1A
100
AcDbEntity
  8
GUIDE
100
AcDbLine
 10
32.0
 20
-4.25
 30
0.0
 11
32.0
 21
0.0
 31
0.0
  0
LINE
  5
110
330
1A
100
AcDbEntity
  8
GUIDE
100
AcDbLine
 10
34.0
 20
-4.25
 30
0.0
 11
34.0
 21
0.0
 31
0.0
  0
LINE
  5
111
330
1A
100
AcDbEntity
  8
GUIDE
100
AcDbLine
 10
44.1
 20
-4.25
 30
0.0
 11
44.1
 21
0.0
 31
0.0
  0
LINE
  5
112
330
1A
100
AcDbEntity
  8
GUIDE
100
AcDbLine
 10
46.1
 20
-4.25
 30
0.0
 11
46.1
 21
0.0
 31
0.0
  0
LINE
  5
113
330
1A
100
AcDbEntity
  8
GUIDE
100
AcDbLine
 10
56.2
 20
-4.25
 30
0.0
 11
56.2
 21
0.0
 31
0.0
  0
LINE
  5
114
330
1A
100
AcDbEntity
  8
GUIDE
100
AcDbLine
 10
58.2
 20
-4.25
 30
0.0
 11
58.2
 21
0.0
 31
0.0
  0
LINE
  5
115
330
1A
100
AcDbEntity
  8
GUIDE
100
AcDbLine
 10
68.3
 20
-4.25
 30
0.0
 11
68.3
 21
0.0
 31
0.0
  0
LINE
  5
116
330
1A
100
AcDbEntity
  8
GUIDE
100
AcDbLine
 10
70.3
 20
-4.25
 30
0.0
 11
70.3
 21
0.0
 31
0.0
  0
LINE
  5
117
330
1A
100
AcDbEntity
  8
GUIDE
100
AcDbLine
 10
68.3
 20
-74.5
 30
0.0
 11
68.3
 21
-70.25
 31
0.0
  0
LINE
  5
118
330
1A
100
AcDbEntity
  8
GUIDE
100
AcDbLine
 10
70.3
 20
-74.5
 30
0.0
 11
70.3
 21
-70.25
 31
0.0
  0
LINE
  5
119
330
1A
100
AcDbEntity
  8
GUIDE
100
AcDbLine
 10
56.2
 20
-70.25
 30
0.0
 11
56.2
 21
-74.5
 31
0.0
  0
LINE
  5
11A
330
1A
100
AcDbEntity
  8
GUIDE
100
AcDbLine
 10
58.2
 20
-70.25
 30
0.0
 11
58.2
 21
-74.5
 31
0.0
  0
LINE
  5
11B
330
1A
100
AcDbEntity
  8
GUIDE
100
AcDbLine
 10
46.1
 20
-70.25
 30
0.0
 11
46.1
 21
-74.5
 31
0.0
  0
LINE
  5
11C
330
1A
100
AcDbEntity
  8
GUIDE
100
AcDbLine
 10
44.1
 20
-70.25
 30
0.0
 11
44.1
 21
-74.5
 31
0.0
  0
LINE
  5
11D
330
1A
100
AcDbEntity
  8
GUIDE
100
AcDbLine
 10
32.0
 20
-74.5
 30
0.0
 11
32.0
 21
-70.25
 31
0.0
  0
LINE
  5
11E
330
1A
100
AcDbEntity
  8
GUIDE
100
AcDbLine
 10
34.0
 20
-74.5
 30
0.0
 11
34.0
 21
-70.25
 31
0.0
  0
LINE
  5
11F
330
1A
100
AcDbEntity
  8
GUIDE
100
AcDbLine
 10
22.0
 20
-70.25
 30
0.0
 11
22.0
 21
-74.5
 31
0.0
  0
LINE
  5
120
330
1A
100
AcDbEntity
  8
GUIDE
100
AcDbLine
 10
20.0
 20
-70.25
 30
0.0
 11
20.0
 21
-74.5
 31
0.0
  0
LINE
  5
121
330
1A
100
AcDbEntity
  8
GUIDE
100
AcDbLine
 10
9.9
 20
-70.25
 30
0.0
 11
9.9
 21
-74.5
 31
0.0
  0
LINE
  5
122
330
1A
100
AcDbEntity
  8
GUIDE
100
AcDbLine
 10
7.9
 20
-70.25
 30
0.0
 11
7.9
 21
-74.5
 31
0.0
  0
POLYLINE
  5
123
330
1A
100
AcDbEntity
  8
GUIDE
100
AcDb2dPolyline
 66
     1
 10
0.0
 20
0.0
 30
0.0
 70
     1
  0
VERTEX
  5
1F1
330
123
100
AcDbEntity
  8
GUIDE
100
AcDbVertex
100
AcDb2dVertex
 10
54.7
 20
-5.25
 30
0.0
  0
VERTEX
  5
1F2
330
123
100
AcDbEntity
  8
GUIDE
100
AcDbVertex
100
AcDb2dVertex
 10
54.7
 20
-4.25
 30
0.0
  0
VERTEX
  5
1F3
330
123
100
AcDbEntity
  8
GUIDE
100
AcDbVertex
100
AcDb2dVertex
 10
59.7
 20
-4.25
 30
0.0
  0
VERTEX
  5
1F4
330
123
100
AcDbEntity
  8
GUIDE
100
AcDbVertex
100
AcDb2dVertex
 10
59.7
 20
-5.25
 30
0.0
  0
SEQEND
  5
1F0
330
123
100
AcDbEntity
  8
GUIDE
  0
LINE
  5
129
330
1A
100
AcDbEntity
  8
GUIDE
100
AcDbLine
 10
66.8
 20
-4.25
 30
0.0
 11
66.8
 21
-5.25
 31
0.0
  0
LINE
  5
12A
330
1A
100
AcDbEntity
  8
GUIDE
100
AcDbLine
 10
71.8
 20
-5.25
 30
0.0
 11
71.8
 21
-4.25
 31
0.0
  0
LINE
  5
12B
330
1A
100
AcDbEntity
  8
GUIDE
100
AcDbLine
 10
71.8
 20
-4.25
 30
0.0
 11
66.8
 21
-4.25
 31
0.0
  0
POLYLINE
  5
12C
330
1A
100
AcDbEntity
  8
GUIDE
100
AcDb2dPolyline
 66
     1
 10
0.0
 20
0.0
 30
0.0
 70
     1
  0
VERTEX
  5
1F6
330
12C
100
AcDbEntity
  8
GUIDE
100
AcDbVertex
100
AcDb2dVertex
 10
30.5
 20
-5.25
 30
0.0
  0
VERTEX
  5
1F7
330
12C
100
AcDbEntity
  8
GUIDE
100
AcDbVertex
100
AcDb2dVertex
 10
30.5
 20
-4.25
 30
0.0
  0
VERTEX
  5
1F8
330
12C
100
AcDbEntity
  8
GUIDE
100
AcDbVertex
100
AcDb2dVertex
 10
35.5
 20
-4.25
 30
0.0
  0
VERTEX
  5
1F9
330
12C
100
AcDbEntity
  8
GUIDE
100
AcDbVertex
100
AcDb2dVertex
 10
35.5
 20
-5.25
 30
0.0
  0
SEQEND
  5
1F5
330
12C
100
AcDbEntity
  8
GUIDE
  0
LINE
  5
132
330
1A
100
AcDbEntity
  8
GUIDE
100
AcDbLine
 10
18.5
 20
-4.25
 30
0.0
 11
18.5
 21
-5.25
 31
0.0
  0
LINE
  5
133
330
1A
100
AcDbEntity
  8
GUIDE
100
AcDbLine
 10
23.5
 20
-5.25
 30
0.0
 11
23.5
 21
-4.25
 31
0.0
  0
LINE
  5
134
330
1A
100
AcDbEntity
  8
GUIDE
100
AcDbLine
 10
23.5
 20
-4.25
 30
0.0
 11
18.5
 21
-4.25
 31
0.0
  0
POLYLINE
  5
135
330
1A
100
AcDbEntity
  8
GUIDE
100
AcDb2dPolyline
 66
     1
 10
0.0
 20
0.0
 30
0.0
 70
     1
  0
VERTEX
  5
1FB
330
135
100
AcDbEntity
  8
GUIDE
100
AcDbVertex
100
AcDb2dVertex
 10
6.4
 20
-5.25
 30
0.0
  0
VERTEX
  5
1FC
330
135
100
AcDbEntity
  8
GUIDE
100
AcDbVertex
100
AcDb2dVertex
 10
6.4
 20
-4.25
 30
0.0
  0
VERTEX
  5
1FD
330
135
100
AcDbEntity
  8
GUIDE
100
AcDbVertex
100
AcDb2dVertex
 10
11.4
 20
-4.25
 30
0.0
  0
VERTEX
  5
1FE
330
135
100
AcDbEntity
  8
GUIDE
100
AcDbVertex
100
AcDb2dVertex
 10
11.4
 20
-5.25
 30
0.0
  0
SEQEND
  5
1FA
330
135
100
AcDbEntity
  8
GUIDE
  0
LINE
  5
13B
330
1A
100
AcDbEntity
  8
GUIDE
100
AcDbLine
 10
42.6
 20
-4.25
 30
0.0
 11
42.6
 21
-5.25
 31
0.0
  0
LINE
  5
13C
330
1A
100
AcDbEntity
  8
GUIDE
100
AcDbLine
 10
47.6
 20
-5.25
 30
0.0
 11
47.6
 21
-4.25
 31
0.0
  0
LINE
  5
13D
330
1A
100
AcDbEntity
  8
GUIDE
100
AcDbLine
 10
47.6
 20
-4.25
 30
0.0
 11
42.6
 21
-4.25
 31
0.0
  0
LINE
  5
13E
330
1A
100
AcDbEntity
  8
GUIDE
100
AcDbLine
 10
18.5
 20
-5.25
 30
0.0
 11
23.5
 21
-5.25
 31
0.0
  0
LINE
  5
13F
330
1A
100
AcDbEntity
  8
GUIDE
100
AcDbLine
 10
42.6
 20
-5.25
 30
0.0
 11
47.6
 21
-5.25
 31
0.0
  0
LINE
  5
140
330
1A
100
AcDbEntity
  8
GUIDE
100
AcDbLine
 10
66.8
 20
-5.25
 30
0.0
 11
71.8
 21
-5.25
 31
0.0
  0
INSERT
  5
141
330
1A
100
AcDbEntity
  8
GUIDE
100
AcDbBlockReference
  2
A$C3232
 10
21.487871
 20
-61.893749
 30
0.0
  0
INSERT
  5
142
330
1A
100
AcDbEntity
  8
GUIDE
100
AcDbBlockReference
  2
A$C3232
 10
33.587871
 20
-61.893749
 30
0.0
  0
INSERT
  5
143
330
1A
100
AcDbEntity
  8
GUIDE
100
AcDbBlockReference
  2
A$C3232
 10
45.587871
 20
-61.893749
 30
0.0
  0
INSERT
  5
144
330
1A
100
AcDbEntity
  8
GUIDE
100
AcDbBlockReference
  2
A$C3232
 10
57.687871
 20
-61.893749
 30
0.0
  0
INSERT
  5
145
330
1A
100
AcDbEntity
  8
GUIDE
100
AcDbBlockReference
  2
A$C3232
 10
69.787871
 20
-61.893749
 30
0.0
  0
INSERT
  5
146
330
1A
100
AcDbEntity
  8
GUIDE
100
AcDbBlockReference
  2
A$C3232
 10
81.887871
 20
-61.893749
 30
0.0
  0
POLYLINE
  5
147
330
1A
100
AcDbEntity
  8
GUIDE
100
AcDb2dPolyline
 66
     1
 10
0.0
 20
0.0
 30
0.0
 70
     1
  0
VERTEX
  5
200
330
147
100
AcDbEntity
  8
GUIDE
100
AcDbVertex
100
AcDb2dVertex
 10
124.156852
 20
-5.25
 30
0.0
  0
VERTEX
  5
201
330
147
100
AcDbEntity
  8
GUIDE
100
AcDbVertex
100
AcDb2dVertex
 10
124.156852
 20
-4.75
 30
0.0
  0
VERTEX
  5
202
330
147
100
AcDbEntity
  8
GUIDE
100
AcDbVertex
100
AcDb2dVertex
 10
129.156852
 20
-4.75
 30
0.0
  0
VERTEX
  5
203
330
147
100
AcDbEntity
  8
GUIDE
100
AcDbVertex
100
AcDb2dVertex
 10
129.156852
 20
-5.25
 30
0.0
  0
SEQEND
  5
1FF
330
147
100
AcDbEntity
  8
GUIDE
  0
LINE
  5
14D
330
1A
100
AcDbEntity
  8
GUIDE
100
AcDbLine
 10
114.356852
 20
-57.5
 30
0.0
 11
114.356852
 21
-17.5
 31
0.0
  0
LINE
  5
14E
330
1A
100
AcDbEntity
  8
GUIDE
100
AcDbLine
 10
106.356852
 20
-18.5
 30
0.0
 11
102.273656
 21
-16.287068
 31
0.0
  0
ARC
  5
14F
330
1A
100
AcDbEntity
  8
GUIDE
100
AcDbCircle
 10
102.556852
 20
-15.875
 30
0.0
 40
0.5
100
AcDbArc
 50
90.0
 51
235.501061
  0
LINE
  5
150
330
1A
100
AcDbEntity
  8
GUIDE
100
AcDbLine
 10
106.356852
 20
-56.5
 30
0.0
 11
102.273656
 21
-58.712932
 31
0.0
  0
ARC
  5
151
330
1A
100
AcDbEntity
  8
GUIDE
100
AcDbCircle
 10
102.556852
 20
-59.125
 30
0.0
 40
0.5
100
AcDbArc
 50
124.498939
 51
270.0
  0
ARC
  5
152
330
1A
100
AcDbEntity
  8
GUIDE
100
AcDbCircle
 10
115.044352
 20
-18.25
 30
0.0
 40
0.8125
100
AcDbArc
 50
292.619865
 51
67.380135
  0
LINE
  5
153
330
1A
100
AcDbEntity
  8
GUIDE
100
AcDbLine
 10
115.356852
 20
-17.5
 30
0.0
 11
114.356852
 21
-17.5
 31
0.0
  0
LINE
  5
154
330
1A
100
AcDbEntity
  8
GUIDE
100
AcDbLine
 10
115.356852
 20
-19.0
 30
0.0
 11
114.356852
 21
-19.0
 31
0.0
  0
LINE
  5
155
330
1A
100
AcDbEntity
  8
GUIDE
100
AcDbLine
 10
115.356852
 20
-56.0
 30
0.0
 11
114.356852
 21
-56.0
 31
0.0
  0
LINE
  5
156
330
1A
100
AcDbEntity
  8
GUIDE
100
AcDbLine
 10
115.356852
 20
-57.5
 30
0.0
 11
114.356852
 21
-57.5
 31
0.0
  0
ARC
  5
157
330
1A
100
AcDbEntity
  8
GUIDE
100
AcDbCircle
 10
115.044352
 20
-56.75
 30
0.0
 40
0.8125
100
AcDbArc
 50
292.619865
 51
67.380135
  0
LINE
  5
158
330
1A
100
AcDbEntity
  8
GUIDE
100
AcDbLine
 10
115.356852
 20
-4.5
 30
0.0
 11
115.356852
 21
-15.375
 31
0.0
  0
LINE
  5
159
330
1A
100
AcDbEntity
  8
GUIDE
100
AcDbLine
 10
119.356852
 20
-0.5
 30
0.0
 11
130.456852
 21
-0.5
 31
0.0
  0
LINE
  5
15A
330
1A
100
AcDbEntity
  8
GUIDE
100
AcDbLine
 10
119.356852
 20
-74.5
 30
0.0
 11
130.456852
 21
-74.5
 31
0.0
  0
POLYLINE
  5
15B
330
1A
100
AcDbEntity
  8
GUIDE
100
AcDb2dPolyline
 66
     1
 10
0.0
 20
0.0
 30
0.0
  0
VERTEX
  5
205
330
15B
100
AcDbEntity
  8
GUIDE
100
AcDbVertex
100
AcDb2dVertex
 10
115.356852
 20
-59.625
 30
0.0
  0
VERTEX
  5
206
330
15B
100
AcDbEntity
  8
GUIDE
100
AcDbVertex
100
AcDb2dVertex
 10
102.556852
 20
-59.625
 30
0.0
  0
SEQEND
  5
204
330
15B
100
AcDbEntity
  8
GUIDE
  0
POLYLINE
  5
15F
330
1A
100
AcDbEntity
  8
GUIDE
100
AcDb2dPolyline
 66
     1
 10
0.0
 20
0.0
 30
0.0
  0
VERTEX
  5
208
330
15F
100
AcDbEntity
  8
GUIDE
100
AcDbVertex
100
AcDb2dVertex
 10
102.556852
 20
-15.375
 30
0.0
  0
VERTEX
  5
209
330
15F
100
AcDbEntity
  8
GUIDE
100
AcDbVertex
100
AcDb2dVertex
 10
115.356852
 20
-15.375
 30
0.0
  0
SEQEND
  5
207
330
15F
100
AcDbEntity
  8
GUIDE
  0
LINE
  5
163
330
1A
100
AcDbEntity
  8
GUIDE
100
AcDbLine
 10
115.356852
 20
-59.625
 30
0.0
 11
115.356852
 21
-70.5
 31
0.0
  0
ARC
  5
164
330
1A
100
AcDbEntity
  8
GUIDE
100
AcDbCircle
 10
129.217237
 20
-71.466692
 30
0.0
 40
1.240062
100
AcDbArc
 50
358.460834
 51
78.858783
  0
LINE
  5
165
330
1A
100
AcDbEntity
  8
GUIDE
100
AcDbLine
 10
130.456852
 20
-71.5
 30
0.0
 11
130.456852
 21
-74.5
 31
0.0
  0
LINE
  5
166
330
1A
100
AcDbEntity
  8
GUIDE
100
AcDbLine
 10
130.456852
 20
-0.5
 30
0.0
 11
130.456852
 21
-3.75
 31
0.0
  0
ARC
  5
167
330
1A
100
AcDbEntity
  8
GUIDE
100
AcDbCircle
 10
129.456852
 20
-3.75
 30
0.0
 40
1.0
100
AcDbArc
 50
270.0
 51
0.0
  0
LINE
  5
168
330
1A
100
AcDbEntity
  8
GUIDE
100
AcDbLine
 10
129.456852
 20
-4.75
 30
0.0
 11
119.856852
 21
-4.75
 31
0.0
  0
ARC
  5
169
330
1A
100
AcDbEntity
  8
GUIDE
100
AcDbCircle
 10
119.953017
 20
-5.423083
 30
0.0
 40
0.679917
100
AcDbArc
 50
98.130968
 51
208.73893
  0
LINE
  5
16A
330
1A
100
AcDbEntity
  8
GUIDE
100
AcDbLine
 10
119.356852
 20
-5.75
 30
0.0
 11
119.356852
 21
-69.25
 31
0.0
  0
ARC
  5
16B
330
1A
100
AcDbEntity
  8
GUIDE
100
AcDbCircle
 10
119.953017
 20
-69.576917
 30
0.0
 40
0.679917
100
AcDbArc
 50
151.26107
 51
261.869032
  0
LINE
  5
16C
330
1A
100
AcDbEntity
  8
GUIDE
100
AcDbLine
 10
119.856852
 20
-70.25
 30
0.0
 11
129.456852
 21
-70.25
 31
0.0
  0
ARC
  5
16D
330
1A
100
AcDbEntity
  8
GUIDE
100
AcDbCircle
 10
119.356852
 20
-4.5
 30
0.0
 40
4.0
100
AcDbArc
 50
90.0
 51
180.0
  0
ARC
  5
16E
330
1A
100
AcDbEntity
  8
GUIDE
100
AcDbCircle
 10
119.356852
 20
-70.5
 30
0.0
 40
4.0
100
AcDbArc
 50
180.0
 51
270.0
  0
POLYLINE
  5
16F
330
1A
100
AcDbEntity
  8
GUIDE
100
AcDb2dPolyline
 66
     1
 10
0.0
 20
0.0
 30
0.0
 70
     1
  0
VERTEX
  5
20B
330
16F
100
AcDbEntity
  8
GUIDE
100
AcDbVertex
100
AcDb2dVertex
 10
120.906852
 20
-36.75
 30
0.0
  0
VERTEX
  5
20C
330
16F
100
AcDbEntity
  8
GUIDE
100
AcDbVertex
100
AcDb2dVertex
 10
120.906852
 20
-6.25
 30
0.0
 42
-0.414214
  0
VERTEX
  5
20D
330
16F
100
AcDbEntity
  8
GUIDE
100
AcDbVertex
100
AcDb2dVertex
 10
121.906852
 20
-5.25
 30
0.0
  0
VERTEX
  5
20E
330
16F
100
AcDbEntity
  8
GUIDE
100
AcDbVertex
100
AcDb2dVertex
 10
131.406852
 20
-5.25
 30
0.0
 42
-0.414214
  0
VERTEX
  5
20F
330
16F
100
AcDbEntity
  8
GUIDE
100
AcDbVertex
100
AcDb2dVertex
 10
132.406852
 20
-6.25
 30
0.0
  0
VERTEX
  5
210
330
16F
100
AcDbEntity
  8
GUIDE
100
AcDbVertex
100
AcDb2dVertex
 10
132.406852
 20
-36.75
 30
0.0
 42
-0.414214
  0
VERTEX
  5
211
330
16F
100
AcDbEntity
  8
GUIDE
100
AcDbVertex
100
AcDb2dVertex
 10
131.406852
 20
-37.75
 30
0.0
  0
VERTEX
  5
212
330
16F
100
AcDbEntity
  8
GUIDE
100
AcDbVertex
100
AcDb2dVertex
 10
121.906852
 20
-37.75
 30
0.0
 42
-0.414214
  0
SEQEND
  5
20A
330
16F
100
AcDbEntity
  8
GUIDE
  0
POLYLINE
  5
179
330
1A
100
AcDbEntity
  8
GUIDE
100
AcDb2dPolyline
 66
     1
 10
0.0
 20
0.0
 30
0.0
 70
     1
  0
VERTEX
  5
214
330
179
100
AcDbEntity
  8
GUIDE
100
AcDbVertex
100
AcDb2dVertex
 10
120.906852
 20
-69.25
 30
0.0
  0
VERTEX
  5
215
330
179
100
AcDbEntity
  8
GUIDE
100
AcDbVertex
100
AcDb2dVertex
 10
120.906852
 20
-38.75
 30
0.0
 42
-0.414214
  0
VERTEX
  5
216
330
179
100
AcDbEntity
  8
GUIDE
100
AcDbVertex
100
AcDb2dVertex
 10
121.906852
 20
-37.75
 30
0.0
  0
VERTEX
  5
217
330
179
100
AcDbEntity
  8
GUIDE
100
AcDbVertex
100
AcDb2dVertex
 10
131.406852
 20
-37.75
 30
0.0
 42
-0.414214
  0
VERTEX
  5
218
330
179
100
AcDbEntity
  8
GUIDE
100
AcDbVertex
100
AcDb2dVertex
 10
132.406852
 20
-38.75
 30
0.0
  0
VERTEX
  5
219
330
179
100
AcDbEntity
  8
GUIDE
100
AcDbVertex
100
AcDb2dVertex
 10
132.406852
 20
-69.25
 30
0.0
 42
-0.414214
  0
VERTEX
  5
21A
330
179
100
AcDbEntity
  8
GUIDE
100
AcDbVertex
100
AcDb2dVertex
 10
131.406852
 20
-70.25
 30
0.0
  0
VERTEX
  5
21B
330
179
100
AcDbEntity
  8
GUIDE
100
AcDbVertex
100
AcDb2dVertex
 10
121.906852
 20
-70.25
 30
0.0
 42
-0.414214
  0
SEQEND
  5
213
330
179
100
AcDbEntity
  8
GUIDE
  0
LINE
  5
183
330
1A
100
AcDbEntity
  8
GUIDE
100
AcDbLine
 10
106.356852
 20
-57.5
 30
0.0
 11
106.356852
 21
-17.5
 31
0.0
  0
LINE
  5
184
330
1A
100
AcDbEntity
  8
GUIDE
100
AcDbLine
 10
106.356852
 20
-17.5
 30
0.0
 11
114.356852
 21
-17.5
 31
0.0
  0
LINE
  5
185
330
1A
100
AcDbEntity
  8
GUIDE
100
AcDbLine
 10
114.356852
 20
-17.5
 30
0.0
 11
114.356852
 21
-57.5
 31
0.0
  0
LINE
  5
186
330
1A
100
AcDbEntity
  8
GUIDE
100
AcDbLine
 10
114.356852
 20
-57.5
 30
0.0
 11
106.356852
 21
-57.5
 31
0.0
  0
ENDSEC
  0
SECTION
  2
OBJECTS
  0
DICTIONARY
  5
C
330
0
100
AcDbDictionary
  3
ACAD_GROUP
350
D
  3
ACAD_LAYOUT
350
188
  3
ACAD_MLINESTYLE
350
E
1001
ACAD
1000
TREAT_AS_HARD
1070
     0
  0
DICTIONARY
  5
22E
330
187
100
AcDbDictionary
  3
ACAD_XREC_ROUNDTRIP
360
22F
  0
DICTIONARY
  5
D
102
{ACAD_REACTORS
330
C
102
}
330
C
100
AcDbDictionary
1001
ACAD
1000
TREAT_AS_HARD
1070
     0
  0
DICTIONARY
  5
188
102
{ACAD_REACTORS
330
C
102
}
330
C
100
AcDbDictionary
1001
ACAD
1000
TREAT_AS_HARD
1070
     0
  0
DICTIONARY
  5
E
102
{ACAD_REACTORS
330
C
102
}
330
C
100
AcDbDictionary
  3
STANDARD
350
13
1001
ACAD
1000
TREAT_AS_HARD
1070
     0
  0
XRECORD
  5
22F
102
{ACAD_REACTORS
330
22E
102
}
330
22E
100
AcDbXrecord
102
UCS
 74
     0
 71
     1
 10
0.0
 20
0.0
 30
0.0
 10
1.0
 20
0.0
 30
0.0
 10
0.0
 20
1.0
 30
0.0
146
0.0
 79
     0
102
VIEW
281
     0
  0
MLINESTYLE
  5
13
102
{ACAD_REACTORS
330
E
102
}
330
E
100
AcDbMlineStyle
  2
STANDARD
 70
     0
  3

 62
     0
 51
90.0
 52
90.0
 71
     2
 49
0.5
 62
   256
  6
BYLAYER
 49
-0.5
 62
   256
  6
BYLAYER
  0
ENDSEC
  0
EOF
