  0
SECTION
  2
HEADER
  9
$ACADVER
  1
AC1009
  9
$DWGCODEPAGE
  3
ansi_1252
  9
$INSBASE
 10
0.0
 20
0.0
 30
0.0
  9
$EXTMIN
 10
-60.330887
 20
-87.58071099999999
 30
0.0
  9
$EXTMAX
 10
60.330887
 20
87.58071099999999
 30
0.0
  9
$LIMMIN
 10
0.0
 20
0.0
  9
$LIMMAX
 10
12.0
 20
9.0
  9
$ORTHOMODE
 70
     0
  9
$REGENMODE
 70
     1
  9
$FILLMODE
 70
     1
  9
$QTEXTMODE
 70
     0
  9
$MIRRTEXT
 70
     1
  9
$DRAGMODE
 70
     2
  9
$LTSCALE
 40
0.63575
  9
$OSMODE
 70
    37
  9
$ATTMODE
 70
     1
  9
$TEXTSIZE
 40
0.2
  9
$TRACEWID
 40
0.05
  9
$TEXTSTYLE
  7
STANDARD
  9
$CLAYER
  8
0
  9
$CELTYPE
  6
BYBLOCK
  9
$CECOLOR
 62
   256
  9
$DIMSCALE
 40
1.0
  9
$DIMASZ
 40
0.18
  9
$DIMEXO
 40
0.0625
  9
$DIMDLI
 40
0.38
  9
$DIMRND
 40
0.0
  9
$DIMDLE
 40
0.0
  9
$DIMEXE
 40
0.18
  9
$DIMTP
 40
0.0
  9
$DIMTM
 40
0.0
  9
$DIMTXT
 40
0.18
  9
$DIMCEN
 40
0.09
  9
$DIMTSZ
 40
0.0
  9
$DIMTOL
 70
     0
  9
$DIMLIM
 70
     0
  9
$DIMTIH
 70
     1
  9
$DIMTOH
 70
     1
  9
$DIMSE1
 70
     0
  9
$DIMSE2
 70
     0
  9
$DIMTAD
 70
     0
  9
$DIMZIN
 70
     0
  9
$DIMBLK
  1

  9
$DIMASO
 70
     1
  9
$DIMSHO
 70
     1
  9
$DIMPOST
  1

  9
$DIMAPOST
  1

  9
$DIMALT
 70
     0
  9
$DIMALTD
 70
     2
  9
$DIMALTF
 40
25.4
  9
$DIMLFAC
 40
1.0
  9
$DIMTOFL
 70
     0
  9
$DIMTVP
 40
0.0
  9
$DIMTIX
 70
     0
  9
$DIMSOXD
 70
     0
  9
$DIMSAH
 70
     0
  9
$DIMBLK1
  1

  9
$DIMBLK2
  1

  9
$DIMSTYLE
  2
STANDARD
  9
$DIMCLRD
 70
     0
  9
$DIMCLRE
 70
     0
  9
$DIMCLRT
 70
     0
  9
$DIMTFAC
 40
1.0
  9
$DIMGAP
 40
0.09
  9
$LUNITS
 70
     2
  9
$LUPREC
 70
     4
  9
$SKETCHINC
 40
0.1
  9
$FILLETRAD
 40
0.5
  9
$AUNITS
 70
     0
  9
$AUPREC
 70
     0
  9
$MENU
  1
.
  9
$ELEVATION
 40
0.0
  9
$PELEVATION
 40
0.0
  9
$THICKNESS
 40
0.0
  9
$LIMCHECK
 70
     0
  9
$CHAMFERA
 40
0.5
  9
$CHAMFERB
 40
0.5
  9
$SKPOLY
 70
     0
  9
$TDCREATE
 40
2453619.496099445
  9
$TDUPDATE
 40
2453619.496099456
  9
$TDINDWG
 40
0.0000000116
  9
$TDUSRTIMER
 40
0.0000000116
  9
$USRTIMER
 70
     1
  9
$ANGBASE
 50
0.0
  9
$ANGDIR
 70
     0
  9
$PDMODE
 70
     0
  9
$PDSIZE
 40
0.0
  9
$PLINEWID
 40
0.0
  9
$COORDS
 70
     1
  9
$SPLFRAME
 70
     0
  9
$SPLINETYPE
 70
     6
  9
$SPLINESEGS
 70
     8
  9
$ATTDIA
 70
     0
  9
$ATTREQ
 70
     1
  9
$HANDLING
 70
     1
  9
$HANDSEED
  5
22D
  9
$SURFTAB1
 70
     6
  9
$SURFTAB2
 70
     6
  9
$SURFTYPE
 70
     6
  9
$SURFU
 70
     6
  9
$SURFV
 70
     6
  9
$UCSNAME
  2

  9
$UCSORG
 10
0.0
 20
0.0
 30
0.0
  9
$UCSXDIR
 10
1.0
 20
0.0
 30
0.0
  9
$UCSYDIR
 10
0.0
 20
1.0
 30
0.0
  9
$PUCSNAME
  2

  9
$PUCSORG
 10
0.0
 20
0.0
 30
0.0
  9
$PUCSXDIR
 10
1.0
 20
0.0
 30
0.0
  9
$PUCSYDIR
 10
0.0
 20
1.0
 30
0.0
  9
$USERI1
 70
     0
  9
$USERI2
 70
     0
  9
$USERI3
 70
     0
  9
$USERI4
 70
     0
  9
$USERI5
 70
     0
  9
$USERR1
 40
0.0
  9
$USERR2
 40
0.0
  9
$USERR3
 40
0.0
  9
$USERR4
 40
0.0
  9
$USERR5
 40
0.0
  9
$WORLDVIEW
 70
     1
  9
$SHADEDGE
 70
     3
  9
$SHADEDIF
 70
    70
  9
$TILEMODE
 70
     1
  9
$MAXACTVP
 70
    64
  9
$PLIMCHECK
 70
     0
  9
$PEXTMIN
 10
1.000000000000000E+20
 20
1.000000000000000E+20
 30
1.000000000000000E+20
  9
$PEXTMAX
 10
-1.000000000000000E+20
 20
-1.000000000000000E+20
 30
-1.000000000000000E+20
  9
$PLIMMIN
 10
0.0
 20
0.0
  9
$PLIMMAX
 10
12.0
 20
9.0
  9
$UNITMODE
 70
     0
  9
$VISRETAIN
 70
     1
  9
$PLINEGEN
 70
     0
  9
$PSLTSCALE
 70
     1
  0
ENDSEC
  0
SECTION
  2
TABLES
  0
TABLE
  2
VPORT
 70
     1
  0
VPORT
  2
*ACTIVE
 70
     0
 10
0.0
 20
0.0
 11
1.0
 21
1.0
 12
10.42990654205607
 22
4.5
 13
0.0
 23
0.0
 14
0.5
 24
0.5
 15
0.5
 25
0.5
 16
0.0
 26
0.0
 36
1.0
 17
0.0
 27
0.0
 37
0.0
 40
9.0
 41
1.972972972850329
 42
50.0
 43
0.0
 44
0.0
 50
0.0
 51
0.0
 71
     0
 72
   100
 73
     1
 74
     3
 75
     0
 76
     0
 77
     0
 78
     0
  0
ENDTAB
  0
TABLE
  2
LTYPE
 70
     9
  0
LTYPE
  2
CONTINUOUS
 70
     0
  3
Solid Line
 72
    65
 73
     0
 40
0.0
  0
LTYPE
  2
MCDASH1
 70
     0
  3
MiniCad+ Generated
 72
    65
 73
     2
 40
2.116538
 49
1.058075
 49
-1.058463
  0
LTYPE
  2
MCDASH2
 70
     0
  3
MiniCad+ Generated
 72
    65
 73
     2
 40
3.527692
 49
2.469229
 49
-1.058463
  0
LTYPE
  2
MCDASH3
 70
     0
  3
MiniCad+ Generated
 72
    65
 73
     2
 40
6.35
 49
5.291537
 49
-1.058463
  0
LTYPE
  2
MCDASH4
 70
     0
  3
MiniCad+ Generated
 72
    65
 73
     2
 40
7.760767
 49
6.702692
 49
-1.058075
  0
LTYPE
  2
MCDASH5
 70
     0
  3
MiniCad+ Generated
 72
    65
 73
     2
 40
1.058075
 49
0.352692
 49
-0.705383
  0
LTYPE
  2
MCDASH6
 70
     0
  3
MiniCad+ Generated
 72
    65
 73
     4
 40
5.291538
 49
3.175
 49
-1.058075
 49
0.352692
 49
-0.705771
  0
LTYPE
  2
MCDASH7
 70
     0
  3
MiniCad+ Generated
 72
    65
 73
     6
 40
9.525001
 49
3.175
 49
-1.058075
 49
3.175
 49
-1.058463
 49
0.352692
 49
-0.705771
  0
LTYPE
  2
MCDASH8
 70
     0
  3
MiniCad+ Generated
 72
    65
 73
     6
 40
6.350001000000001
 49
3.175
 49
-1.058075
 49
0.352692
 49
-0.705771
 49
0.352692
 49
-0.705771
  0
ENDTAB
  0
TABLE
  2
LAYER
 70
     2
  0
LAYER
  2
0
 70
     0
 62
     7
  6
CONTINUOUS
  0
LAYER
  2
GUIDE
 70
     0
 62
     7
  6
CONTINUOUS
  0
ENDTAB
  0
TABLE
  2
STYLE
 70
     1
  0
STYLE
  2
STANDARD
 70
     0
 40
0.0
 41
1.0
 50
0.0
 71
     0
 42
0.2
  3
txt
  4

  0
ENDTAB
  0
TABLE
  2
VIEW
 70
     0
  0
ENDTAB
  0
TABLE
  2
UCS
 70
     0
  0
ENDTAB
  0
TABLE
  2
APPID
 70
     1
  0
APPID
  2
ACAD
 70
     0
  0
ENDTAB
  0
TABLE
  2
DIMSTYLE
 70
     1
  0
DIMSTYLE
  2
STANDARD
 70
     0
  3

  4

  5

  6

  7

 40
1.0
 41
0.18
 42
0.0625
 43
0.38
 44
0.18
 45
0.0
 46
0.0
 47
0.0
 48
0.0
140
0.18
141
0.09
142
0.0
143
25.4
144
1.0
145
0.0
146
1.0
147
0.09
 71
     0
 72
     0
 73
     1
 74
     1
 75
     0
 76
     0
 77
     0
 78
     0
170
     0
171
     2
172
     0
173
     0
174
     0
175
     0
176
     0
177
     0
178
     0
  0
ENDTAB
  0
ENDSEC
  0
SECTION
  2
BLOCKS
  0
BLOCK
  8
0
  2
$MODEL_SPACE
 70
     0
 10
0.0
 20
0.0
 30
0.0
  3
$MODEL_SPACE
  1

  0
ENDBLK
  5
228
  8
0
  0
BLOCK
 67
     1
  8
0
  2
$PAPER_SPACE
 70
     0
 10
0.0
 20
0.0
 30
0.0
  3
$PAPER_SPACE
  1

  0
ENDBLK
  5
226
 67
     1
  8
0
  0
BLOCK
  8
0
  2
$ARROW1$
 70
     0
 10
0.0
 20
0.0
 30
0.0
  3
$ARROW1$
  1

  0
SOLID
  5
2E
  8
0
 62
     0
 10
-25.4
 20
4.318
 30
0.0
 11
-25.4
 21
-4.318
 31
0.0
 12
0.0
 22
0.0
 32
0.0
 13
0.0
 23
0.0
 33
0.0
  0
ENDBLK
  5
203
  8
0
  0
BLOCK
  8
0
  2
$ARROW2$
 70
     0
 10
0.0
 20
0.0
 30
0.0
  3
$ARROW2$
  1

  0
SOLID
  5
32
  8
0
 62
     0
 10
-25.4
 20
12.7
 30
0.0
 11
-25.4
 21
-12.7
 31
0.0
 12
0.0
 22
0.0
 32
0.0
 13
0.0
 23
0.0
 33
0.0
  0
ENDBLK
  5
205
  8
0
  0
BLOCK
  8
0
  2
$ARROW3$
 70
     0
 10
0.0
 20
0.0
 30
0.0
  3
$ARROW3$
  1

  0
POLYLINE
  5
36
  8
0
  6
BYBLOCK
 62
     0
 66
     1
 10
0.0
 20
0.0
 30
0.0
 70
     1
 40
0.5
 41
0.5
  0
VERTEX
  5
1A8
  8
0
  6
BYBLOCK
 62
     0
 10
-6.35
 20
0.0
 30
0.0
 42
1.0
  0
VERTEX
  5
1A9
  8
0
  6
BYBLOCK
 62
     0
 10
6.35
 20
0.0
 30
0.0
 42
1.0
  0
SEQEND
  5
206
  8
0
  6
BYBLOCK
 62
     0
  0
ENDBLK
  5
208
  8
0
  0
BLOCK
  8
0
  2
$ARROW4$
 70
     0
 10
0.0
 20
0.0
 30
0.0
  3
$ARROW4$
  1

  0
LINE
  5
3D
  8
0
  6
BYBLOCK
 62
     0
 10
12.7
 20
12.7
 30
0.0
 11
-12.7
 21
-12.7
 31
0.0
  0
ENDBLK
  5
20A
  8
0
  0
BLOCK
  8
0
  2
$ARROW5$
 70
     0
 10
0.0
 20
0.0
 30
0.0
  3
$ARROW5$
  1

  0
LINE
  5
41
  8
0
  6
BYBLOCK
 62
     0
 10
12.7
 20
12.7
 30
0.0
 11
-12.7
 21
-12.7
 31
0.0
  0
LINE
  5
42
  8
0
  6
BYBLOCK
 62
     0
 10
-12.7
 20
12.7
 30
0.0
 11
12.7
 21
-12.7
 31
0.0
  0
ENDBLK
  5
20C
  8
0
  0
BLOCK
  8
0
  2
A$CE185
 70
     0
 10
0.0
 20
0.0
 30
0.0
  3
A$CE185
  1

  0
POLYLINE
  5
46
  8
0
 66
     1
 10
0.0
 20
0.0
 30
0.0
 70
     1
  0
VERTEX
  5
1AB
  8
0
 10
0.064019
 20
9.258595
 30
0.0
  0
VERTEX
  5
1AC
  8
0
 10
0.064019
 20
9.558595
 30
0.0
  0
VERTEX
  5
1AD
  8
0
 10
8.064019
 20
9.558595
 30
0.0
  0
VERTEX
  5
1AE
  8
0
 10
8.064019
 20
9.258595
 30
0.0
  0
SEQEND
  5
20D
  8
0
  0
POLYLINE
  5
4C
  8
0
 66
     1
 10
0.0
 20
0.0
 30
0.0
 70
     1
  0
VERTEX
  5
1B0
  8
0
 10
-2.735981
 20
-6.541405
 30
0.0
  0
VERTEX
  5
1B1
  8
0
 10
-2.735981
 20
0.058595
 30
0.0
  0
VERTEX
  5
1B2
  8
0
 10
10.864019
 20
0.058595
 30
0.0
  0
VERTEX
  5
1B3
  8
0
 10
10.864019
 20
-6.541405
 30
0.0
  0
SEQEND
  5
20E
  8
0
  0
POLYLINE
  5
52
  8
0
 66
     1
 10
0.0
 20
0.0
 30
0.0
 70
     1
  0
VERTEX
  5
1B5
  8
0
 10
0.064019
 20
-6.841405
 30
0.0
  0
VERTEX
  5
1B6
  8
0
 10
0.064019
 20
-6.541405
 30
0.0
  0
VERTEX
  5
1B7
  8
0
 10
8.064019
 20
-6.541405
 30
0.0
  0
VERTEX
  5
1B8
  8
0
 10
8.064019
 20
-6.841405
 30
0.0
  0
SEQEND
  5
20F
  8
0
  0
POLYLINE
  5
58
  8
0
 66
     1
 10
0.0
 20
0.0
 30
0.0
 70
     1
  0
VERTEX
  5
1BA
  8
0
 10
1.564019
 20
-7.641405
 30
0.0
  0
VERTEX
  5
1BB
  8
0
 10
1.564019
 20
-6.841405
 30
0.0
  0
VERTEX
  5
1BC
  8
0
 10
6.564019
 20
-6.841405
 30
0.0
  0
VERTEX
  5
1BD
  8
0
 10
6.564019
 20
-7.641405
 30
0.0
  0
SEQEND
  5
210
  8
0
  0
POLYLINE
  5
5E
  8
0
 66
     1
 10
0.0
 20
0.0
 30
0.0
 70
     1
  0
VERTEX
  5
1BF
  8
0
 10
0.064019
 20
0.058595
 30
0.0
  0
VERTEX
  5
1C0
  8
0
 10
0.064019
 20
9.258595
 30
0.0
  0
VERTEX
  5
1C1
  8
0
 10
8.064019
 20
9.258595
 30
0.0
  0
VERTEX
  5
1C2
  8
0
 10
8.064019
 20
0.058595
 30
0.0
  0
SEQEND
  5
211
  8
0
  0
POLYLINE
  5
64
  8
0
 66
     1
 10
0.0
 20
0.0
 30
0.0
 70
     1
  0
VERTEX
  5
1C4
  8
0
 10
1.564019
 20
25.358595
 30
0.0
  0
VERTEX
  5
1C5
  8
0
 10
1.564019
 20
26.158595
 30
0.0
  0
VERTEX
  5
1C6
  8
0
 10
6.564019
 20
26.158595
 30
0.0
  0
VERTEX
  5
1C7
  8
0
 10
6.564019
 20
25.358595
 30
0.0
  0
SEQEND
  5
212
  8
0
  0
POLYLINE
  5
6A
  8
0
 66
     1
 10
0.0
 20
0.0
 30
0.0
 70
     1
  0
VERTEX
  5
1C9
  8
0
 10
-2.735981
 20
9.558595
 30
0.0
  0
VERTEX
  5
1CA
  8
0
 10
-2.735981
 20
16.158595
 30
0.0
  0
VERTEX
  5
1CB
  8
0
 10
10.864019
 20
16.158595
 30
0.0
  0
VERTEX
  5
1CC
  8
0
 10
10.864019
 20
9.558595
 30
0.0
  0
SEQEND
  5
213
  8
0
  0
POLYLINE
  5
70
  8
0
 66
     1
 10
0.0
 20
0.0
 30
0.0
 70
     1
  0
VERTEX
  5
1CE
  8
0
 10
0.064019
 20
16.158595
 30
0.0
  0
VERTEX
  5
1CF
  8
0
 10
0.064019
 20
25.358595
 30
0.0
  0
VERTEX
  5
1D0
  8
0
 10
8.064019
 20
25.358595
 30
0.0
  0
VERTEX
  5
1D1
  8
0
 10
8.064019
 20
16.158595
 30
0.0
  0
SEQEND
  5
214
  8
0
  0
ENDBLK
  5
216
  8
0
  0
ENDSEC
  0
SECTION
  2
ENTITIES
  0
LINE
  5
77
  8
GUIDE
 10
15.712305
 20
-19.954674
 30
0.0
 11
15.712305
 21
-31.654674
 31
0.0
  0
LINE
  5
78
  8
GUIDE
 10
-52.587695
 20
-19.954674
 30
0.0
 11
15.712305
 21
-19.954674
 31
0.0
  0
LINE
  5
79
  8
GUIDE
 10
-42.387695
 20
-47.854674
 30
0.0
 11
5.512305
 21
-47.854674
 31
0.0
  0
LINE
  5
7A
  8
GUIDE
 10
-55.672839
 20
-31.654674
 30
0.0
 11
18.797449
 21
-31.654674
 31
0.0
  0
ARC
  5
7B
  8
GUIDE
 10
15.712305
 20
-25.954674
 30
0.0
 40
6.0
 50
320.645828
 51
90.0
  0
LINE
  5
7C
  8
GUIDE
 10
5.512305
 20
-47.854674
 30
0.0
 11
20.351751
 21
-29.759347
 31
0.0
  0
ARC
  5
7D
  8
GUIDE
 10
-52.587695
 20
-25.954674
 30
0.0
 40
6.0
 50
90.0
 51
219.354172
  0
LINE
  5
7E
  8
GUIDE
 10
-42.387695
 20
-47.854674
 30
0.0
 11
-57.227141
 21
-29.759347
 31
0.0
  0
ARC
  5
7F
  8
GUIDE
 10
-49.687695
 20
-23.754674
 30
0.0
 40
6.8
 50
33.974472
 51
155.511505
  0
ARC
  5
80
  8
GUIDE
 10
-37.587695
 20
-23.754674
 30
0.0
 40
6.8
 50
33.974487
 51
146.025528
  0
ARC
  5
81
  8
GUIDE
 10
-25.587695
 20
-23.754674
 30
0.0
 40
6.8
 50
33.974487
 51
146.025528
  0
ARC
  5
82
  8
GUIDE
 10
-13.487695
 20
-23.754674
 30
0.0
 40
6.8
 50
33.974487
 51
146.025528
  0
ARC
  5
83
  8
GUIDE
 10
-1.387695
 20
-23.754674
 30
0.0
 40
6.8
 50
33.974487
 51
146.025528
  0
ARC
  5
84
  8
GUIDE
 10
10.712305
 20
-23.754674
 30
0.0
 40
6.8
 50
33.601074
 51
146.025528
  0
INSERT
  5
85
  8
GUIDE
  2
A$CE185
 10
-53.751714
 20
16.366777
 30
0.0
  0
INSERT
  5
86
  8
GUIDE
  2
A$CE185
 10
-41.651714
 20
34.883967
 30
0.0
 42
-1.0
  0
INSERT
  5
87
  8
GUIDE
  2
A$CE185
 10
-29.651714
 20
16.366777
 30
0.0
  0
INSERT
  5
88
  8
GUIDE
  2
A$CE185
 10
-17.551714
 20
34.883967
 30
0.0
 42
-1.0
  0
INSERT
  5
89
  8
GUIDE
  2
A$CE185
 10
6.648286
 20
34.883967
 30
0.0
 42
-1.0
  0
INSERT
  5
8A
  8
GUIDE
  2
A$CE185
 10
-5.451714
 20
16.366777
 30
0.0
  0
LINE
  5
8B
  8
GUIDE
 10
-52.587695
 20
42.525372
 30
0.0
 11
21.712305
 21
42.525372
 31
0.0
  0
LINE
  5
8C
  8
GUIDE
 10
-52.587695
 20
8.725372
 30
0.0
 11
21.712305
 21
8.725372
 31
0.0
  0
LINE
  5
8D
  8
GUIDE
 10
-58.587695
 20
46.775372
 30
0.0
 11
15.712305
 21
46.775372
 31
0.0
  0
LINE
  5
8E
  8
GUIDE
 10
-58.587695
 20
4.475372
 30
0.0
 11
15.712305
 21
4.475372
 31
0.0
  0
LINE
  5
8F
  8
GUIDE
 10
-58.587695
 20
4.475372
 30
0.0
 11
-58.587695
 21
6.600372
 31
0.0
  0
LINE
  5
90
  8
GUIDE
 10
21.712305
 20
44.650372
 30
0.0
 11
21.712305
 21
42.525372
 31
0.0
  0
LINE
  5
91
  8
GUIDE
 10
15.712305
 20
46.775372
 30
0.0
 11
15.712305
 21
44.650372
 31
0.0
  0
LINE
  5
92
  8
GUIDE
 10
-52.587695
 20
44.650372
 30
0.0
 11
-52.587695
 21
42.525372
 31
0.0
  0
LINE
  5
93
  8
GUIDE
 10
-58.587695
 20
44.650372
 30
0.0
 11
-52.587695
 21
44.650372
 31
0.0
  0
LINE
  5
94
  8
GUIDE
 10
-58.587695
 20
6.600372
 30
0.0
 11
-52.587695
 21
6.600372
 31
0.0
  0
LINE
  5
95
  8
GUIDE
 10
-58.587695
 20
44.650372
 30
0.0
 11
-58.587695
 21
46.775372
 31
0.0
  0
LINE
  5
96
  8
GUIDE
 10
-52.587695
 20
8.725372
 30
0.0
 11
-52.587695
 21
6.600372
 31
0.0
  0
LINE
  5
97
  8
GUIDE
 10
15.712305
 20
44.650372
 30
0.0
 11
21.712305
 21
44.650372
 31
0.0
  0
LINE
  5
98
  8
GUIDE
 10
15.712305
 20
6.600372
 30
0.0
 11
15.712305
 21
4.475372
 31
0.0
  0
LINE
  5
99
  8
GUIDE
 10
21.712305
 20
8.725372
 30
0.0
 11
21.712305
 21
6.600372
 31
0.0
  0
LINE
  5
9A
  8
GUIDE
 10
15.712305
 20
6.600372
 30
0.0
 11
21.712305
 21
6.600372
 31
0.0
  0
LINE
  5
9B
  8
GUIDE
 10
-48.687695
 20
42.525372
 30
0.0
 11
-48.687695
 21
46.775372
 31
0.0
  0
LINE
  5
9C
  8
GUIDE
 10
-50.687695
 20
42.525372
 30
0.0
 11
-50.687695
 21
46.775372
 31
0.0
  0
LINE
  5
9D
  8
GUIDE
 10
-38.587695
 20
42.525372
 30
0.0
 11
-38.587695
 21
46.775372
 31
0.0
  0
LINE
  5
9E
  8
GUIDE
 10
-36.587695
 20
42.525372
 30
0.0
 11
-36.587695
 21
46.775372
 31
0.0
  0
LINE
  5
9F
  8
GUIDE
 10
-26.587695
 20
42.525372
 30
0.0
 11
-26.587695
 21
46.775372
 31
0.0
  0
LINE
  5
A0
  8
GUIDE
 10
-24.587695
 20
42.525372
 30
0.0
 11
-24.587695
 21
46.775372
 31
0.0
  0
LINE
  5
A1
  8
GUIDE
 10
-14.487695
 20
42.525372
 30
0.0
 11
-14.487695
 21
46.775372
 31
0.0
  0
LINE
  5
A2
  8
GUIDE
 10
-12.487695
 20
42.525372
 30
0.0
 11
-12.487695
 21
46.775372
 31
0.0
  0
LINE
  5
A3
  8
GUIDE
 10
-2.387695
 20
42.525372
 30
0.0
 11
-2.387695
 21
46.775372
 31
0.0
  0
LINE
  5
A4
  8
GUIDE
 10
-0.387695
 20
42.525372
 30
0.0
 11
-0.387695
 21
46.775372
 31
0.0
  0
LINE
  5
A5
  8
GUIDE
 10
9.712305000000001
 20
42.525372
 30
0.0
 11
9.712305000000001
 21
46.775372
 31
0.0
  0
LINE
  5
A6
  8
GUIDE
 10
11.712305
 20
42.525372
 30
0.0
 11
11.712305
 21
46.775372
 31
0.0
  0
LINE
  5
A7
  8
GUIDE
 10
9.712305000000001
 20
4.475372
 30
0.0
 11
9.712305000000001
 21
8.725372
 31
0.0
  0
LINE
  5
A8
  8
GUIDE
 10
11.712305
 20
4.475372
 30
0.0
 11
11.712305
 21
8.725372
 31
0.0
  0
LINE
  5
A9
  8
GUIDE
 10
-2.387695
 20
8.725372
 30
0.0
 11
-2.387695
 21
4.475372
 31
0.0
  0
LINE
  5
AA
  8
GUIDE
 10
-0.387695
 20
8.725372
 30
0.0
 11
-0.387695
 21
4.475372
 31
0.0
  0
LINE
  5
AB
  8
GUIDE
 10
-12.487695
 20
8.725372
 30
0.0
 11
-12.487695
 21
4.475372
 31
0.0
  0
LINE
  5
AC
  8
GUIDE
 10
-14.487695
 20
8.725372
 30
0.0
 11
-14.487695
 21
4.475372
 31
0.0
  0
LINE
  5
AD
  8
GUIDE
 10
-26.587695
 20
4.475372
 30
0.0
 11
-26.587695
 21
8.725372
 31
0.0
  0
LINE
  5
AE
  8
GUIDE
 10
-24.587695
 20
4.475372
 30
0.0
 11
-24.587695
 21
8.725372
 31
0.0
  0
LINE
  5
AF
  8
GUIDE
 10
-36.587695
 20
8.725372
 30
0.0
 11
-36.587695
 21
4.475372
 31
0.0
  0
LINE
  5
B0
  8
GUIDE
 10
-38.587695
 20
8.725372
 30
0.0
 11
-38.587695
 21
4.475372
 31
0.0
  0
LINE
  5
B1
  8
GUIDE
 10
-48.687695
 20
8.725372
 30
0.0
 11
-48.687695
 21
4.475372
 31
0.0
  0
LINE
  5
B2
  8
GUIDE
 10
-50.687695
 20
8.725372
 30
0.0
 11
-50.687695
 21
4.475372
 31
0.0
  0
LINE
  5
B3
  8
GUIDE
 10
-50.687695
 20
47.750373
 30
0.0
 11
11.712305
 21
47.750373
 31
0.0
  0
LINE
  5
B4
  8
GUIDE
 10
-50.687695
 20
47.750373
 30
0.0
 11
-55.463323
 21
46.775372
 31
0.0
  0
LINE
  5
B5
  8
GUIDE
 10
11.712305
 20
47.750373
 30
0.0
 11
12.575466
 21
46.775372
 31
0.0
  0
LINE
  5
B6
  8
GUIDE
 10
-50.687695
 20
3.500372
 30
0.0
 11
-55.463323
 21
4.475372
 31
0.0
  0
LINE
  5
B7
  8
GUIDE
 10
-50.687695
 20
3.500372
 30
0.0
 11
11.712305
 21
3.500372
 31
0.0
  0
LINE
  5
B8
  8
GUIDE
 10
11.712305
 20
3.500372
 30
0.0
 11
12.575466
 21
4.475372
 31
0.0
  0
LINE
  5
B9
  8
GUIDE
 10
57.330887
 20
4.475372
 30
0.0
 11
45.630887
 21
4.475372
 31
0.0
  0
POLYLINE
  5
BA
  8
GUIDE
 66
     1
 10
0.0
 20
0.0
 30
0.0
 70
     1
  0
VERTEX
  5
14D
  8
GUIDE
 10
46.730887
 20
9.825372
 30
0.0
  0
VERTEX
  5
14E
  8
GUIDE
 10
46.730887
 20
16.425372
 30
0.0
  0
VERTEX
  5
14F
  8
GUIDE
 10
60.330887
 20
16.425372
 30
0.0
  0
VERTEX
  5
150
  8
GUIDE
 10
60.330887
 20
9.825372
 30
0.0
  0
SEQEND
  5
217
  8
GUIDE
  0
POLYLINE
  5
C0
  8
GUIDE
 66
     1
 10
0.0
 20
0.0
 30
0.0
 70
     1
  0
VERTEX
  5
152
  8
GUIDE
 10
51.030887
 20
41.725373
 30
0.0
  0
VERTEX
  5
153
  8
GUIDE
 10
51.030887
 20
42.525372
 30
0.0
  0
VERTEX
  5
154
  8
GUIDE
 10
56.030887
 20
42.525372
 30
0.0
  0
VERTEX
  5
155
  8
GUIDE
 10
56.030887
 20
41.725373
 30
0.0
  0
SEQEND
  5
218
  8
GUIDE
  0
LINE
  5
C6
  8
GUIDE
 10
44.730887
 20
39.775372
 30
0.0
 11
44.730887
 21
11.475372
 31
0.0
  0
POLYLINE
  5
C7
  8
GUIDE
 66
     1
 10
0.0
 20
0.0
 30
0.0
 70
     1
  0
VERTEX
  5
157
  8
GUIDE
 10
49.530887
 20
9.525372000000001
 30
0.0
  0
VERTEX
  5
158
  8
GUIDE
 10
49.530887
 20
9.825372
 30
0.0
  0
VERTEX
  5
159
  8
GUIDE
 10
57.530887
 20
9.825372
 30
0.0
  0
VERTEX
  5
15A
  8
GUIDE
 10
57.530887
 20
9.525372000000001
 30
0.0
  0
SEQEND
  5
219
  8
GUIDE
  0
POLYLINE
  5
CD
  8
GUIDE
 66
     1
 10
0.0
 20
0.0
 30
0.0
 70
     1
  0
VERTEX
  5
15C
  8
GUIDE
 10
51.030887
 20
8.725372
 30
0.0
  0
VERTEX
  5
15D
  8
GUIDE
 10
51.030887
 20
9.525372000000001
 30
0.0
  0
VERTEX
  5
15E
  8
GUIDE
 10
56.030887
 20
9.525372000000001
 30
0.0
  0
VERTEX
  5
15F
  8
GUIDE
 10
56.030887
 20
8.725372
 30
0.0
  0
SEQEND
  5
21A
  8
GUIDE
  0
LINE
  5
D3
  8
GUIDE
 10
45.630887
 20
46.775372
 30
0.0
 11
57.330887
 21
46.775372
 31
0.0
  0
LINE
  5
D4
  8
GUIDE
 10
44.730887
 20
47.750373
 30
0.0
 11
45.630887
 21
46.775372
 31
0.0
  0
LINE
  5
D5
  8
GUIDE
 10
44.730887
 20
3.500372
 30
0.0
 11
45.630887
 21
4.475372
 31
0.0
  0
ARC
  5
D6
  8
GUIDE
 10
47.48941
 20
39.871447
 30
0.0
 40
2.760196
 50
105.950562
 51
181.99469
  0
ARC
  5
D7
  8
GUIDE
 10
47.48941
 20
11.379298
 30
0.0
 40
2.760196
 50
178.00531
 51
254.049438
  0
LINE
  5
D8
  8
GUIDE
 10
41.730887
 20
5.625372
 30
0.0
 11
41.730887
 21
45.625373
 31
0.0
  0
ARC
  5
D9
  8
GUIDE
 10
29.430887
 20
47.250373
 30
0.0
 40
0.5
 50
90.0
 51
235.501068
  0
LINE
  5
DA
  8
GUIDE
 10
29.430887
 20
47.750373
 30
0.0
 11
44.730887
 21
47.750373
 31
0.0
  0
ARC
  5
DB
  8
GUIDE
 10
29.430887
 20
4.000372
 30
0.0
 40
0.5
 50
124.498932
 51
270.0
  0
LINE
  5
DC
  8
GUIDE
 10
44.730887
 20
3.500372
 30
0.0
 11
29.430887
 21
3.500372
 31
0.0
  0
ARC
  5
DD
  8
GUIDE
 10
42.418387
 20
44.875373
 30
0.0
 40
0.8125
 50
292.619873
 51
67.38014200000001
  0
LINE
  5
DE
  8
GUIDE
 10
42.730887
 20
45.625373
 30
0.0
 11
41.730887
 21
45.625373
 31
0.0
  0
LINE
  5
DF
  8
GUIDE
 10
42.730887
 20
44.125373
 30
0.0
 11
41.730887
 21
44.125373
 31
0.0
  0
LINE
  5
E0
  8
GUIDE
 10
42.730887
 20
7.125372
 30
0.0
 11
41.730887
 21
7.125372
 31
0.0
  0
LINE
  5
E1
  8
GUIDE
 10
42.730887
 20
5.625372
 30
0.0
 11
41.730887
 21
5.625372
 31
0.0
  0
ARC
  5
E2
  8
GUIDE
 10
42.418387
 20
6.375372
 30
0.0
 40
0.8125
 50
292.619873
 51
67.38014200000001
  0
POLYLINE
  5
E3
  8
GUIDE
 66
     1
 10
0.0
 20
0.0
 30
0.0
  0
VERTEX
  5
161
  8
GUIDE
 10
57.330887
 20
46.775372
 30
0.0
  0
VERTEX
  5
162
  8
GUIDE
 10
57.330887
 20
43.525372
 30
0.0
  0
VERTEX
  5
163
  8
GUIDE
 10
57.330887
 20
43.525371
 30
0.0
  0
VERTEX
  5
164
  8
GUIDE
 10
57.318576
 20
43.368943
 30
0.0
  0
VERTEX
  5
165
  8
GUIDE
 10
57.281942
 20
43.216351
 30
0.0
  0
VERTEX
  5
166
  8
GUIDE
 10
57.221894
 20
43.071382
 30
0.0
  0
VERTEX
  5
167
  8
GUIDE
 10
57.139909
 20
42.937592
 30
0.0
  0
VERTEX
  5
168
  8
GUIDE
 10
57.037994
 20
42.818265
 30
0.0
  0
VERTEX
  5
169
  8
GUIDE
 10
56.918679
 20
42.716359
 30
0.0
  0
VERTEX
  5
16A
  8
GUIDE
 10
56.784891
 20
42.634372
 30
0.0
  0
VERTEX
  5
16B
  8
GUIDE
 10
56.639908
 20
42.574317
 30
0.0
  0
VERTEX
  5
16C
  8
GUIDE
 10
56.487331
 20
42.537685
 30
0.0
  0
VERTEX
  5
16D
  8
GUIDE
 10
56.330903
 20
42.525372
 30
0.0
  0
VERTEX
  5
16E
  8
GUIDE
 10
56.330888
 20
42.525372
 30
0.0
  0
VERTEX
  5
16F
  8
GUIDE
 10
56.330887
 20
42.525372
 30
0.0
  0
VERTEX
  5
170
  8
GUIDE
 10
46.730887
 20
42.525372
 30
0.0
  0
SEQEND
  5
21B
  8
GUIDE
  0
POLYLINE
  5
F5
  8
GUIDE
 66
     1
 10
0.0
 20
0.0
 30
0.0
  0
VERTEX
  5
172
  8
GUIDE
 10
46.730887
 20
8.725372
 30
0.0
  0
VERTEX
  5
173
  8
GUIDE
 10
56.330887
 20
8.725372
 30
0.0
  0
VERTEX
  5
174
  8
GUIDE
 10
56.330888
 20
8.725372
 30
0.0
  0
VERTEX
  5
175
  8
GUIDE
 10
56.498707
 20
8.679898
 30
0.0
  0
VERTEX
  5
176
  8
GUIDE
 10
56.658509
 20
8.611402999999999
 30
0.0
  0
VERTEX
  5
177
  8
GUIDE
 10
56.807159
 20
8.521232
 30
0.0
  0
VERTEX
  5
178
  8
GUIDE
 10
56.941737
 20
8.411156
 30
0.0
  0
VERTEX
  5
179
  8
GUIDE
 10
57.059598
 20
8.283341
 30
0.0
  0
VERTEX
  5
17A
  8
GUIDE
 10
57.158423
 20
8.1403
 30
0.0
  0
VERTEX
  5
17B
  8
GUIDE
 10
57.236272
 20
7.984841
 30
0.0
  0
VERTEX
  5
17C
  8
GUIDE
 10
57.291614
 20
7.820021
 30
0.0
  0
VERTEX
  5
17D
  8
GUIDE
 10
57.32336
 20
7.649081
 30
0.0
  0
VERTEX
  5
17E
  8
GUIDE
 10
57.330886
 20
7.475364
 30
0.0
  0
VERTEX
  5
17F
  8
GUIDE
 10
57.330887
 20
7.475372
 30
0.0
  0
VERTEX
  5
180
  8
GUIDE
 10
57.330887
 20
4.475372
 30
0.0
  0
SEQEND
  5
21C
  8
GUIDE
  0
POLYLINE
  5
106
  8
GUIDE
 66
     1
 10
0.0
 20
0.0
 30
0.0
 70
     1
  0
VERTEX
  5
182
  8
GUIDE
 10
46.730887
 20
25.925372
 30
0.0
  0
VERTEX
  5
183
  8
GUIDE
 10
46.730887
 20
32.525372
 30
0.0
  0
VERTEX
  5
184
  8
GUIDE
 10
60.330887
 20
32.525372
 30
0.0
  0
VERTEX
  5
185
  8
GUIDE
 10
60.330887
 20
25.925372
 30
0.0
  0
SEQEND
  5
21D
  8
GUIDE
  0
POLYLINE
  5
10C
  8
GUIDE
 66
     1
 10
0.0
 20
0.0
 30
0.0
 70
     1
  0
VERTEX
  5
187
  8
GUIDE
 10
49.530887
 20
25.625372
 30
0.0
  0
VERTEX
  5
188
  8
GUIDE
 10
49.530887
 20
25.925372
 30
0.0
  0
VERTEX
  5
189
  8
GUIDE
 10
57.530887
 20
25.925372
 30
0.0
  0
VERTEX
  5
18A
  8
GUIDE
 10
57.530887
 20
25.625372
 30
0.0
  0
SEQEND
  5
21E
  8
GUIDE
  0
POLYLINE
  5
112
  8
GUIDE
 66
     1
 10
0.0
 20
0.0
 30
0.0
 70
     1
  0
VERTEX
  5
18C
  8
GUIDE
 10
49.530887
 20
32.525372
 30
0.0
  0
VERTEX
  5
18D
  8
GUIDE
 10
49.530887
 20
41.725373
 30
0.0
  0
VERTEX
  5
18E
  8
GUIDE
 10
57.530887
 20
41.725373
 30
0.0
  0
VERTEX
  5
18F
  8
GUIDE
 10
57.530887
 20
32.525372
 30
0.0
  0
SEQEND
  5
21F
  8
GUIDE
  0
POLYLINE
  5
118
  8
GUIDE
 66
     1
 10
0.0
 20
0.0
 30
0.0
 70
     1
  0
VERTEX
  5
191
  8
GUIDE
 10
49.530887
 20
16.425372
 30
0.0
  0
VERTEX
  5
192
  8
GUIDE
 10
49.530887
 20
25.625372
 30
0.0
  0
VERTEX
  5
193
  8
GUIDE
 10
57.530887
 20
25.625372
 30
0.0
  0
VERTEX
  5
194
  8
GUIDE
 10
57.530887
 20
16.425372
 30
0.0
  0
SEQEND
  5
220
  8
GUIDE
  0
POLYLINE
  5
11E
  8
GUIDE
 66
     1
 10
0.0
 20
0.0
 30
0.0
  0
VERTEX
  5
196
  8
GUIDE
 10
46.730887
 20
25.325372
 30
0.0
  0
VERTEX
  5
197
  8
GUIDE
 10
46.730887
 20
18.725372
 30
0.0
  0
VERTEX
  5
198
  8
GUIDE
 10
49.530887
 20
18.725372
 30
0.0
  0
SEQEND
  5
221
  8
GUIDE
  0
POLYLINE
  5
123
  8
GUIDE
 66
     1
 10
0.0
 20
0.0
 30
0.0
  0
VERTEX
  5
19A
  8
GUIDE
 10
57.530887
 20
18.725372
 30
0.0
  0
VERTEX
  5
19B
  8
GUIDE
 10
60.330887
 20
18.725372
 30
0.0
  0
VERTEX
  5
19C
  8
GUIDE
 10
60.330887
 20
25.325372
 30
0.0
  0
VERTEX
  5
19D
  8
GUIDE
 10
57.530887
 20
25.325372
 30
0.0
  0
SEQEND
  5
222
  8
GUIDE
  0
LINE
  5
129
  8
GUIDE
 10
49.530887
 20
25.325372
 30
0.0
 11
46.730887
 21
25.325372
 31
0.0
  0
POLYLINE
  5
12A
  8
GUIDE
 66
     1
 10
0.0
 20
0.0
 30
0.0
  0
VERTEX
  5
19F
  8
GUIDE
 10
46.730887
 20
41.425372
 30
0.0
  0
VERTEX
  5
1A0
  8
GUIDE
 10
46.730887
 20
34.825373
 30
0.0
  0
VERTEX
  5
1A1
  8
GUIDE
 10
49.530887
 20
34.825373
 30
0.0
  0
SEQEND
  5
223
  8
GUIDE
  0
POLYLINE
  5
12F
  8
GUIDE
 66
     1
 10
0.0
 20
0.0
 30
0.0
  0
VERTEX
  5
1A3
  8
GUIDE
 10
57.530887
 20
34.825373
 30
0.0
  0
VERTEX
  5
1A4
  8
GUIDE
 10
60.330887
 20
34.825373
 30
0.0
  0
VERTEX
  5
1A5
  8
GUIDE
 10
60.330887
 20
41.425372
 30
0.0
  0
VERTEX
  5
1A6
  8
GUIDE
 10
57.530887
 20
41.425372
 30
0.0
  0
SEQEND
  5
224
  8
GUIDE
  0
LINE
  5
135
  8
GUIDE
 10
49.530887
 20
41.425372
 30
0.0
 11
46.730887
 21
41.425372
 31
0.0
  0
LINE
  5
136
  8
GUIDE
 10
31.730887
 20
5.625372
 30
0.0
 11
31.730887
 21
45.625373
 31
0.0
  0
LINE
  5
137
  8
GUIDE
 10
31.730887
 20
45.625373
 30
0.0
 11
41.730887
 21
45.625373
 31
0.0
  0
LINE
  5
138
  8
GUIDE
 10
41.730887
 20
45.625373
 30
0.0
 11
41.730887
 21
5.625372
 31
0.0
  0
LINE
  5
139
  8
GUIDE
 10
41.730887
 20
5.625372
 30
0.0
 11
31.730887
 21
5.625372
 31
0.0
  0
LINE
  5
13A
  8
GUIDE
 10
31.730887
 20
45.591045
 30
0.0
 11
29.147692
 21
46.838305
 31
0.0
  0
LINE
  5
13B
  8
GUIDE
 10
31.730887
 20
5.6597
 30
0.0
 11
29.147692
 21
4.41244
 31
0.0
  0
ENDSEC
  0
EOF
