  0
SECTION
  2
HEADER
  9
$ACADVER
  1
AC1012
  9
$DWGCODEPAGE
  3
ansi_1252
  9
$INSBASE
 10
0.0
 20
0.0
 30
0.0
  9
$EXTMIN
 10
-1.743192
 20
-94.63004599999999
 30
0.0
  9
$EXTMAX
 10
118.918582
 20
1.079301
 30
0.0
  9
$LIMMIN
 10
0.0
 20
0.0
  9
$LIMMAX
 10
12.0
 20
9.0
  9
$ORTHOMODE
 70
     1
  9
$REGENMODE
 70
     1
  9
$FILLMODE
 70
     1
  9
$QTEXTMODE
 70
     0
  9
$MIRRTEXT
 70
     1
  9
$DRAGMODE
 70
     2
  9
$LTSCALE
 40
1.0
  9
$OSMODE
 70
    37
  9
$ATTMODE
 70
     1
  9
$TEXTSIZE
 40
0.2
  9
$TRACEWID
 40
0.05
  9
$TEXTSTYLE
  7
STANDARD
  9
$CLAYER
  8
0
  9
$CELTYPE
  6
BYLAYER
  9
$CECOLOR
 62
   256
  9
$CELTSCALE
 40
1.0
  9
$DELOBJ
 70
     1
  9
$DISPSILH
 70
     0
  9
$DIMSCALE
 40
1.0
  9
$DIMASZ
 40
0.18
  9
$DIMEXO
 40
0.0625
  9
$DIMDLI
 40
0.38
  9
$DIMRND
 40
0.0
  9
$DIMDLE
 40
0.0
  9
$DIMEXE
 40
0.18
  9
$DIMTP
 40
0.0
  9
$DIMTM
 40
0.0
  9
$DIMTXT
 40
0.18
  9
$DIMCEN
 40
0.09
  9
$DIMTSZ
 40
0.0
  9
$DIMTOL
 70
     0
  9
$DIMLIM
 70
     0
  9
$DIMTIH
 70
     1
  9
$DIMTOH
 70
     1
  9
$DIMSE1
 70
     0
  9
$DIMSE2
 70
     0
  9
$DIMTAD
 70
     0
  9
$DIMZIN
 70
     0
  9
$DIMBLK
  1

  9
$DIMASO
 70
     1
  9
$DIMSHO
 70
     1
  9
$DIMPOST
  1

  9
$DIMAPOST
  1

  9
$DIMALT
 70
     0
  9
$DIMALTD
 70
     2
  9
$DIMALTF
 40
25.4
  9
$DIMLFAC
 40
1.0
  9
$DIMTOFL
 70
     0
  9
$DIMTVP
 40
0.0
  9
$DIMTIX
 70
     0
  9
$DIMSOXD
 70
     0
  9
$DIMSAH
 70
     0
  9
$DIMBLK1
  1

  9
$DIMBLK2
  1

  9
$DIMSTYLE
  2
STANDARD
  9
$DIMCLRD
 70
     0
  9
$DIMCLRE
 70
     0
  9
$DIMCLRT
 70
     0
  9
$DIMTFAC
 40
1.0
  9
$DIMGAP
 40
0.09
  9
$DIMJUST
 70
     0
  9
$DIMSD1
 70
     0
  9
$DIMSD2
 70
     0
  9
$DIMTOLJ
 70
     1
  9
$DIMTZIN
 70
     0
  9
$DIMALTZ
 70
     0
  9
$DIMALTTZ
 70
     0
  9
$DIMFIT
 70
     3
  9
$DIMUPT
 70
     0
  9
$DIMUNIT
 70
     2
  9
$DIMDEC
 70
     4
  9
$DIMTDEC
 70
     4
  9
$DIMALTU
 70
     2
  9
$DIMALTTD
 70
     2
  9
$DIMTXSTY
  7
STANDARD
  9
$DIMAUNIT
 70
     0
  9
$LUNITS
 70
     2
  9
$LUPREC
 70
     4
  9
$SKETCHINC
 40
0.1
  9
$FILLETRAD
 40
0.0
  9
$AUNITS
 70
     0
  9
$AUPREC
 70
     0
  9
$MENU
  1
acad
  9
$ELEVATION
 40
0.0
  9
$PELEVATION
 40
0.0
  9
$THICKNESS
 40
0.0
  9
$LIMCHECK
 70
     0
  9
$CHAMFERA
 40
0.0
  9
$CHAMFERB
 40
0.0
  9
$CHAMFERC
 40
0.0
  9
$CHAMFERD
 40
0.0
  9
$SKPOLY
 70
     0
  9
$TDCREATE
 40
2447893.083333334
  9
$TDUPDATE
 40
2447893.083333334
  9
$TDINDWG
 40
0.0063303241
  9
$TDUSRTIMER
 40
0.0063303241
  9
$USRTIMER
 70
     1
  9
$ANGBASE
 50
0.0
  9
$ANGDIR
 70
     0
  9
$PDMODE
 70
     0
  9
$PDSIZE
 40
0.0
  9
$PLINEWID
 40
0.0
  9
$COORDS
 70
     1
  9
$SPLFRAME
 70
     0
  9
$SPLINETYPE
 70
     6
  9
$SPLINESEGS
 70
     8
  9
$ATTDIA
 70
     0
  9
$ATTREQ
 70
     1
  9
$HANDLING
 70
     1
  9
$HANDSEED
  5
2FF
  9
$SURFTAB1
 70
     6
  9
$SURFTAB2
 70
     6
  9
$SURFTYPE
 70
     6
  9
$SURFU
 70
     6
  9
$SURFV
 70
     6
  9
$UCSNAME
  2

  9
$UCSORG
 10
0.0
 20
0.0
 30
0.0
  9
$UCSXDIR
 10
1.0
 20
0.0
 30
0.0
  9
$UCSYDIR
 10
0.0
 20
1.0
 30
0.0
  9
$PUCSNAME
  2

  9
$PUCSORG
 10
0.0
 20
0.0
 30
0.0
  9
$PUCSXDIR
 10
1.0
 20
0.0
 30
0.0
  9
$PUCSYDIR
 10
0.0
 20
1.0
 30
0.0
  9
$USERI1
 70
     0
  9
$USERI2
 70
     0
  9
$USERI3
 70
     0
  9
$USERI4
 70
     0
  9
$USERI5
 70
     0
  9
$USERR1
 40
0.0
  9
$USERR2
 40
0.0
  9
$USERR3
 40
0.0
  9
$USERR4
 40
0.0
  9
$USERR5
 40
0.0
  9
$WORLDVIEW
 70
     1
  9
$SHADEDGE
 70
     3
  9
$SHADEDIF
 70
    70
  9
$TILEMODE
 70
     1
  9
$MAXACTVP
 70
    16
  9
$PINSBASE
 10
0.0
 20
0.0
 30
0.0
  9
$PLIMCHECK
 70
     0
  9
$PEXTMIN
 10
1.000000000000000E+20
 20
1.000000000000000E+20
 30
1.000000000000000E+20
  9
$PEXTMAX
 10
-1.000000000000000E+20
 20
-1.000000000000000E+20
 30
-1.000000000000000E+20
  9
$PLIMMIN
 10
0.0
 20
0.0
  9
$PLIMMAX
 10
12.0
 20
9.0
  9
$UNITMODE
 70
     0
  9
$VISRETAIN
 70
     0
  9
$PLINEGEN
 70
     0
  9
$PSLTSCALE
 70
     1
  9
$TREEDEPTH
 70
  3020
  9
$PICKSTYLE
 70
     1
  9
$CMLSTYLE
  2
STANDARD
  9
$CMLJUST
 70
     0
  9
$CMLSCALE
 40
1.0
  9
$SAVEIMAGES
 70
     1
  0
ENDSEC
  0
SECTION
  2
CLASSES
  0
CLASS
  1
XRECORD
  2
AcDbXrecord
  3
AutoCAD 2000
 90
    32768
280
     0
281
     0
  0
CLASS
  1
LWPOLYLINE
  2
AcDbPolyline
  3
AutoCAD 2000
 90
    32768
280
     0
281
     1
  0
CLASS
  1
HATCH
  2
AcDbHatch
  3
AutoCAD 2000
 90
    32768
280
     0
281
     1
  0
CLASS
  1
ACDBPLACEHOLDER
  2
AcDbPlaceHolder
  3
ObjectDBX Classes
 90
        0
280
     0
281
     0
  0
CLASS
  1
LAYOUT
  2
AcDbLayout
  3
ObjectDBX Classes
 90
        0
280
     0
281
     0
  0
ENDSEC
  0
SECTION
  2
TABLES
  0
TABLE
  2
VPORT
  5
8
330
0
100
AcDbSymbolTable
 70
     1
  0
VPORT
  5
1E2
102
{ACAD_XDICTIONARY
360
2FD
102
}
330
8
100
AcDbSymbolTableRecord
100
AcDbViewportTableRecord
  2
*ACTIVE
 70
     0
 10
0.0
 20
0.0
 11
1.0
 21
1.0
 12
99.244129
 22
-42.815023
 13
0.0
 23
0.0
 14
1.0
 24
1.0
 15
0.0
 25
0.0
 16
0.0
 26
0.0
 36
1.0
 17
0.0
 27
0.0
 37
0.0
 40
103.630046
 41
1.915354
 42
50.0
 43
0.0
 44
0.0
 50
0.0
 51
0.0
 71
     0
 72
   100
 73
     1
 74
     1
 75
     0
 76
     0
 77
     0
 78
     0
  0
ENDTAB
  0
TABLE
  2
LTYPE
  5
5
330
0
100
AcDbSymbolTable
 70
     1
  0
LTYPE
  5
14
330
5
100
AcDbSymbolTableRecord
100
AcDbLinetypeTableRecord
  2
BYBLOCK
 70
     0
  3

 72
    65
 73
     0
 40
0.0
  0
LTYPE
  5
15
330
5
100
AcDbSymbolTableRecord
100
AcDbLinetypeTableRecord
  2
BYLAYER
 70
     0
  3

 72
    65
 73
     0
 40
0.0
  0
LTYPE
  5
16
330
5
100
AcDbSymbolTableRecord
100
AcDbLinetypeTableRecord
  2
CONTINUOUS
 70
     0
  3
Solid line
 72
    65
 73
     0
 40
0.0
  0
ENDTAB
  0
TABLE
  2
LAYER
  5
2
330
0
100
AcDbSymbolTable
 70
     2
  0
LAYER
  5
F
330
2
100
AcDbSymbolTableRecord
100
AcDbLayerTableRecord
  2
0
 70
     0
 62
     7
  6
CONTINUOUS
  0
LAYER
  5
5B
330
2
100
AcDbSymbolTableRecord
100
AcDbLayerTableRecord
  2
GUIDE
 70
     0
 62
     7
  6
CONTINUOUS
  0
ENDTAB
  0
TABLE
  2
STYLE
  5
3
330
0
100
AcDbSymbolTable
 70
     1
  0
STYLE
  5
10
330
3
100
AcDbSymbolTableRecord
100
AcDbTextStyleTableRecord
  2
STANDARD
 70
     0
 40
0.0
 41
1.0
 50
0.0
 71
     0
 42
0.2
  3
txt
  4

  0
ENDTAB
  0
TABLE
  2
VIEW
  5
6
330
0
100
AcDbSymbolTable
 70
     0
  0
ENDTAB
  0
TABLE
  2
UCS
  5
7
330
0
100
AcDbSymbolTable
 70
     0
  0
ENDTAB
  0
TABLE
  2
APPID
  5
9
330
0
100
AcDbSymbolTable
 70
     1
  0
APPID
  5
11
330
9
100
AcDbSymbolTableRecord
100
AcDbRegAppTableRecord
  2
ACAD
 70
     0
  0
ENDTAB
  0
TABLE
  2
DIMSTYLE
  5
A
330
0
100
AcDbSymbolTable
 70
     1
  0
DIMSTYLE
105
1D
330
A
100
AcDbSymbolTableRecord
100
AcDbDimStyleTableRecord
  2
STANDARD
 70
     0
  3

  4

  5

  6

  7

 40
1.0
 41
0.18
 42
0.0625
 43
0.38
 44
0.18
 45
0.0
 46
0.0
 47
0.0
 48
0.0
140
0.18
141
0.09
142
0.0
143
25.4
144
1.0
145
0.0
146
1.0
147
0.09
 71
     0
 72
     0
 73
     1
 74
     1
 75
     0
 76
     0
 77
     0
 78
     0
170
     0
171
     2
172
     0
173
     0
174
     0
175
     0
176
     0
177
     0
178
     0
270
     2
271
     4
272
     4
273
     2
274
     2
340
10
275
     0
280
     0
281
     0
282
     0
283
     1
284
     0
285
     0
286
     0
287
     3
288
     0
  0
ENDTAB
  0
TABLE
  2
BLOCK_RECORD
  5
1
330
0
100
AcDbSymbolTable
 70
     1
  0
BLOCK_RECORD
  5
1A
330
1
100
AcDbSymbolTableRecord
100
AcDbBlockTableRecord
  2
*MODEL_SPACE
  0
BLOCK_RECORD
  5
17
330
1
100
AcDbSymbolTableRecord
100
AcDbBlockTableRecord
  2
*PAPER_SPACE
  0
BLOCK_RECORD
  5
28
330
1
100
AcDbSymbolTableRecord
100
AcDbBlockTableRecord
  2
A$CE185
  0
ENDTAB
  0
ENDSEC
  0
SECTION
  2
BLOCKS
  0
BLOCK
  5
1B
330
1A
100
AcDbEntity
  8
0
100
AcDbBlockBegin
  2
*MODEL_SPACE
 70
     0
 71
     0
 10
0.0
 20
0.0
 30
0.0
  3
*MODEL_SPACE
  1

  0
ENDBLK
  5
1C
330
1A
100
AcDbEntity
  8
0
100
AcDbBlockEnd
  0
BLOCK
  5
18
330
17
100
AcDbEntity
 67
     1
  8
0
100
AcDbBlockBegin
  2
*PAPER_SPACE
 70
     0
 71
     0
 10
0.0
 20
0.0
 30
0.0
  3
*PAPER_SPACE
  1

  0
ENDBLK
  5
19
330
17
100
AcDbEntity
 67
     1
  8
0
100
AcDbBlockEnd
  0
BLOCK
  5
59
330
28
100
AcDbEntity
  8
0
100
AcDbBlockBegin
  2
A$CE185
 70
     0
 71
     0
 10
0.0
 20
0.0
 30
0.0
  3
A$CE185
  1

  0
POLYLINE
  5
29
330
28
100
AcDbEntity
  8
0
100
AcDb2dPolyline
 66
     1
 10
0.0
 20
0.0
 30
0.0
 70
     1
  0
VERTEX
  5
2D6
330
29
100
AcDbEntity
  8
0
100
AcDbVertex
100
AcDb2dVertex
 10
0.064019
 20
9.258595
 30
0.0
  0
VERTEX
  5
2D7
330
29
100
AcDbEntity
  8
0
100
AcDbVertex
100
AcDb2dVertex
 10
0.064019
 20
9.558595
 30
0.0
  0
VERTEX
  5
2D8
330
29
100
AcDbEntity
  8
0
100
AcDbVertex
100
AcDb2dVertex
 10
8.064019
 20
9.558595
 30
0.0
  0
VERTEX
  5
2D9
330
29
100
AcDbEntity
  8
0
100
AcDbVertex
100
AcDb2dVertex
 10
8.064019
 20
9.258595
 30
0.0
  0
SEQEND
  5
2D5
330
29
100
AcDbEntity
  8
0
  0
POLYLINE
  5
2F
330
28
100
AcDbEntity
  8
0
100
AcDb2dPolyline
 66
     1
 10
0.0
 20
0.0
 30
0.0
 70
     1
  0
VERTEX
  5
2DB
330
2F
100
AcDbEntity
  8
0
100
AcDbVertex
100
AcDb2dVertex
 10
-2.735981
 20
-6.541405
 30
0.0
  0
VERTEX
  5
2DC
330
2F
100
AcDbEntity
  8
0
100
AcDbVertex
100
AcDb2dVertex
 10
-2.735981
 20
0.058595
 30
0.0
  0
VERTEX
  5
2DD
330
2F
100
AcDbEntity
  8
0
100
AcDbVertex
100
AcDb2dVertex
 10
10.864019
 20
0.058595
 30
0.0
  0
VERTEX
  5
2DE
330
2F
100
AcDbEntity
  8
0
100
AcDbVertex
100
AcDb2dVertex
 10
10.864019
 20
-6.541405
 30
0.0
  0
SEQEND
  5
2DA
330
2F
100
AcDbEntity
  8
0
  0
POLYLINE
  5
35
330
28
100
AcDbEntity
  8
0
100
AcDb2dPolyline
 66
     1
 10
0.0
 20
0.0
 30
0.0
 70
     1
  0
VERTEX
  5
2E0
330
35
100
AcDbEntity
  8
0
100
AcDbVertex
100
AcDb2dVertex
 10
0.064019
 20
-6.841405
 30
0.0
  0
VERTEX
  5
2E1
330
35
100
AcDbEntity
  8
0
100
AcDbVertex
100
AcDb2dVertex
 10
0.064019
 20
-6.541405
 30
0.0
  0
VERTEX
  5
2E2
330
35
100
AcDbEntity
  8
0
100
AcDbVertex
100
AcDb2dVertex
 10
8.064019
 20
-6.541405
 30
0.0
  0
VERTEX
  5
2E3
330
35
100
AcDbEntity
  8
0
100
AcDbVertex
100
AcDb2dVertex
 10
8.064019
 20
-6.841405
 30
0.0
  0
SEQEND
  5
2DF
330
35
100
AcDbEntity
  8
0
  0
POLYLINE
  5
3B
330
28
100
AcDbEntity
  8
0
100
AcDb2dPolyline
 66
     1
 10
0.0
 20
0.0
 30
0.0
 70
     1
  0
VERTEX
  5
2E5
330
3B
100
AcDbEntity
  8
0
100
AcDbVertex
100
AcDb2dVertex
 10
1.564019
 20
-7.641405
 30
0.0
  0
VERTEX
  5
2E6
330
3B
100
AcDbEntity
  8
0
100
AcDbVertex
100
AcDb2dVertex
 10
1.564019
 20
-6.841405
 30
0.0
  0
VERTEX
  5
2E7
330
3B
100
AcDbEntity
  8
0
100
AcDbVertex
100
AcDb2dVertex
 10
6.564019
 20
-6.841405
 30
0.0
  0
VERTEX
  5
2E8
330
3B
100
AcDbEntity
  8
0
100
AcDbVertex
100
AcDb2dVertex
 10
6.564019
 20
-7.641405
 30
0.0
  0
SEQEND
  5
2E4
330
3B
100
AcDbEntity
  8
0
  0
POLYLINE
  5
41
330
28
100
AcDbEntity
  8
0
100
AcDb2dPolyline
 66
     1
 10
0.0
 20
0.0
 30
0.0
 70
     1
  0
VERTEX
  5
2EA
330
41
100
AcDbEntity
  8
0
100
AcDbVertex
100
AcDb2dVertex
 10
0.064019
 20
0.058595
 30
0.0
  0
VERTEX
  5
2EB
330
41
100
AcDbEntity
  8
0
100
AcDbVertex
100
AcDb2dVertex
 10
0.064019
 20
9.258595
 30
0.0
  0
VERTEX
  5
2EC
330
41
100
AcDbEntity
  8
0
100
AcDbVertex
100
AcDb2dVertex
 10
8.064019
 20
9.258595
 30
0.0
  0
VERTEX
  5
2ED
330
41
100
AcDbEntity
  8
0
100
AcDbVertex
100
AcDb2dVertex
 10
8.064019
 20
0.058595
 30
0.0
  0
SEQEND
  5
2E9
330
41
100
AcDbEntity
  8
0
  0
POLYLINE
  5
47
330
28
100
AcDbEntity
  8
0
100
AcDb2dPolyline
 66
     1
 10
0.0
 20
0.0
 30
0.0
 70
     1
  0
VERTEX
  5
2EF
330
47
100
AcDbEntity
  8
0
100
AcDbVertex
100
AcDb2dVertex
 10
1.564019
 20
25.358595
 30
0.0
  0
VERTEX
  5
2F0
330
47
100
AcDbEntity
  8
0
100
AcDbVertex
100
AcDb2dVertex
 10
1.564019
 20
26.158595
 30
0.0
  0
VERTEX
  5
2F1
330
47
100
AcDbEntity
  8
0
100
AcDbVertex
100
AcDb2dVertex
 10
6.564019
 20
26.158595
 30
0.0
  0
VERTEX
  5
2F2
330
47
100
AcDbEntity
  8
0
100
AcDbVertex
100
AcDb2dVertex
 10
6.564019
 20
25.358595
 30
0.0
  0
SEQEND
  5
2EE
330
47
100
AcDbEntity
  8
0
  0
POLYLINE
  5
4D
330
28
100
AcDbEntity
  8
0
100
AcDb2dPolyline
 66
     1
 10
0.0
 20
0.0
 30
0.0
 70
     1
  0
VERTEX
  5
2F4
330
4D
100
AcDbEntity
  8
0
100
AcDbVertex
100
AcDb2dVertex
 10
-2.735981
 20
9.558595
 30
0.0
  0
VERTEX
  5
2F5
330
4D
100
AcDbEntity
  8
0
100
AcDbVertex
100
AcDb2dVertex
 10
-2.735981
 20
16.158595
 30
0.0
  0
VERTEX
  5
2F6
330
4D
100
AcDbEntity
  8
0
100
AcDbVertex
100
AcDb2dVertex
 10
10.864019
 20
16.158595
 30
0.0
  0
VERTEX
  5
2F7
330
4D
100
AcDbEntity
  8
0
100
AcDbVertex
100
AcDb2dVertex
 10
10.864019
 20
9.558595
 30
0.0
  0
SEQEND
  5
2F3
330
4D
100
AcDbEntity
  8
0
  0
POLYLINE
  5
53
330
28
100
AcDbEntity
  8
0
100
AcDb2dPolyline
 66
     1
 10
0.0
 20
0.0
 30
0.0
 70
     1
  0
VERTEX
  5
2F9
330
53
100
AcDbEntity
  8
0
100
AcDbVertex
100
AcDb2dVertex
 10
0.064019
 20
16.158595
 30
0.0
  0
VERTEX
  5
2FA
330
53
100
AcDbEntity
  8
0
100
AcDbVertex
100
AcDb2dVertex
 10
0.064019
 20
25.358595
 30
0.0
  0
VERTEX
  5
2FB
330
53
100
AcDbEntity
  8
0
100
AcDbVertex
100
AcDb2dVertex
 10
8.064019
 20
25.358595
 30
0.0
  0
VERTEX
  5
2FC
330
53
100
AcDbEntity
  8
0
100
AcDbVertex
100
AcDb2dVertex
 10
8.064019
 20
16.158595
 30
0.0
  0
SEQEND
  5
2F8
330
53
100
AcDbEntity
  8
0
  0
ENDBLK
  5
5A
330
28
100
AcDbEntity
  8
0
100
AcDbBlockEnd
  0
ENDSEC
  0
SECTION
  2
ENTITIES
  0
LINE
  5
128
330
1A
100
AcDbEntity
  8
GUIDE
100
AcDbLine
 10
74.3
 20
-66.730046
 30
0.0
 11
74.3
 21
-78.430046
 31
0.0
  0
LINE
  5
129
330
1A
100
AcDbEntity
  8
GUIDE
100
AcDbLine
 10
6.0
 20
-66.730046
 30
0.0
 11
74.3
 21
-66.730046
 31
0.0
  0
LINE
  5
12A
330
1A
100
AcDbEntity
  8
GUIDE
100
AcDbLine
 10
16.2
 20
-94.63004599999999
 30
0.0
 11
64.09999999999999
 21
-94.63004599999999
 31
0.0
  0
LINE
  5
12B
330
1A
100
AcDbEntity
  8
GUIDE
100
AcDbLine
 10
2.914856
 20
-78.430046
 30
0.0
 11
77.385144
 21
-78.430046
 31
0.0
  0
ARC
  5
12C
330
1A
100
AcDbEntity
  8
GUIDE
100
AcDbCircle
 10
74.3
 20
-72.730046
 30
0.0
 40
6.0
100
AcDbArc
 50
320.645827
 51
90.0
  0
LINE
  5
12D
330
1A
100
AcDbEntity
  8
GUIDE
100
AcDbLine
 10
64.09999999999999
 20
-94.63004599999999
 30
0.0
 11
78.939446
 21
-76.534719
 31
0.0
  0
ARC
  5
12E
330
1A
100
AcDbEntity
  8
GUIDE
100
AcDbCircle
 10
6.0
 20
-72.730046
 30
0.0
 40
6.0
100
AcDbArc
 50
90.0
 51
219.354173
  0
LINE
  5
12F
330
1A
100
AcDbEntity
  8
GUIDE
100
AcDbLine
 10
16.2
 20
-94.63004599999999
 30
0.0
 11
1.360554
 21
-76.534719
 31
0.0
  0
ARC
  5
130
330
1A
100
AcDbEntity
  8
GUIDE
100
AcDbCircle
 10
8.9
 20
-70.530046
 30
0.0
 40
6.8
100
AcDbArc
 50
33.974476
 51
155.511503
  0
ARC
  5
131
330
1A
100
AcDbEntity
  8
GUIDE
100
AcDbCircle
 10
21.0
 20
-70.530046
 30
0.0
 40
6.8
100
AcDbArc
 50
33.974476
 51
146.025524
  0
ARC
  5
132
330
1A
100
AcDbEntity
  8
GUIDE
100
AcDbCircle
 10
33.0
 20
-70.530046
 30
0.0
 40
6.8
100
AcDbArc
 50
33.974476
 51
146.025524
  0
ARC
  5
133
330
1A
100
AcDbEntity
  8
GUIDE
100
AcDbCircle
 10
45.1
 20
-70.530046
 30
0.0
 40
6.8
100
AcDbArc
 50
33.974476
 51
146.025524
  0
ARC
  5
134
330
1A
100
AcDbEntity
  8
GUIDE
100
AcDbCircle
 10
57.2
 20
-70.530046
 30
0.0
 40
6.8
100
AcDbArc
 50
33.974476
 51
146.025524
  0
ARC
  5
135
330
1A
100
AcDbEntity
  8
GUIDE
100
AcDbCircle
 10
69.3
 20
-70.530046
 30
0.0
 40
6.8
100
AcDbArc
 50
33.60107100000001
 51
146.025524
  0
INSERT
  5
136
330
1A
100
AcDbEntity
  8
GUIDE
100
AcDbBlockReference
  2
A$CE185
 10
4.835981
 20
-30.408595
 30
0.0
  0
INSERT
  5
137
330
1A
100
AcDbEntity
  8
GUIDE
100
AcDbBlockReference
  2
A$CE185
 10
16.935981
 20
-11.891405
 30
0.0
 41
-1.0
 50
180.0
  0
INSERT
  5
138
330
1A
100
AcDbEntity
  8
GUIDE
100
AcDbBlockReference
  2
A$CE185
 10
28.935981
 20
-30.408595
 30
0.0
  0
INSERT
  5
139
330
1A
100
AcDbEntity
  8
GUIDE
100
AcDbBlockReference
  2
A$CE185
 10
41.035981
 20
-11.891405
 30
0.0
 41
-1.0
 50
180.0
  0
INSERT
  5
13A
330
1A
100
AcDbEntity
  8
GUIDE
100
AcDbBlockReference
  2
A$CE185
 10
65.235981
 20
-11.891405
 30
0.0
 41
-1.0
 50
180.0
  0
INSERT
  5
13B
330
1A
100
AcDbEntity
  8
GUIDE
100
AcDbBlockReference
  2
A$CE185
 10
53.135981
 20
-30.408595
 30
0.0
  0
LINE
  5
13C
330
1A
100
AcDbEntity
  8
GUIDE
100
AcDbLine
 10
6.0
 20
-4.25
 30
0.0
 11
80.3
 21
-4.25
 31
0.0
  0
LINE
  5
13D
330
1A
100
AcDbEntity
  8
GUIDE
100
AcDbLine
 10
6.0
 20
-38.05
 30
0.0
 11
80.3
 21
-38.05
 31
0.0
  0
LINE
  5
13E
330
1A
100
AcDbEntity
  8
GUIDE
100
AcDbLine
 10
0.0
 20
0.0
 30
0.0
 11
74.3
 21
0.0
 31
0.0
  0
LINE
  5
13F
330
1A
100
AcDbEntity
  8
GUIDE
100
AcDbLine
 10
0.0
 20
-42.3
 30
0.0
 11
74.3
 21
-42.3
 31
0.0
  0
LINE
  5
140
330
1A
100
AcDbEntity
  8
GUIDE
100
AcDbLine
 10
0.0
 20
-42.3
 30
0.0
 11
0.0
 21
-40.175
 31
0.0
  0
LINE
  5
141
330
1A
100
AcDbEntity
  8
GUIDE
100
AcDbLine
 10
80.3
 20
-2.125
 30
0.0
 11
80.3
 21
-4.25
 31
0.0
  0
LINE
  5
142
330
1A
100
AcDbEntity
  8
GUIDE
100
AcDbLine
 10
74.3
 20
0.0
 30
0.0
 11
74.3
 21
-2.125
 31
0.0
  0
LINE
  5
143
330
1A
100
AcDbEntity
  8
GUIDE
100
AcDbLine
 10
6.0
 20
-2.125
 30
0.0
 11
6.0
 21
-4.25
 31
0.0
  0
LINE
  5
144
330
1A
100
AcDbEntity
  8
GUIDE
100
AcDbLine
 10
0.0
 20
-2.125
 30
0.0
 11
6.0
 21
-2.125
 31
0.0
  0
LINE
  5
145
330
1A
100
AcDbEntity
  8
GUIDE
100
AcDbLine
 10
0.0
 20
-40.175
 30
0.0
 11
6.0
 21
-40.175
 31
0.0
  0
LINE
  5
146
330
1A
100
AcDbEntity
  8
GUIDE
100
AcDbLine
 10
0.0
 20
-2.125
 30
0.0
 11
0.0
 21
0.0
 31
0.0
  0
LINE
  5
147
330
1A
100
AcDbEntity
  8
GUIDE
100
AcDbLine
 10
6.0
 20
-38.05
 30
0.0
 11
6.0
 21
-40.175
 31
0.0
  0
LINE
  5
148
330
1A
100
AcDbEntity
  8
GUIDE
100
AcDbLine
 10
74.3
 20
-2.125
 30
0.0
 11
80.3
 21
-2.125
 31
0.0
  0
LINE
  5
149
330
1A
100
AcDbEntity
  8
GUIDE
100
AcDbLine
 10
74.3
 20
-40.175
 30
0.0
 11
74.3
 21
-42.3
 31
0.0
  0
LINE
  5
14A
330
1A
100
AcDbEntity
  8
GUIDE
100
AcDbLine
 10
80.3
 20
-38.05
 30
0.0
 11
80.3
 21
-40.175
 31
0.0
  0
LINE
  5
14B
330
1A
100
AcDbEntity
  8
GUIDE
100
AcDbLine
 10
74.3
 20
-40.175
 30
0.0
 11
80.3
 21
-40.175
 31
0.0
  0
LINE
  5
14C
330
1A
100
AcDbEntity
  8
GUIDE
100
AcDbLine
 10
9.9
 20
-4.25
 30
0.0
 11
9.9
 21
0.0
 31
0.0
  0
LINE
  5
14D
330
1A
100
AcDbEntity
  8
GUIDE
100
AcDbLine
 10
7.9
 20
-4.25
 30
0.0
 11
7.9
 21
0.0
 31
0.0
  0
LINE
  5
14E
330
1A
100
AcDbEntity
  8
GUIDE
100
AcDbLine
 10
20.0
 20
-4.25
 30
0.0
 11
20.0
 21
0.0
 31
0.0
  0
LINE
  5
14F
330
1A
100
AcDbEntity
  8
GUIDE
100
AcDbLine
 10
22.0
 20
-4.25
 30
0.0
 11
22.0
 21
0.0
 31
0.0
  0
LINE
  5
150
330
1A
100
AcDbEntity
  8
GUIDE
100
AcDbLine
 10
32.0
 20
-4.25
 30
0.0
 11
32.0
 21
0.0
 31
0.0
  0
LINE
  5
151
330
1A
100
AcDbEntity
  8
GUIDE
100
AcDbLine
 10
34.0
 20
-4.25
 30
0.0
 11
34.0
 21
0.0
 31
0.0
  0
LINE
  5
152
330
1A
100
AcDbEntity
  8
GUIDE
100
AcDbLine
 10
44.1
 20
-4.25
 30
0.0
 11
44.1
 21
0.0
 31
0.0
  0
LINE
  5
153
330
1A
100
AcDbEntity
  8
GUIDE
100
AcDbLine
 10
46.1
 20
-4.25
 30
0.0
 11
46.1
 21
0.0
 31
0.0
  0
LINE
  5
154
330
1A
100
AcDbEntity
  8
GUIDE
100
AcDbLine
 10
56.2
 20
-4.25
 30
0.0
 11
56.2
 21
0.0
 31
0.0
  0
LINE
  5
155
330
1A
100
AcDbEntity
  8
GUIDE
100
AcDbLine
 10
58.2
 20
-4.25
 30
0.0
 11
58.2
 21
0.0
 31
0.0
  0
LINE
  5
156
330
1A
100
AcDbEntity
  8
GUIDE
100
AcDbLine
 10
68.3
 20
-4.25
 30
0.0
 11
68.3
 21
0.0
 31
0.0
  0
LINE
  5
157
330
1A
100
AcDbEntity
  8
GUIDE
100
AcDbLine
 10
70.3
 20
-4.25
 30
0.0
 11
70.3
 21
0.0
 31
0.0
  0
LINE
  5
158
330
1A
100
AcDbEntity
  8
GUIDE
100
AcDbLine
 10
68.3
 20
-42.3
 30
0.0
 11
68.3
 21
-38.05
 31
0.0
  0
LINE
  5
159
330
1A
100
AcDbEntity
  8
GUIDE
100
AcDbLine
 10
70.3
 20
-42.3
 30
0.0
 11
70.3
 21
-38.05
 31
0.0
  0
LINE
  5
15A
330
1A
100
AcDbEntity
  8
GUIDE
100
AcDbLine
 10
56.2
 20
-38.05
 30
0.0
 11
56.2
 21
-42.3
 31
0.0
  0
LINE
  5
15B
330
1A
100
AcDbEntity
  8
GUIDE
100
AcDbLine
 10
58.2
 20
-38.05
 30
0.0
 11
58.2
 21
-42.3
 31
0.0
  0
LINE
  5
15C
330
1A
100
AcDbEntity
  8
GUIDE
100
AcDbLine
 10
46.1
 20
-38.05
 30
0.0
 11
46.1
 21
-42.3
 31
0.0
  0
LINE
  5
15D
330
1A
100
AcDbEntity
  8
GUIDE
100
AcDbLine
 10
44.1
 20
-38.05
 30
0.0
 11
44.1
 21
-42.3
 31
0.0
  0
LINE
  5
15E
330
1A
100
AcDbEntity
  8
GUIDE
100
AcDbLine
 10
32.0
 20
-42.3
 30
0.0
 11
32.0
 21
-38.05
 31
0.0
  0
LINE
  5
15F
330
1A
100
AcDbEntity
  8
GUIDE
100
AcDbLine
 10
34.0
 20
-42.3
 30
0.0
 11
34.0
 21
-38.05
 31
0.0
  0
LINE
  5
160
330
1A
100
AcDbEntity
  8
GUIDE
100
AcDbLine
 10
22.0
 20
-38.05
 30
0.0
 11
22.0
 21
-42.3
 31
0.0
  0
LINE
  5
161
330
1A
100
AcDbEntity
  8
GUIDE
100
AcDbLine
 10
20.0
 20
-38.05
 30
0.0
 11
20.0
 21
-42.3
 31
0.0
  0
LINE
  5
162
330
1A
100
AcDbEntity
  8
GUIDE
100
AcDbLine
 10
9.9
 20
-38.05
 30
0.0
 11
9.9
 21
-42.3
 31
0.0
  0
LINE
  5
163
330
1A
100
AcDbEntity
  8
GUIDE
100
AcDbLine
 10
7.9
 20
-38.05
 30
0.0
 11
7.9
 21
-42.3
 31
0.0
  0
LINE
  5
164
330
1A
100
AcDbEntity
  8
GUIDE
100
AcDbLine
 10
7.9
 20
0.975
 30
0.0
 11
70.3
 21
0.975
 31
0.0
  0
LINE
  5
165
330
1A
100
AcDbEntity
  8
GUIDE
100
AcDbLine
 10
7.9
 20
0.975
 30
0.0
 11
3.124372
 21
0.0
 31
0.0
  0
LINE
  5
166
330
1A
100
AcDbEntity
  8
GUIDE
100
AcDbLine
 10
70.3
 20
0.975
 30
0.0
 11
71.163161
 21
0.0
 31
0.0
  0
LINE
  5
167
330
1A
100
AcDbEntity
  8
GUIDE
100
AcDbLine
 10
7.9
 20
-43.275
 30
0.0
 11
3.124372
 21
-42.3
 31
0.0
  0
LINE
  5
168
330
1A
100
AcDbEntity
  8
GUIDE
100
AcDbLine
 10
7.9
 20
-43.275
 30
0.0
 11
70.3
 21
-43.275
 31
0.0
  0
LINE
  5
169
330
1A
100
AcDbEntity
  8
GUIDE
100
AcDbLine
 10
70.3
 20
-43.275
 30
0.0
 11
71.163161
 21
-42.3
 31
0.0
  0
LINE
  5
16A
330
1A
100
AcDbEntity
  8
GUIDE
100
AcDbLine
 10
115.918582
 20
-42.3
 30
0.0
 11
104.218582
 21
-42.3
 31
0.0
  0
POLYLINE
  5
16B
330
1A
100
AcDbEntity
  8
GUIDE
100
AcDb2dPolyline
 66
     1
 10
0.0
 20
0.0
 30
0.0
 70
     1
  0
VERTEX
  5
286
330
16B
100
AcDbEntity
  8
GUIDE
100
AcDbVertex
100
AcDb2dVertex
 10
105.318582
 20
-36.95
 30
0.0
  0
VERTEX
  5
287
330
16B
100
AcDbEntity
  8
GUIDE
100
AcDbVertex
100
AcDb2dVertex
 10
105.318582
 20
-30.35
 30
0.0
  0
VERTEX
  5
288
330
16B
100
AcDbEntity
  8
GUIDE
100
AcDbVertex
100
AcDb2dVertex
 10
118.918582
 20
-30.35
 30
0.0
  0
VERTEX
  5
289
330
16B
100
AcDbEntity
  8
GUIDE
100
AcDbVertex
100
AcDb2dVertex
 10
118.918582
 20
-36.95
 30
0.0
  0
SEQEND
  5
285
330
16B
100
AcDbEntity
  8
GUIDE
  0
POLYLINE
  5
171
330
1A
100
AcDbEntity
  8
GUIDE
100
AcDb2dPolyline
 66
     1
 10
0.0
 20
0.0
 30
0.0
 70
     1
  0
VERTEX
  5
28B
330
171
100
AcDbEntity
  8
GUIDE
100
AcDbVertex
100
AcDb2dVertex
 10
109.618582
 20
-5.05
 30
0.0
  0
VERTEX
  5
28C
330
171
100
AcDbEntity
  8
GUIDE
100
AcDbVertex
100
AcDb2dVertex
 10
109.618582
 20
-4.25
 30
0.0
  0
VERTEX
  5
28D
330
171
100
AcDbEntity
  8
GUIDE
100
AcDbVertex
100
AcDb2dVertex
 10
114.618582
 20
-4.25
 30
0.0
  0
VERTEX
  5
28E
330
171
100
AcDbEntity
  8
GUIDE
100
AcDbVertex
100
AcDb2dVertex
 10
114.618582
 20
-5.05
 30
0.0
  0
SEQEND
  5
28A
330
171
100
AcDbEntity
  8
GUIDE
  0
LINE
  5
177
330
1A
100
AcDbEntity
  8
GUIDE
100
AcDbLine
 10
103.318582
 20
-7.0
 30
0.0
 11
103.318582
 21
-35.3
 31
0.0
  0
POLYLINE
  5
178
330
1A
100
AcDbEntity
  8
GUIDE
100
AcDb2dPolyline
 66
     1
 10
0.0
 20
0.0
 30
0.0
 70
     1
  0
VERTEX
  5
290
330
178
100
AcDbEntity
  8
GUIDE
100
AcDbVertex
100
AcDb2dVertex
 10
108.118582
 20
-37.25
 30
0.0
  0
VERTEX
  5
291
330
178
100
AcDbEntity
  8
GUIDE
100
AcDbVertex
100
AcDb2dVertex
 10
108.118582
 20
-36.95
 30
0.0
  0
VERTEX
  5
292
330
178
100
AcDbEntity
  8
GUIDE
100
AcDbVertex
100
AcDb2dVertex
 10
116.118582
 20
-36.95
 30
0.0
  0
VERTEX
  5
293
330
178
100
AcDbEntity
  8
GUIDE
100
AcDbVertex
100
AcDb2dVertex
 10
116.118582
 20
-37.25
 30
0.0
  0
SEQEND
  5
28F
330
178
100
AcDbEntity
  8
GUIDE
  0
POLYLINE
  5
17E
330
1A
100
AcDbEntity
  8
GUIDE
100
AcDb2dPolyline
 66
     1
 10
0.0
 20
0.0
 30
0.0
 70
     1
  0
VERTEX
  5
295
330
17E
100
AcDbEntity
  8
GUIDE
100
AcDbVertex
100
AcDb2dVertex
 10
109.618582
 20
-38.05
 30
0.0
  0
VERTEX
  5
296
330
17E
100
AcDbEntity
  8
GUIDE
100
AcDbVertex
100
AcDb2dVertex
 10
109.618582
 20
-37.25
 30
0.0
  0
VERTEX
  5
297
330
17E
100
AcDbEntity
  8
GUIDE
100
AcDbVertex
100
AcDb2dVertex
 10
114.618582
 20
-37.25
 30
0.0
  0
VERTEX
  5
298
330
17E
100
AcDbEntity
  8
GUIDE
100
AcDbVertex
100
AcDb2dVertex
 10
114.618582
 20
-38.05
 30
0.0
  0
SEQEND
  5
294
330
17E
100
AcDbEntity
  8
GUIDE
  0
LINE
  5
184
330
1A
100
AcDbEntity
  8
GUIDE
100
AcDbLine
 10
104.218582
 20
0.0
 30
0.0
 11
115.918582
 21
0.0
 31
0.0
  0
LINE
  5
185
330
1A
100
AcDbEntity
  8
GUIDE
100
AcDbLine
 10
103.318582
 20
0.975
 30
0.0
 11
104.218582
 21
0.0
 31
0.0
  0
LINE
  5
186
330
1A
100
AcDbEntity
  8
GUIDE
100
AcDbLine
 10
103.318582
 20
-43.275
 30
0.0
 11
104.218582
 21
-42.3
 31
0.0
  0
ARC
  5
187
330
1A
100
AcDbEntity
  8
GUIDE
100
AcDbCircle
 10
106.077105
 20
-6.903926
 30
0.0
 40
2.760196
100
AcDbArc
 50
105.950562
 51
181.994691
  0
ARC
  5
188
330
1A
100
AcDbEntity
  8
GUIDE
100
AcDbCircle
 10
106.077105
 20
-35.396074
 30
0.0
 40
2.760196
100
AcDbArc
 50
178.005309
 51
254.049438
  0
LINE
  5
189
330
1A
100
AcDbEntity
  8
GUIDE
100
AcDbLine
 10
100.318582
 20
-41.15
 30
0.0
 11
100.318582
 21
-1.15
 31
0.0
  0
LINE
  5
18A
330
1A
100
AcDbEntity
  8
GUIDE
100
AcDbLine
 10
92.31858200000001
 20
-2.15
 30
0.0
 11
87.735387
 21
0.062932
 31
0.0
  0
ARC
  5
18B
330
1A
100
AcDbEntity
  8
GUIDE
100
AcDbCircle
 10
88.018582
 20
0.475
 30
0.0
 40
0.5
100
AcDbArc
 50
90.0
 51
235.501061
  0
POLYLINE
  5
18C
330
1A
100
AcDbEntity
  8
GUIDE
100
AcDb2dPolyline
 66
     1
 10
0.0
 20
0.0
 30
0.0
  0
VERTEX
  5
29A
330
18C
100
AcDbEntity
  8
GUIDE
100
AcDbVertex
100
AcDb2dVertex
 10
88.018582
 20
0.975
 30
0.0
  0
VERTEX
  5
29B
330
18C
100
AcDbEntity
  8
GUIDE
100
AcDbVertex
100
AcDb2dVertex
 10
103.318582
 20
0.975
 30
0.0
  0
SEQEND
  5
299
330
18C
100
AcDbEntity
  8
GUIDE
  0
LINE
  5
190
330
1A
100
AcDbEntity
  8
GUIDE
100
AcDbLine
 10
92.31858200000001
 20
-40.15
 30
0.0
 11
87.735387
 21
-42.362932
 31
0.0
  0
ARC
  5
191
330
1A
100
AcDbEntity
  8
GUIDE
100
AcDbCircle
 10
88.018582
 20
-42.775
 30
0.0
 40
0.5
100
AcDbArc
 50
124.498939
 51
270.0
  0
POLYLINE
  5
192
330
1A
100
AcDbEntity
  8
GUIDE
100
AcDb2dPolyline
 66
     1
 10
0.0
 20
0.0
 30
0.0
  0
VERTEX
  5
29D
330
192
100
AcDbEntity
  8
GUIDE
100
AcDbVertex
100
AcDb2dVertex
 10
103.318582
 20
-43.275
 30
0.0
  0
VERTEX
  5
29E
330
192
100
AcDbEntity
  8
GUIDE
100
AcDbVertex
100
AcDb2dVertex
 10
88.018582
 20
-43.275
 30
0.0
  0
SEQEND
  5
29C
330
192
100
AcDbEntity
  8
GUIDE
  0
ARC
  5
196
330
1A
100
AcDbEntity
  8
GUIDE
100
AcDbCircle
 10
101.006082
 20
-1.9
 30
0.0
 40
0.8125
100
AcDbArc
 50
292.619865
 51
67.380135
  0
LINE
  5
197
330
1A
100
AcDbEntity
  8
GUIDE
100
AcDbLine
 10
101.318582
 20
-1.15
 30
0.0
 11
100.318582
 21
-1.15
 31
0.0
  0
LINE
  5
198
330
1A
100
AcDbEntity
  8
GUIDE
100
AcDbLine
 10
101.318582
 20
-2.65
 30
0.0
 11
100.318582
 21
-2.65
 31
0.0
  0
LINE
  5
199
330
1A
100
AcDbEntity
  8
GUIDE
100
AcDbLine
 10
101.318582
 20
-39.65
 30
0.0
 11
100.318582
 21
-39.65
 31
0.0
  0
LINE
  5
19A
330
1A
100
AcDbEntity
  8
GUIDE
100
AcDbLine
 10
101.318582
 20
-41.15
 30
0.0
 11
100.318582
 21
-41.15
 31
0.0
  0
ARC
  5
19B
330
1A
100
AcDbEntity
  8
GUIDE
100
AcDbCircle
 10
101.006082
 20
-40.4
 30
0.0
 40
0.8125
100
AcDbArc
 50
292.619865
 51
67.380135
  0
POLYLINE
  5
19C
330
1A
100
AcDbEntity
  8
GUIDE
100
AcDb2dPolyline
 66
     1
 10
0.0
 20
0.0
 30
0.0
  0
VERTEX
  5
2A0
330
19C
100
AcDbEntity
  8
GUIDE
100
AcDbVertex
100
AcDb2dVertex
 10
115.918582
 20
0.0
 30
0.0
  0
VERTEX
  5
2A1
330
19C
100
AcDbEntity
  8
GUIDE
100
AcDbVertex
100
AcDb2dVertex
 10
115.918582
 20
-3.25
 30
0.0
 42
-0.414214
  0
VERTEX
  5
2A2
330
19C
100
AcDbEntity
  8
GUIDE
100
AcDbVertex
100
AcDb2dVertex
 10
114.918582
 20
-4.25
 30
0.0
  0
VERTEX
  5
2A3
330
19C
100
AcDbEntity
  8
GUIDE
100
AcDbVertex
100
AcDb2dVertex
 10
105.318582
 20
-4.25
 30
0.0
  0
SEQEND
  5
29F
330
19C
100
AcDbEntity
  8
GUIDE
  0
POLYLINE
  5
1A2
330
1A
100
AcDbEntity
  8
GUIDE
100
AcDb2dPolyline
 66
     1
 10
0.0
 20
0.0
 30
0.0
  0
VERTEX
  5
2A5
330
1A2
100
AcDbEntity
  8
GUIDE
100
AcDbVertex
100
AcDb2dVertex
 10
105.318582
 20
-38.05
 30
0.0
  0
VERTEX
  5
2A6
330
1A2
100
AcDbEntity
  8
GUIDE
100
AcDbVertex
100
AcDb2dVertex
 10
114.918582
 20
-38.05
 30
0.0
 42
-0.365938
  0
VERTEX
  5
2A7
330
1A2
100
AcDbEntity
  8
GUIDE
100
AcDbVertex
100
AcDb2dVertex
 10
115.918582
 20
-39.3
 30
0.0
  0
VERTEX
  5
2A8
330
1A2
100
AcDbEntity
  8
GUIDE
100
AcDbVertex
100
AcDb2dVertex
 10
115.918582
 20
-42.3
 30
0.0
  0
SEQEND
  5
2A4
330
1A2
100
AcDbEntity
  8
GUIDE
  0
POLYLINE
  5
1A8
330
1A
100
AcDbEntity
  8
GUIDE
100
AcDb2dPolyline
 66
     1
 10
0.0
 20
0.0
 30
0.0
 70
     1
  0
VERTEX
  5
2AA
330
1A8
100
AcDbEntity
  8
GUIDE
100
AcDbVertex
100
AcDb2dVertex
 10
105.318582
 20
-20.85
 30
0.0
  0
VERTEX
  5
2AB
330
1A8
100
AcDbEntity
  8
GUIDE
100
AcDbVertex
100
AcDb2dVertex
 10
105.318582
 20
-14.25
 30
0.0
  0
VERTEX
  5
2AC
330
1A8
100
AcDbEntity
  8
GUIDE
100
AcDbVertex
100
AcDb2dVertex
 10
118.918582
 20
-14.25
 30
0.0
  0
VERTEX
  5
2AD
330
1A8
100
AcDbEntity
  8
GUIDE
100
AcDbVertex
100
AcDb2dVertex
 10
118.918582
 20
-20.85
 30
0.0
  0
SEQEND
  5
2A9
330
1A8
100
AcDbEntity
  8
GUIDE
  0
POLYLINE
  5
1AE
330
1A
100
AcDbEntity
  8
GUIDE
100
AcDb2dPolyline
 66
     1
 10
0.0
 20
0.0
 30
0.0
 70
     1
  0
VERTEX
  5
2AF
330
1AE
100
AcDbEntity
  8
GUIDE
100
AcDbVertex
100
AcDb2dVertex
 10
108.118582
 20
-21.15
 30
0.0
  0
VERTEX
  5
2B0
330
1AE
100
AcDbEntity
  8
GUIDE
100
AcDbVertex
100
AcDb2dVertex
 10
108.118582
 20
-20.85
 30
0.0
  0
VERTEX
  5
2B1
330
1AE
100
AcDbEntity
  8
GUIDE
100
AcDbVertex
100
AcDb2dVertex
 10
116.118582
 20
-20.85
 30
0.0
  0
VERTEX
  5
2B2
330
1AE
100
AcDbEntity
  8
GUIDE
100
AcDbVertex
100
AcDb2dVertex
 10
116.118582
 20
-21.15
 30
0.0
  0
SEQEND
  5
2AE
330
1AE
100
AcDbEntity
  8
GUIDE
  0
POLYLINE
  5
1B4
330
1A
100
AcDbEntity
  8
GUIDE
100
AcDb2dPolyline
 66
     1
 10
0.0
 20
0.0
 30
0.0
 70
     1
  0
VERTEX
  5
2B4
330
1B4
100
AcDbEntity
  8
GUIDE
100
AcDbVertex
100
AcDb2dVertex
 10
108.118582
 20
-14.25
 30
0.0
  0
VERTEX
  5
2B5
330
1B4
100
AcDbEntity
  8
GUIDE
100
AcDbVertex
100
AcDb2dVertex
 10
108.118582
 20
-5.05
 30
0.0
  0
VERTEX
  5
2B6
330
1B4
100
AcDbEntity
  8
GUIDE
100
AcDbVertex
100
AcDb2dVertex
 10
116.118582
 20
-5.05
 30
0.0
  0
VERTEX
  5
2B7
330
1B4
100
AcDbEntity
  8
GUIDE
100
AcDbVertex
100
AcDb2dVertex
 10
116.118582
 20
-14.25
 30
0.0
  0
SEQEND
  5
2B3
330
1B4
100
AcDbEntity
  8
GUIDE
  0
POLYLINE
  5
1BA
330
1A
100
AcDbEntity
  8
GUIDE
100
AcDb2dPolyline
 66
     1
 10
0.0
 20
0.0
 30
0.0
 70
     1
  0
VERTEX
  5
2B9
330
1BA
100
AcDbEntity
  8
GUIDE
100
AcDbVertex
100
AcDb2dVertex
 10
108.118582
 20
-30.35
 30
0.0
  0
VERTEX
  5
2BA
330
1BA
100
AcDbEntity
  8
GUIDE
100
AcDbVertex
100
AcDb2dVertex
 10
108.118582
 20
-21.15
 30
0.0
  0
VERTEX
  5
2BB
330
1BA
100
AcDbEntity
  8
GUIDE
100
AcDbVertex
100
AcDb2dVertex
 10
116.118582
 20
-21.15
 30
0.0
  0
VERTEX
  5
2BC
330
1BA
100
AcDbEntity
  8
GUIDE
100
AcDbVertex
100
AcDb2dVertex
 10
116.118582
 20
-30.35
 30
0.0
  0
SEQEND
  5
2B8
330
1BA
100
AcDbEntity
  8
GUIDE
  0
POLYLINE
  5
1C0
330
1A
100
AcDbEntity
  8
GUIDE
100
AcDb2dPolyline
 66
     1
 10
0.0
 20
0.0
 30
0.0
  0
VERTEX
  5
2BE
330
1C0
100
AcDbEntity
  8
GUIDE
100
AcDbVertex
100
AcDb2dVertex
 10
105.318582
 20
-21.45
 30
0.0
  0
VERTEX
  5
2BF
330
1C0
100
AcDbEntity
  8
GUIDE
100
AcDbVertex
100
AcDb2dVertex
 10
105.318582
 20
-28.05
 30
0.0
  0
VERTEX
  5
2C0
330
1C0
100
AcDbEntity
  8
GUIDE
100
AcDbVertex
100
AcDb2dVertex
 10
108.118582
 20
-28.05
 30
0.0
  0
SEQEND
  5
2BD
330
1C0
100
AcDbEntity
  8
GUIDE
  0
POLYLINE
  5
1C5
330
1A
100
AcDbEntity
  8
GUIDE
100
AcDb2dPolyline
 66
     1
 10
0.0
 20
0.0
 30
0.0
  0
VERTEX
  5
2C2
330
1C5
100
AcDbEntity
  8
GUIDE
100
AcDbVertex
100
AcDb2dVertex
 10
116.118582
 20
-28.05
 30
0.0
  0
VERTEX
  5
2C3
330
1C5
100
AcDbEntity
  8
GUIDE
100
AcDbVertex
100
AcDb2dVertex
 10
118.918582
 20
-28.05
 30
0.0
  0
VERTEX
  5
2C4
330
1C5
100
AcDbEntity
  8
GUIDE
100
AcDbVertex
100
AcDb2dVertex
 10
118.918582
 20
-21.45
 30
0.0
  0
VERTEX
  5
2C5
330
1C5
100
AcDbEntity
  8
GUIDE
100
AcDbVertex
100
AcDb2dVertex
 10
116.118582
 20
-21.45
 30
0.0
  0
SEQEND
  5
2C1
330
1C5
100
AcDbEntity
  8
GUIDE
  0
POLYLINE
  5
1CB
330
1A
100
AcDbEntity
  8
GUIDE
100
AcDb2dPolyline
 66
     1
 10
0.0
 20
0.0
 30
0.0
  0
VERTEX
  5
2C7
330
1CB
100
AcDbEntity
  8
GUIDE
100
AcDbVertex
100
AcDb2dVertex
 10
108.118582
 20
-21.45
 30
0.0
  0
VERTEX
  5
2C8
330
1CB
100
AcDbEntity
  8
GUIDE
100
AcDbVertex
100
AcDb2dVertex
 10
105.318582
 20
-21.45
 30
0.0
  0
SEQEND
  5
2C6
330
1CB
100
AcDbEntity
  8
GUIDE
  0
POLYLINE
  5
1CF
330
1A
100
AcDbEntity
  8
GUIDE
100
AcDb2dPolyline
 66
     1
 10
0.0
 20
0.0
 30
0.0
  0
VERTEX
  5
2CA
330
1CF
100
AcDbEntity
  8
GUIDE
100
AcDbVertex
100
AcDb2dVertex
 10
105.318582
 20
-5.35
 30
0.0
  0
VERTEX
  5
2CB
330
1CF
100
AcDbEntity
  8
GUIDE
100
AcDbVertex
100
AcDb2dVertex
 10
105.318582
 20
-11.95
 30
0.0
  0
VERTEX
  5
2CC
330
1CF
100
AcDbEntity
  8
GUIDE
100
AcDbVertex
100
AcDb2dVertex
 10
108.118582
 20
-11.95
 30
0.0
  0
SEQEND
  5
2C9
330
1CF
100
AcDbEntity
  8
GUIDE
  0
POLYLINE
  5
1D4
330
1A
100
AcDbEntity
  8
GUIDE
100
AcDb2dPolyline
 66
     1
 10
0.0
 20
0.0
 30
0.0
  0
VERTEX
  5
2CE
330
1D4
100
AcDbEntity
  8
GUIDE
100
AcDbVertex
100
AcDb2dVertex
 10
116.118582
 20
-11.95
 30
0.0
  0
VERTEX
  5
2CF
330
1D4
100
AcDbEntity
  8
GUIDE
100
AcDbVertex
100
AcDb2dVertex
 10
118.918582
 20
-11.95
 30
0.0
  0
VERTEX
  5
2D0
330
1D4
100
AcDbEntity
  8
GUIDE
100
AcDbVertex
100
AcDb2dVertex
 10
118.918582
 20
-5.35
 30
0.0
  0
VERTEX
  5
2D1
330
1D4
100
AcDbEntity
  8
GUIDE
100
AcDbVertex
100
AcDb2dVertex
 10
116.118582
 20
-5.35
 30
0.0
  0
SEQEND
  5
2CD
330
1D4
100
AcDbEntity
  8
GUIDE
  0
POLYLINE
  5
1DA
330
1A
100
AcDbEntity
  8
GUIDE
100
AcDb2dPolyline
 66
     1
 10
0.0
 20
0.0
 30
0.0
  0
VERTEX
  5
2D3
330
1DA
100
AcDbEntity
  8
GUIDE
100
AcDbVertex
100
AcDb2dVertex
 10
108.118582
 20
-5.35
 30
0.0
  0
VERTEX
  5
2D4
330
1DA
100
AcDbEntity
  8
GUIDE
100
AcDbVertex
100
AcDb2dVertex
 10
105.318582
 20
-5.35
 30
0.0
  0
SEQEND
  5
2D2
330
1DA
100
AcDbEntity
  8
GUIDE
  0
LINE
  5
1DE
330
1A
100
AcDbEntity
  8
GUIDE
100
AcDbLine
 10
92.31858200000001
 20
-41.15
 30
0.0
 11
92.31858200000001
 21
-1.15
 31
0.0
  0
LINE
  5
1DF
330
1A
100
AcDbEntity
  8
GUIDE
100
AcDbLine
 10
92.31858200000001
 20
-1.15
 30
0.0
 11
100.318582
 21
-1.15
 31
0.0
  0
LINE
  5
1E0
330
1A
100
AcDbEntity
  8
GUIDE
100
AcDbLine
 10
100.318582
 20
-1.15
 30
0.0
 11
100.318582
 21
-41.15
 31
0.0
  0
LINE
  5
1E1
330
1A
100
AcDbEntity
  8
GUIDE
100
AcDbLine
 10
100.318582
 20
-41.15
 30
0.0
 11
92.31858200000001
 21
-41.15
 31
0.0
  0
ENDSEC
  0
SECTION
  2
OBJECTS
  0
DICTIONARY
  5
C
330
0
100
AcDbDictionary
  3
ACAD_GROUP
350
D
  3
ACAD_LAYOUT
350
1E3
  3
ACAD_MLINESTYLE
350
E
1001
ACAD
1000
TREAT_AS_HARD
1070
     0
  0
DICTIONARY
  5
2FD
330
1E2
100
AcDbDictionary
  3
ACAD_XREC_ROUNDTRIP
360
2FE
  0
DICTIONARY
  5
D
102
{ACAD_REACTORS
330
C
102
}
330
C
100
AcDbDictionary
1001
ACAD
1000
TREAT_AS_HARD
1070
     0
  0
DICTIONARY
  5
1E3
102
{ACAD_REACTORS
330
C
102
}
330
C
100
AcDbDictionary
1001
ACAD
1000
TREAT_AS_HARD
1070
     0
  0
DICTIONARY
  5
E
102
{ACAD_REACTORS
330
C
102
}
330
C
100
AcDbDictionary
  3
STANDARD
350
13
1001
ACAD
1000
TREAT_AS_HARD
1070
     0
  0
XRECORD
  5
2FE
102
{ACAD_REACTORS
330
2FD
102
}
330
2FD
100
AcDbXrecord
102
UCS
 74
     0
 71
     1
 10
0.0
 20
0.0
 30
0.0
 10
1.0
 20
0.0
 30
0.0
 10
0.0
 20
1.0
 30
0.0
146
0.0
 79
     0
102
VIEW
281
     0
  0
MLINESTYLE
  5
13
102
{ACAD_REACTORS
330
E
102
}
330
E
100
AcDbMlineStyle
  2
STANDARD
 70
     0
  3

 62
     0
 51
90.0
 52
90.0
 71
     2
 49
0.5
 62
   256
  6
BYLAYER
 49
-0.5
 62
   256
  6
BYLAYER
  0
ENDSEC
  0
EOF
