  0
SECTION
  2
HEADER
  9
$ACADVER
  1
AC1012
  9
$DWGCODEPAGE
  3
ansi_1252
  9
$INSBASE
 10
0.0
 20
0.0
 30
0.0
  9
$EXTMIN
 10
-1.743192
 20
-152.025
 30
0.0
  9
$EXTMAX
 10
177.3
 20
0.828427
 30
0.0
  9
$LIMMIN
 10
0.0
 20
0.0
  9
$LIMMAX
 10
297.0
 20
210.0
  9
$ORTHOMODE
 70
     1
  9
$REGENMODE
 70
     1
  9
$FILLMODE
 70
     1
  9
$QTEXTMODE
 70
     0
  9
$MIRRTEXT
 70
     1
  9
$DRAGMODE
 70
     2
  9
$LTSCALE
 40
10.0
  9
$OSMODE
 70
    37
  9
$ATTMODE
 70
     1
  9
$TEXTSIZE
 40
0.2
  9
$TRACEWID
 40
0.05
  9
$TEXTSTYLE
  7
STANDARD
  9
$CLAYER
  8
0
  9
$CELTYPE
  6
BYLAYER
  9
$CECOLOR
 62
   256
  9
$CELTSCALE
 40
1.0
  9
$DELOBJ
 70
     1
  9
$DISPSILH
 70
     0
  9
$DIMSCALE
 40
1.0
  9
$DIMASZ
 40
0.18
  9
$DIMEXO
 40
0.0625
  9
$DIMDLI
 40
0.38
  9
$DIMRND
 40
0.0
  9
$DIMDLE
 40
0.0
  9
$DIMEXE
 40
0.18
  9
$DIMTP
 40
0.0
  9
$DIMTM
 40
0.0
  9
$DIMTXT
 40
0.18
  9
$DIMCEN
 40
0.09
  9
$DIMTSZ
 40
0.0
  9
$DIMTOL
 70
     0
  9
$DIMLIM
 70
     0
  9
$DIMTIH
 70
     1
  9
$DIMTOH
 70
     1
  9
$DIMSE1
 70
     0
  9
$DIMSE2
 70
     0
  9
$DIMTAD
 70
     0
  9
$DIMZIN
 70
     0
  9
$DIMBLK
  1

  9
$DIMASO
 70
     1
  9
$DIMSHO
 70
     0
  9
$DIMPOST
  1

  9
$DIMAPOST
  1

  9
$DIMALT
 70
     0
  9
$DIMALTD
 70
     2
  9
$DIMALTF
 40
25.4
  9
$DIMLFAC
 40
1.0
  9
$DIMTOFL
 70
     0
  9
$DIMTVP
 40
0.0
  9
$DIMTIX
 70
     0
  9
$DIMSOXD
 70
     0
  9
$DIMSAH
 70
     0
  9
$DIMBLK1
  1

  9
$DIMBLK2
  1

  9
$DIMSTYLE
  2
STANDARD
  9
$DIMCLRD
 70
     0
  9
$DIMCLRE
 70
     0
  9
$DIMCLRT
 70
     0
  9
$DIMTFAC
 40
1.0
  9
$DIMGAP
 40
0.09
  9
$DIMJUST
 70
     0
  9
$DIMSD1
 70
     0
  9
$DIMSD2
 70
     0
  9
$DIMTOLJ
 70
     1
  9
$DIMTZIN
 70
     0
  9
$DIMALTZ
 70
     0
  9
$DIMALTTZ
 70
     0
  9
$DIMFIT
 70
     3
  9
$DIMUPT
 70
     0
  9
$DIMUNIT
 70
     2
  9
$DIMDEC
 70
     4
  9
$DIMTDEC
 70
     4
  9
$DIMALTU
 70
     2
  9
$DIMALTTD
 70
     2
  9
$DIMTXSTY
  7
STANDARD
  9
$DIMAUNIT
 70
     0
  9
$LUNITS
 70
     2
  9
$LUPREC
 70
     4
  9
$SKETCHINC
 40
0.1
  9
$FILLETRAD
 40
0.0
  9
$AUNITS
 70
     0
  9
$AUPREC
 70
     0
  9
$MENU
  1
c:\sitoplas\menu\CCing
  9
$ELEVATION
 40
0.0
  9
$PELEVATION
 40
0.0
  9
$THICKNESS
 40
0.0
  9
$LIMCHECK
 70
     0
  9
$CHAMFERA
 40
0.0
  9
$CHAMFERB
 40
0.0
  9
$CHAMFERC
 40
0.0
  9
$CHAMFERD
 40
0.0
  9
$SKPOLY
 70
     0
  9
$TDCREATE
 40
2447893.083333334
  9
$TDUPDATE
 40
2447893.083333334
  9
$TDINDWG
 40
0.0022293981
  9
$TDUSRTIMER
 40
0.0022293981
  9
$USRTIMER
 70
     1
  9
$ANGBASE
 50
0.0
  9
$ANGDIR
 70
     0
  9
$PDMODE
 70
     0
  9
$PDSIZE
 40
0.0
  9
$PLINEWID
 40
0.0
  9
$COORDS
 70
     1
  9
$SPLFRAME
 70
     0
  9
$SPLINETYPE
 70
     6
  9
$SPLINESEGS
 70
     8
  9
$ATTDIA
 70
     0
  9
$ATTREQ
 70
     1
  9
$HANDLING
 70
     1
  9
$HANDSEED
  5
837
  9
$SURFTAB1
 70
     6
  9
$SURFTAB2
 70
     6
  9
$SURFTYPE
 70
     6
  9
$SURFU
 70
     6
  9
$SURFV
 70
     6
  9
$UCSNAME
  2

  9
$UCSORG
 10
0.0
 20
0.0
 30
0.0
  9
$UCSXDIR
 10
1.0
 20
0.0
 30
0.0
  9
$UCSYDIR
 10
0.0
 20
1.0
 30
0.0
  9
$PUCSNAME
  2

  9
$PUCSORG
 10
0.0
 20
0.0
 30
0.0
  9
$PUCSXDIR
 10
1.0
 20
0.0
 30
0.0
  9
$PUCSYDIR
 10
0.0
 20
1.0
 30
0.0
  9
$USERI1
 70
     0
  9
$USERI2
 70
     0
  9
$USERI3
 70
     0
  9
$USERI4
 70
     0
  9
$USERI5
 70
     0
  9
$USERR1
 40
0.0
  9
$USERR2
 40
0.0
  9
$USERR3
 40
0.0
  9
$USERR4
 40
0.0
  9
$USERR5
 40
0.0
  9
$WORLDVIEW
 70
     1
  9
$SHADEDGE
 70
     3
  9
$SHADEDIF
 70
    70
  9
$TILEMODE
 70
     1
  9
$MAXACTVP
 70
    16
  9
$PINSBASE
 10
0.0
 20
0.0
 30
0.0
  9
$PLIMCHECK
 70
     0
  9
$PEXTMIN
 10
1.000000000000000E+20
 20
1.000000000000000E+20
 30
1.000000000000000E+20
  9
$PEXTMAX
 10
-1.000000000000000E+20
 20
-1.000000000000000E+20
 30
-1.000000000000000E+20
  9
$PLIMMIN
 10
0.0
 20
0.0
  9
$PLIMMAX
 10
12.0
 20
9.0
  9
$UNITMODE
 70
     0
  9
$VISRETAIN
 70
     0
  9
$PLINEGEN
 70
     0
  9
$PSLTSCALE
 70
     0
  9
$TREEDEPTH
 70
  3020
  9
$PICKSTYLE
 70
     1
  9
$CMLSTYLE
  2
STANDARD
  9
$CMLJUST
 70
     0
  9
$CMLSCALE
 40
1.0
  9
$SAVEIMAGES
 70
     1
  0
ENDSEC
  0
SECTION
  2
CLASSES
  0
CLASS
  1
XRECORD
  2
AcDbXrecord
  3
AutoCAD 2000
 90
    32768
280
     0
281
     0
  0
CLASS
  1
LWPOLYLINE
  2
AcDbPolyline
  3
AutoCAD 2000
 90
    32768
280
     0
281
     1
  0
CLASS
  1
HATCH
  2
AcDbHatch
  3
AutoCAD 2000
 90
    32768
280
     0
281
     1
  0
CLASS
  1
ACDBPLACEHOLDER
  2
AcDbPlaceHolder
  3
ObjectDBX Classes
 90
        0
280
     0
281
     0
  0
CLASS
  1
LAYOUT
  2
AcDbLayout
  3
ObjectDBX Classes
 90
        0
280
     0
281
     0
  0
ENDSEC
  0
SECTION
  2
TABLES
  0
TABLE
  2
VPORT
  5
8
330
0
100
AcDbSymbolTable
 70
     1
  0
VPORT
  5
56E
102
{ACAD_XDICTIONARY
360
835
102
}
330
8
100
AcDbSymbolTableRecord
100
AcDbViewportTableRecord
  2
*ACTIVE
 70
     0
 10
0.0
 20
0.0
 11
1.0
 21
1.0
 12
154.953248
 22
-77.75
 13
0.0
 23
0.0
 14
0.5
 24
0.5
 15
0.0
 25
0.0
 16
0.0
 26
0.0
 36
1.0
 17
0.0
 27
0.0
 37
0.0
 40
166.5
 41
1.915354
 42
50.0
 43
0.0
 44
0.0
 50
0.0
 51
0.0
 71
     0
 72
   100
 73
     1
 74
     1
 75
     1
 76
     0
 77
     0
 78
     0
  0
ENDTAB
  0
TABLE
  2
LTYPE
  5
5
330
0
100
AcDbSymbolTable
 70
     1
  0
LTYPE
  5
12
330
5
100
AcDbSymbolTableRecord
100
AcDbLinetypeTableRecord
  2
BYBLOCK
 70
     0
  3

 72
    65
 73
     0
 40
0.0
  0
LTYPE
  5
13
330
5
100
AcDbSymbolTableRecord
100
AcDbLinetypeTableRecord
  2
BYLAYER
 70
     0
  3

 72
    65
 73
     0
 40
0.0
  0
LTYPE
  5
14
330
5
100
AcDbSymbolTableRecord
100
AcDbLinetypeTableRecord
  2
CONTINUOUS
 70
     0
  3
Solid line
 72
    65
 73
     0
 40
0.0
  0
ENDTAB
  0
TABLE
  2
LAYER
  5
2
330
0
100
AcDbSymbolTable
 70
     2
  0
LAYER
  5
F
330
2
100
AcDbSymbolTableRecord
100
AcDbLayerTableRecord
  2
0
 70
     0
 62
     7
  6
CONTINUOUS
  0
LAYER
  5
32
330
2
100
AcDbSymbolTableRecord
100
AcDbLayerTableRecord
  2
GUIDE
 70
     0
 62
     7
  6
CONTINUOUS
  0
ENDTAB
  0
TABLE
  2
STYLE
  5
3
330
0
100
AcDbSymbolTable
 70
     1
  0
STYLE
  5
10
330
3
100
AcDbSymbolTableRecord
100
AcDbTextStyleTableRecord
  2
STANDARD
 70
     0
 40
0.0
 41
1.0
 50
0.0
 71
     0
 42
0.2
  3
txt
  4

  0
ENDTAB
  0
TABLE
  2
VIEW
  5
6
330
0
100
AcDbSymbolTable
 70
     0
  0
ENDTAB
  0
TABLE
  2
UCS
  5
7
330
0
100
AcDbSymbolTable
 70
     0
  0
ENDTAB
  0
TABLE
  2
APPID
  5
9
330
0
100
AcDbSymbolTable
 70
     1
  0
APPID
  5
11
330
9
100
AcDbSymbolTableRecord
100
AcDbRegAppTableRecord
  2
ACAD
 70
     0
  0
ENDTAB
  0
TABLE
  2
DIMSTYLE
  5
A
330
0
100
AcDbSymbolTable
 70
     1
  0
DIMSTYLE
105
2D
330
A
100
AcDbSymbolTableRecord
100
AcDbDimStyleTableRecord
  2
STANDARD
 70
     0
  3

  4

  5

  6

  7

 40
1.0
 41
0.18
 42
0.0625
 43
0.38
 44
0.18
 45
0.0
 46
0.0
 47
0.0
 48
0.0
140
0.18
141
0.09
142
0.0
143
25.4
144
1.0
145
0.0
146
1.0
147
0.09
 71
     0
 72
     0
 73
     1
 74
     1
 75
     0
 76
     0
 77
     0
 78
     0
170
     0
171
     2
172
     0
173
     0
174
     0
175
     0
176
     0
177
     0
178
     0
270
     2
271
     4
272
     4
273
     2
274
     2
340
10
275
     0
280
     0
281
     0
282
     0
283
     1
284
     0
285
     0
286
     0
287
     3
288
     0
  0
ENDTAB
  0
TABLE
  2
BLOCK_RECORD
  5
1
330
0
100
AcDbSymbolTable
 70
     0
  0
BLOCK_RECORD
  5
18
330
1
100
AcDbSymbolTableRecord
100
AcDbBlockTableRecord
  2
*MODEL_SPACE
  0
BLOCK_RECORD
  5
15
330
1
100
AcDbSymbolTableRecord
100
AcDbBlockTableRecord
  2
*PAPER_SPACE
  0
ENDTAB
  0
ENDSEC
  0
SECTION
  2
BLOCKS
  0
BLOCK
  5
24
330
18
100
AcDbEntity
  8
0
100
AcDbBlockBegin
  2
*MODEL_SPACE
 70
     0
 71
     0
 10
0.0
 20
0.0
 30
0.0
  3
*MODEL_SPACE
  1

  0
ENDBLK
  5
25
330
18
100
AcDbEntity
  8
0
100
AcDbBlockEnd
  0
BLOCK
  5
22
330
15
100
AcDbEntity
 67
     1
  8
0
100
AcDbBlockBegin
  2
*PAPER_SPACE
 70
     0
 71
     0
 10
0.0
 20
0.0
 30
0.0
  3
*PAPER_SPACE
  1

  0
ENDBLK
  5
23
330
15
100
AcDbEntity
 67
     1
  8
0
100
AcDbBlockEnd
  0
ENDSEC
  0
SECTION
  2
ENTITIES
  0
POLYLINE
  5
2DB
330
18
100
AcDbEntity
  8
GUIDE
100
AcDb2dPolyline
 66
     1
 10
0.0
 20
0.0
 30
0.0
 70
     1
  0
VERTEX
  5
6E8
330
2DB
100
AcDbEntity
  8
GUIDE
100
AcDbVertex
100
AcDb2dVertex
 10
163.7
 20
-5.35
 30
0.0
  0
VERTEX
  5
6E9
330
2DB
100
AcDbEntity
  8
GUIDE
100
AcDbVertex
100
AcDb2dVertex
 10
163.7
 20
-11.95
 30
0.0
  0
VERTEX
  5
6EA
330
2DB
100
AcDbEntity
  8
GUIDE
100
AcDbVertex
100
AcDb2dVertex
 10
177.3
 20
-11.95
 30
0.0
  0
VERTEX
  5
6EB
330
2DB
100
AcDbEntity
  8
GUIDE
100
AcDbVertex
100
AcDb2dVertex
 10
177.3
 20
-5.35
 30
0.0
  0
SEQEND
  5
6E7
330
2DB
100
AcDbEntity
  8
GUIDE
  0
POLYLINE
  5
2E1
330
18
100
AcDbEntity
  8
GUIDE
100
AcDb2dPolyline
 66
     1
 10
0.0
 20
0.0
 30
0.0
 70
     1
  0
VERTEX
  5
6ED
330
2E1
100
AcDbEntity
  8
GUIDE
100
AcDbVertex
100
AcDb2dVertex
 10
168.0
 20
-5.05
 30
0.0
  0
VERTEX
  5
6EE
330
2E1
100
AcDbEntity
  8
GUIDE
100
AcDbVertex
100
AcDb2dVertex
 10
168.0
 20
-4.25
 30
0.0
  0
VERTEX
  5
6EF
330
2E1
100
AcDbEntity
  8
GUIDE
100
AcDbVertex
100
AcDb2dVertex
 10
173.0
 20
-4.25
 30
0.0
  0
VERTEX
  5
6F0
330
2E1
100
AcDbEntity
  8
GUIDE
100
AcDbVertex
100
AcDb2dVertex
 10
173.0
 20
-5.05
 30
0.0
  0
SEQEND
  5
6EC
330
2E1
100
AcDbEntity
  8
GUIDE
  0
POLYLINE
  5
2E7
330
18
100
AcDbEntity
  8
GUIDE
100
AcDb2dPolyline
 66
     1
 10
0.0
 20
0.0
 30
0.0
 70
     1
  0
VERTEX
  5
6F2
330
2E7
100
AcDbEntity
  8
GUIDE
100
AcDbVertex
100
AcDb2dVertex
 10
166.5
 20
-5.05
 30
0.0
  0
VERTEX
  5
6F3
330
2E7
100
AcDbEntity
  8
GUIDE
100
AcDbVertex
100
AcDb2dVertex
 10
166.5
 20
-5.35
 30
0.0
  0
VERTEX
  5
6F4
330
2E7
100
AcDbEntity
  8
GUIDE
100
AcDbVertex
100
AcDb2dVertex
 10
174.5
 20
-5.35
 30
0.0
  0
VERTEX
  5
6F5
330
2E7
100
AcDbEntity
  8
GUIDE
100
AcDbVertex
100
AcDb2dVertex
 10
174.5
 20
-5.05
 30
0.0
  0
SEQEND
  5
6F1
330
2E7
100
AcDbEntity
  8
GUIDE
  0
POLYLINE
  5
2ED
330
18
100
AcDbEntity
  8
GUIDE
100
AcDb2dPolyline
 66
     1
 10
0.0
 20
0.0
 30
0.0
 70
     1
  0
VERTEX
  5
6F7
330
2ED
100
AcDbEntity
  8
GUIDE
100
AcDbVertex
100
AcDb2dVertex
 10
168.0
 20
-69.75
 30
0.0
  0
VERTEX
  5
6F8
330
2ED
100
AcDbEntity
  8
GUIDE
100
AcDbVertex
100
AcDb2dVertex
 10
168.0
 20
-69.45
 30
0.0
  0
VERTEX
  5
6F9
330
2ED
100
AcDbEntity
  8
GUIDE
100
AcDbVertex
100
AcDb2dVertex
 10
173.0
 20
-69.45
 30
0.0
  0
VERTEX
  5
6FA
330
2ED
100
AcDbEntity
  8
GUIDE
100
AcDbVertex
100
AcDb2dVertex
 10
173.0
 20
-69.75
 30
0.0
  0
SEQEND
  5
6F6
330
2ED
100
AcDbEntity
  8
GUIDE
  0
LINE
  5
2F3
330
18
100
AcDbEntity
  8
GUIDE
100
AcDbLine
 10
158.2
 20
-57.0
 30
0.0
 11
158.2
 21
-17.0
 31
0.0
  0
LINE
  5
2F4
330
18
100
AcDbEntity
  8
GUIDE
100
AcDbLine
 10
150.2
 20
-18.0
 30
0.0
 11
146.116805
 21
-15.787068
 31
0.0
  0
ARC
  5
2F5
330
18
100
AcDbEntity
  8
GUIDE
100
AcDbCircle
 10
146.4
 20
-15.375
 30
0.0
 40
0.5
100
AcDbArc
 50
90.0
 51
235.501061
  0
LINE
  5
2F6
330
18
100
AcDbEntity
  8
GUIDE
100
AcDbLine
 10
150.2
 20
-56.0
 30
0.0
 11
146.116805
 21
-58.212932
 31
0.0
  0
ARC
  5
2F7
330
18
100
AcDbEntity
  8
GUIDE
100
AcDbCircle
 10
146.4
 20
-58.625
 30
0.0
 40
0.5
100
AcDbArc
 50
124.498939
 51
270.0
  0
ARC
  5
2F8
330
18
100
AcDbEntity
  8
GUIDE
100
AcDbCircle
 10
158.8875
 20
-17.75
 30
0.0
 40
0.8125
100
AcDbArc
 50
292.619865
 51
67.380135
  0
LINE
  5
2F9
330
18
100
AcDbEntity
  8
GUIDE
100
AcDbLine
 10
159.2
 20
-17.0
 30
0.0
 11
158.2
 21
-17.0
 31
0.0
  0
LINE
  5
2FA
330
18
100
AcDbEntity
  8
GUIDE
100
AcDbLine
 10
159.2
 20
-18.5
 30
0.0
 11
158.2
 21
-18.5
 31
0.0
  0
LINE
  5
2FB
330
18
100
AcDbEntity
  8
GUIDE
100
AcDbLine
 10
159.2
 20
-55.5
 30
0.0
 11
158.2
 21
-55.5
 31
0.0
  0
LINE
  5
2FC
330
18
100
AcDbEntity
  8
GUIDE
100
AcDbLine
 10
159.2
 20
-57.0
 30
0.0
 11
158.2
 21
-57.0
 31
0.0
  0
ARC
  5
2FD
330
18
100
AcDbEntity
  8
GUIDE
100
AcDbCircle
 10
158.8875
 20
-56.25
 30
0.0
 40
0.8125
100
AcDbArc
 50
292.619865
 51
67.380135
  0
POLYLINE
  5
2FE
330
18
100
AcDbEntity
  8
GUIDE
100
AcDb2dPolyline
 66
     1
 10
0.0
 20
0.0
 30
0.0
 70
     1
  0
VERTEX
  5
6FC
330
2FE
100
AcDbEntity
  8
GUIDE
100
AcDbVertex
100
AcDb2dVertex
 10
163.7
 20
-21.45
 30
0.0
  0
VERTEX
  5
6FD
330
2FE
100
AcDbEntity
  8
GUIDE
100
AcDbVertex
100
AcDb2dVertex
 10
163.7
 20
-28.05
 30
0.0
  0
VERTEX
  5
6FE
330
2FE
100
AcDbEntity
  8
GUIDE
100
AcDbVertex
100
AcDb2dVertex
 10
177.3
 20
-28.05
 30
0.0
  0
VERTEX
  5
6FF
330
2FE
100
AcDbEntity
  8
GUIDE
100
AcDbVertex
100
AcDb2dVertex
 10
177.3
 20
-21.45
 30
0.0
  0
SEQEND
  5
6FB
330
2FE
100
AcDbEntity
  8
GUIDE
  0
POLYLINE
  5
304
330
18
100
AcDbEntity
  8
GUIDE
100
AcDb2dPolyline
 66
     1
 10
0.0
 20
0.0
 30
0.0
 70
     1
  0
VERTEX
  5
701
330
304
100
AcDbEntity
  8
GUIDE
100
AcDbVertex
100
AcDb2dVertex
 10
166.5
 20
-21.15
 30
0.0
  0
VERTEX
  5
702
330
304
100
AcDbEntity
  8
GUIDE
100
AcDbVertex
100
AcDb2dVertex
 10
166.5
 20
-21.45
 30
0.0
  0
VERTEX
  5
703
330
304
100
AcDbEntity
  8
GUIDE
100
AcDbVertex
100
AcDb2dVertex
 10
174.5
 20
-21.45
 30
0.0
  0
VERTEX
  5
704
330
304
100
AcDbEntity
  8
GUIDE
100
AcDbVertex
100
AcDb2dVertex
 10
174.5
 20
-21.15
 30
0.0
  0
SEQEND
  5
700
330
304
100
AcDbEntity
  8
GUIDE
  0
POLYLINE
  5
30A
330
18
100
AcDbEntity
  8
GUIDE
100
AcDb2dPolyline
 66
     1
 10
0.0
 20
0.0
 30
0.0
 70
     1
  0
VERTEX
  5
706
330
30A
100
AcDbEntity
  8
GUIDE
100
AcDbVertex
100
AcDb2dVertex
 10
166.5
 20
-28.05
 30
0.0
  0
VERTEX
  5
707
330
30A
100
AcDbEntity
  8
GUIDE
100
AcDbVertex
100
AcDb2dVertex
 10
166.5
 20
-37.25
 30
0.0
  0
VERTEX
  5
708
330
30A
100
AcDbEntity
  8
GUIDE
100
AcDbVertex
100
AcDb2dVertex
 10
174.5
 20
-37.25
 30
0.0
  0
VERTEX
  5
709
330
30A
100
AcDbEntity
  8
GUIDE
100
AcDbVertex
100
AcDb2dVertex
 10
174.5
 20
-28.05
 30
0.0
  0
SEQEND
  5
705
330
30A
100
AcDbEntity
  8
GUIDE
  0
POLYLINE
  5
310
330
18
100
AcDbEntity
  8
GUIDE
100
AcDb2dPolyline
 66
     1
 10
0.0
 20
0.0
 30
0.0
 70
     1
  0
VERTEX
  5
70B
330
310
100
AcDbEntity
  8
GUIDE
100
AcDbVertex
100
AcDb2dVertex
 10
166.5
 20
-11.95
 30
0.0
  0
VERTEX
  5
70C
330
310
100
AcDbEntity
  8
GUIDE
100
AcDbVertex
100
AcDb2dVertex
 10
166.5
 20
-21.15
 30
0.0
  0
VERTEX
  5
70D
330
310
100
AcDbEntity
  8
GUIDE
100
AcDbVertex
100
AcDb2dVertex
 10
174.5
 20
-21.15
 30
0.0
  0
VERTEX
  5
70E
330
310
100
AcDbEntity
  8
GUIDE
100
AcDbVertex
100
AcDb2dVertex
 10
174.5
 20
-11.95
 30
0.0
  0
SEQEND
  5
70A
330
310
100
AcDbEntity
  8
GUIDE
  0
LINE
  5
316
330
18
100
AcDbEntity
  8
GUIDE
100
AcDbLine
 10
159.2
 20
-4.0
 30
0.0
 11
159.2
 21
-14.875
 31
0.0
  0
LINE
  5
317
330
18
100
AcDbEntity
  8
GUIDE
100
AcDbLine
 10
163.2
 20
0.0
 30
0.0
 11
174.3
 21
0.0
 31
0.0
  0
LINE
  5
318
330
18
100
AcDbEntity
  8
GUIDE
100
AcDbLine
 10
163.2
 20
-74.0
 30
0.0
 11
174.3
 21
-74.0
 31
0.0
  0
POLYLINE
  5
319
330
18
100
AcDbEntity
  8
GUIDE
100
AcDb2dPolyline
 66
     1
 10
0.0
 20
0.0
 30
0.0
  0
VERTEX
  5
710
330
319
100
AcDbEntity
  8
GUIDE
100
AcDbVertex
100
AcDb2dVertex
 10
159.2
 20
-59.125
 30
0.0
  0
VERTEX
  5
711
330
319
100
AcDbEntity
  8
GUIDE
100
AcDbVertex
100
AcDb2dVertex
 10
146.4
 20
-59.125
 30
0.0
  0
SEQEND
  5
70F
330
319
100
AcDbEntity
  8
GUIDE
  0
POLYLINE
  5
31D
330
18
100
AcDbEntity
  8
GUIDE
100
AcDb2dPolyline
 66
     1
 10
0.0
 20
0.0
 30
0.0
  0
VERTEX
  5
713
330
31D
100
AcDbEntity
  8
GUIDE
100
AcDbVertex
100
AcDb2dVertex
 10
146.4
 20
-14.875
 30
0.0
  0
VERTEX
  5
714
330
31D
100
AcDbEntity
  8
GUIDE
100
AcDbVertex
100
AcDb2dVertex
 10
159.2
 20
-14.875
 30
0.0
  0
SEQEND
  5
712
330
31D
100
AcDbEntity
  8
GUIDE
  0
POLYLINE
  5
321
330
18
100
AcDbEntity
  8
GUIDE
100
AcDb2dPolyline
 66
     1
 10
0.0
 20
0.0
 30
0.0
 70
     1
  0
VERTEX
  5
716
330
321
100
AcDbEntity
  8
GUIDE
100
AcDbVertex
100
AcDb2dVertex
 10
166.5
 20
-60.25
 30
0.0
  0
VERTEX
  5
717
330
321
100
AcDbEntity
  8
GUIDE
100
AcDbVertex
100
AcDb2dVertex
 10
166.5
 20
-69.45
 30
0.0
  0
VERTEX
  5
718
330
321
100
AcDbEntity
  8
GUIDE
100
AcDbVertex
100
AcDb2dVertex
 10
174.5
 20
-69.45
 30
0.0
  0
VERTEX
  5
719
330
321
100
AcDbEntity
  8
GUIDE
100
AcDbVertex
100
AcDb2dVertex
 10
174.5
 20
-60.25
 30
0.0
  0
SEQEND
  5
715
330
321
100
AcDbEntity
  8
GUIDE
  0
POLYLINE
  5
327
330
18
100
AcDbEntity
  8
GUIDE
100
AcDb2dPolyline
 66
     1
 10
0.0
 20
0.0
 30
0.0
 70
     1
  0
VERTEX
  5
71B
330
327
100
AcDbEntity
  8
GUIDE
100
AcDbVertex
100
AcDb2dVertex
 10
166.5
 20
-53.35
 30
0.0
  0
VERTEX
  5
71C
330
327
100
AcDbEntity
  8
GUIDE
100
AcDbVertex
100
AcDb2dVertex
 10
166.5
 20
-53.65
 30
0.0
  0
VERTEX
  5
71D
330
327
100
AcDbEntity
  8
GUIDE
100
AcDbVertex
100
AcDb2dVertex
 10
174.5
 20
-53.65
 30
0.0
  0
VERTEX
  5
71E
330
327
100
AcDbEntity
  8
GUIDE
100
AcDbVertex
100
AcDb2dVertex
 10
174.5
 20
-53.35
 30
0.0
  0
SEQEND
  5
71A
330
327
100
AcDbEntity
  8
GUIDE
  0
POLYLINE
  5
32D
330
18
100
AcDbEntity
  8
GUIDE
100
AcDb2dPolyline
 66
     1
 10
0.0
 20
0.0
 30
0.0
 70
     1
  0
VERTEX
  5
720
330
32D
100
AcDbEntity
  8
GUIDE
100
AcDbVertex
100
AcDb2dVertex
 10
163.7
 20
-53.65
 30
0.0
  0
VERTEX
  5
721
330
32D
100
AcDbEntity
  8
GUIDE
100
AcDbVertex
100
AcDb2dVertex
 10
163.7
 20
-60.25
 30
0.0
  0
VERTEX
  5
722
330
32D
100
AcDbEntity
  8
GUIDE
100
AcDbVertex
100
AcDb2dVertex
 10
177.3
 20
-60.25
 30
0.0
  0
VERTEX
  5
723
330
32D
100
AcDbEntity
  8
GUIDE
100
AcDbVertex
100
AcDb2dVertex
 10
177.3
 20
-53.65
 30
0.0
  0
SEQEND
  5
71F
330
32D
100
AcDbEntity
  8
GUIDE
  0
POLYLINE
  5
333
330
18
100
AcDbEntity
  8
GUIDE
100
AcDb2dPolyline
 66
     1
 10
0.0
 20
0.0
 30
0.0
 70
     1
  0
VERTEX
  5
725
330
333
100
AcDbEntity
  8
GUIDE
100
AcDbVertex
100
AcDb2dVertex
 10
166.5
 20
-44.15
 30
0.0
  0
VERTEX
  5
726
330
333
100
AcDbEntity
  8
GUIDE
100
AcDbVertex
100
AcDb2dVertex
 10
166.5
 20
-53.35
 30
0.0
  0
VERTEX
  5
727
330
333
100
AcDbEntity
  8
GUIDE
100
AcDbVertex
100
AcDb2dVertex
 10
174.5
 20
-53.35
 30
0.0
  0
VERTEX
  5
728
330
333
100
AcDbEntity
  8
GUIDE
100
AcDbVertex
100
AcDb2dVertex
 10
174.5
 20
-44.15
 30
0.0
  0
SEQEND
  5
724
330
333
100
AcDbEntity
  8
GUIDE
  0
POLYLINE
  5
339
330
18
100
AcDbEntity
  8
GUIDE
100
AcDb2dPolyline
 66
     1
 10
0.0
 20
0.0
 30
0.0
 70
     1
  0
VERTEX
  5
72A
330
339
100
AcDbEntity
  8
GUIDE
100
AcDbVertex
100
AcDb2dVertex
 10
163.7
 20
-37.55
 30
0.0
  0
VERTEX
  5
72B
330
339
100
AcDbEntity
  8
GUIDE
100
AcDbVertex
100
AcDb2dVertex
 10
163.7
 20
-44.15
 30
0.0
  0
VERTEX
  5
72C
330
339
100
AcDbEntity
  8
GUIDE
100
AcDbVertex
100
AcDb2dVertex
 10
177.3
 20
-44.15
 30
0.0
  0
VERTEX
  5
72D
330
339
100
AcDbEntity
  8
GUIDE
100
AcDbVertex
100
AcDb2dVertex
 10
177.3
 20
-37.55
 30
0.0
  0
SEQEND
  5
729
330
339
100
AcDbEntity
  8
GUIDE
  0
POLYLINE
  5
33F
330
18
100
AcDbEntity
  8
GUIDE
100
AcDb2dPolyline
 66
     1
 10
0.0
 20
0.0
 30
0.0
 70
     1
  0
VERTEX
  5
72F
330
33F
100
AcDbEntity
  8
GUIDE
100
AcDbVertex
100
AcDb2dVertex
 10
166.5
 20
-37.25
 30
0.0
  0
VERTEX
  5
730
330
33F
100
AcDbEntity
  8
GUIDE
100
AcDbVertex
100
AcDb2dVertex
 10
166.5
 20
-37.55
 30
0.0
  0
VERTEX
  5
731
330
33F
100
AcDbEntity
  8
GUIDE
100
AcDbVertex
100
AcDb2dVertex
 10
174.5
 20
-37.55
 30
0.0
  0
VERTEX
  5
732
330
33F
100
AcDbEntity
  8
GUIDE
100
AcDbVertex
100
AcDb2dVertex
 10
174.5
 20
-37.25
 30
0.0
  0
SEQEND
  5
72E
330
33F
100
AcDbEntity
  8
GUIDE
  0
LINE
  5
345
330
18
100
AcDbEntity
  8
GUIDE
100
AcDbLine
 10
159.2
 20
-59.125
 30
0.0
 11
159.2
 21
-70.0
 31
0.0
  0
ARC
  5
346
330
18
100
AcDbEntity
  8
GUIDE
100
AcDbCircle
 10
173.060386
 20
-70.966692
 30
0.0
 40
1.240062
100
AcDbArc
 50
358.460834
 51
78.858783
  0
LINE
  5
347
330
18
100
AcDbEntity
  8
GUIDE
100
AcDbLine
 10
174.3
 20
-71.0
 30
0.0
 11
174.3
 21
-74.0
 31
0.0
  0
LINE
  5
348
330
18
100
AcDbEntity
  8
GUIDE
100
AcDbLine
 10
174.3
 20
0.0
 30
0.0
 11
174.3
 21
-3.25
 31
0.0
  0
ARC
  5
349
330
18
100
AcDbEntity
  8
GUIDE
100
AcDbCircle
 10
173.3
 20
-3.25
 30
0.0
 40
1.0
100
AcDbArc
 50
270.0
 51
0.0
  0
LINE
  5
34A
330
18
100
AcDbEntity
  8
GUIDE
100
AcDbLine
 10
173.3
 20
-4.25
 30
0.0
 11
163.7
 21
-4.25
 31
0.0
  0
ARC
  5
34B
330
18
100
AcDbEntity
  8
GUIDE
100
AcDbCircle
 10
163.796165
 20
-4.923083
 30
0.0
 40
0.679917
100
AcDbArc
 50
98.130968
 51
208.73893
  0
LINE
  5
34C
330
18
100
AcDbEntity
  8
GUIDE
100
AcDbLine
 10
163.2
 20
-5.25
 30
0.0
 11
163.2
 21
-68.75
 31
0.0
  0
ARC
  5
34D
330
18
100
AcDbEntity
  8
GUIDE
100
AcDbCircle
 10
163.796165
 20
-69.076917
 30
0.0
 40
0.679917
100
AcDbArc
 50
151.26107
 51
261.869032
  0
LINE
  5
34E
330
18
100
AcDbEntity
  8
GUIDE
100
AcDbLine
 10
163.7
 20
-69.75
 30
0.0
 11
173.3
 21
-69.75
 31
0.0
  0
ARC
  5
34F
330
18
100
AcDbEntity
  8
GUIDE
100
AcDbCircle
 10
163.2
 20
-4.0
 30
0.0
 40
4.0
100
AcDbArc
 50
90.0
 51
180.0
  0
ARC
  5
350
330
18
100
AcDbEntity
  8
GUIDE
100
AcDbCircle
 10
163.2
 20
-70.0
 30
0.0
 40
4.0
100
AcDbArc
 50
180.0
 51
270.0
  0
POLYLINE
  5
351
330
18
100
AcDbEntity
  8
GUIDE
100
AcDb2dPolyline
 66
     1
 10
0.0
 20
0.0
 30
0.0
  0
VERTEX
  5
734
330
351
100
AcDbEntity
  8
GUIDE
100
AcDbVertex
100
AcDb2dVertex
 10
166.5
 20
-68.65000000000001
 30
0.0
  0
VERTEX
  5
735
330
351
100
AcDbEntity
  8
GUIDE
100
AcDbVertex
100
AcDb2dVertex
 10
163.7
 20
-68.65000000000001
 30
0.0
  0
SEQEND
  5
733
330
351
100
AcDbEntity
  8
GUIDE
  0
POLYLINE
  5
355
330
18
100
AcDbEntity
  8
GUIDE
100
AcDb2dPolyline
 66
     1
 10
0.0
 20
0.0
 30
0.0
  0
VERTEX
  5
737
330
355
100
AcDbEntity
  8
GUIDE
100
AcDbVertex
100
AcDb2dVertex
 10
163.7
 20
-68.65000000000001
 30
0.0
  0
VERTEX
  5
738
330
355
100
AcDbEntity
  8
GUIDE
100
AcDbVertex
100
AcDb2dVertex
 10
163.7
 20
-62.05
 30
0.0
  0
VERTEX
  5
739
330
355
100
AcDbEntity
  8
GUIDE
100
AcDbVertex
100
AcDb2dVertex
 10
166.5
 20
-62.05
 30
0.0
  0
SEQEND
  5
736
330
355
100
AcDbEntity
  8
GUIDE
  0
POLYLINE
  5
35A
330
18
100
AcDbEntity
  8
GUIDE
100
AcDb2dPolyline
 66
     1
 10
0.0
 20
0.0
 30
0.0
  0
VERTEX
  5
73B
330
35A
100
AcDbEntity
  8
GUIDE
100
AcDbVertex
100
AcDb2dVertex
 10
174.5
 20
-62.05
 30
0.0
  0
VERTEX
  5
73C
330
35A
100
AcDbEntity
  8
GUIDE
100
AcDbVertex
100
AcDb2dVertex
 10
177.3
 20
-62.05
 30
0.0
  0
VERTEX
  5
73D
330
35A
100
AcDbEntity
  8
GUIDE
100
AcDbVertex
100
AcDb2dVertex
 10
177.3
 20
-68.65000000000001
 30
0.0
  0
VERTEX
  5
73E
330
35A
100
AcDbEntity
  8
GUIDE
100
AcDbVertex
100
AcDb2dVertex
 10
174.5
 20
-68.65000000000001
 30
0.0
  0
SEQEND
  5
73A
330
35A
100
AcDbEntity
  8
GUIDE
  0
POLYLINE
  5
360
330
18
100
AcDbEntity
  8
GUIDE
100
AcDb2dPolyline
 66
     1
 10
0.0
 20
0.0
 30
0.0
  0
VERTEX
  5
740
330
360
100
AcDbEntity
  8
GUIDE
100
AcDbVertex
100
AcDb2dVertex
 10
166.5
 20
-52.55
 30
0.0
  0
VERTEX
  5
741
330
360
100
AcDbEntity
  8
GUIDE
100
AcDbVertex
100
AcDb2dVertex
 10
163.7
 20
-52.55
 30
0.0
  0
SEQEND
  5
73F
330
360
100
AcDbEntity
  8
GUIDE
  0
POLYLINE
  5
364
330
18
100
AcDbEntity
  8
GUIDE
100
AcDb2dPolyline
 66
     1
 10
0.0
 20
0.0
 30
0.0
  0
VERTEX
  5
743
330
364
100
AcDbEntity
  8
GUIDE
100
AcDbVertex
100
AcDb2dVertex
 10
163.7
 20
-52.55
 30
0.0
  0
VERTEX
  5
744
330
364
100
AcDbEntity
  8
GUIDE
100
AcDbVertex
100
AcDb2dVertex
 10
163.7
 20
-45.95
 30
0.0
  0
VERTEX
  5
745
330
364
100
AcDbEntity
  8
GUIDE
100
AcDbVertex
100
AcDb2dVertex
 10
166.5
 20
-45.95
 30
0.0
  0
SEQEND
  5
742
330
364
100
AcDbEntity
  8
GUIDE
  0
POLYLINE
  5
369
330
18
100
AcDbEntity
  8
GUIDE
100
AcDb2dPolyline
 66
     1
 10
0.0
 20
0.0
 30
0.0
  0
VERTEX
  5
747
330
369
100
AcDbEntity
  8
GUIDE
100
AcDbVertex
100
AcDb2dVertex
 10
174.5
 20
-45.95
 30
0.0
  0
VERTEX
  5
748
330
369
100
AcDbEntity
  8
GUIDE
100
AcDbVertex
100
AcDb2dVertex
 10
177.3
 20
-45.95
 30
0.0
  0
VERTEX
  5
749
330
369
100
AcDbEntity
  8
GUIDE
100
AcDbVertex
100
AcDb2dVertex
 10
177.3
 20
-52.55
 30
0.0
  0
VERTEX
  5
74A
330
369
100
AcDbEntity
  8
GUIDE
100
AcDbVertex
100
AcDb2dVertex
 10
174.5
 20
-52.55
 30
0.0
  0
SEQEND
  5
746
330
369
100
AcDbEntity
  8
GUIDE
  0
POLYLINE
  5
36F
330
18
100
AcDbEntity
  8
GUIDE
100
AcDb2dPolyline
 66
     1
 10
0.0
 20
0.0
 30
0.0
  0
VERTEX
  5
74C
330
36F
100
AcDbEntity
  8
GUIDE
100
AcDbVertex
100
AcDb2dVertex
 10
166.5
 20
-36.45
 30
0.0
  0
VERTEX
  5
74D
330
36F
100
AcDbEntity
  8
GUIDE
100
AcDbVertex
100
AcDb2dVertex
 10
163.7
 20
-36.45
 30
0.0
  0
SEQEND
  5
74B
330
36F
100
AcDbEntity
  8
GUIDE
  0
POLYLINE
  5
373
330
18
100
AcDbEntity
  8
GUIDE
100
AcDb2dPolyline
 66
     1
 10
0.0
 20
0.0
 30
0.0
  0
VERTEX
  5
74F
330
373
100
AcDbEntity
  8
GUIDE
100
AcDbVertex
100
AcDb2dVertex
 10
163.7
 20
-36.45
 30
0.0
  0
VERTEX
  5
750
330
373
100
AcDbEntity
  8
GUIDE
100
AcDbVertex
100
AcDb2dVertex
 10
163.7
 20
-29.85
 30
0.0
  0
VERTEX
  5
751
330
373
100
AcDbEntity
  8
GUIDE
100
AcDbVertex
100
AcDb2dVertex
 10
166.5
 20
-29.85
 30
0.0
  0
SEQEND
  5
74E
330
373
100
AcDbEntity
  8
GUIDE
  0
POLYLINE
  5
378
330
18
100
AcDbEntity
  8
GUIDE
100
AcDb2dPolyline
 66
     1
 10
0.0
 20
0.0
 30
0.0
  0
VERTEX
  5
753
330
378
100
AcDbEntity
  8
GUIDE
100
AcDbVertex
100
AcDb2dVertex
 10
174.5
 20
-29.85
 30
0.0
  0
VERTEX
  5
754
330
378
100
AcDbEntity
  8
GUIDE
100
AcDbVertex
100
AcDb2dVertex
 10
177.3
 20
-29.85
 30
0.0
  0
VERTEX
  5
755
330
378
100
AcDbEntity
  8
GUIDE
100
AcDbVertex
100
AcDb2dVertex
 10
177.3
 20
-36.45
 30
0.0
  0
VERTEX
  5
756
330
378
100
AcDbEntity
  8
GUIDE
100
AcDbVertex
100
AcDb2dVertex
 10
174.5
 20
-36.45
 30
0.0
  0
SEQEND
  5
752
330
378
100
AcDbEntity
  8
GUIDE
  0
POLYLINE
  5
37E
330
18
100
AcDbEntity
  8
GUIDE
100
AcDb2dPolyline
 66
     1
 10
0.0
 20
0.0
 30
0.0
  0
VERTEX
  5
758
330
37E
100
AcDbEntity
  8
GUIDE
100
AcDbVertex
100
AcDb2dVertex
 10
166.5
 20
-20.35
 30
0.0
  0
VERTEX
  5
759
330
37E
100
AcDbEntity
  8
GUIDE
100
AcDbVertex
100
AcDb2dVertex
 10
163.7
 20
-20.35
 30
0.0
  0
SEQEND
  5
757
330
37E
100
AcDbEntity
  8
GUIDE
  0
POLYLINE
  5
382
330
18
100
AcDbEntity
  8
GUIDE
100
AcDb2dPolyline
 66
     1
 10
0.0
 20
0.0
 30
0.0
  0
VERTEX
  5
75B
330
382
100
AcDbEntity
  8
GUIDE
100
AcDbVertex
100
AcDb2dVertex
 10
163.7
 20
-20.35
 30
0.0
  0
VERTEX
  5
75C
330
382
100
AcDbEntity
  8
GUIDE
100
AcDbVertex
100
AcDb2dVertex
 10
163.7
 20
-13.75
 30
0.0
  0
VERTEX
  5
75D
330
382
100
AcDbEntity
  8
GUIDE
100
AcDbVertex
100
AcDb2dVertex
 10
166.5
 20
-13.75
 30
0.0
  0
SEQEND
  5
75A
330
382
100
AcDbEntity
  8
GUIDE
  0
POLYLINE
  5
387
330
18
100
AcDbEntity
  8
GUIDE
100
AcDb2dPolyline
 66
     1
 10
0.0
 20
0.0
 30
0.0
  0
VERTEX
  5
75F
330
387
100
AcDbEntity
  8
GUIDE
100
AcDbVertex
100
AcDb2dVertex
 10
174.5
 20
-13.75
 30
0.0
  0
VERTEX
  5
760
330
387
100
AcDbEntity
  8
GUIDE
100
AcDbVertex
100
AcDb2dVertex
 10
177.3
 20
-13.75
 30
0.0
  0
VERTEX
  5
761
330
387
100
AcDbEntity
  8
GUIDE
100
AcDbVertex
100
AcDb2dVertex
 10
177.3
 20
-20.35
 30
0.0
  0
VERTEX
  5
762
330
387
100
AcDbEntity
  8
GUIDE
100
AcDbVertex
100
AcDb2dVertex
 10
174.5
 20
-20.35
 30
0.0
  0
SEQEND
  5
75E
330
387
100
AcDbEntity
  8
GUIDE
  0
LINE
  5
38D
330
18
100
AcDbEntity
  8
GUIDE
100
AcDbLine
 10
150.2
 20
-57.0
 30
0.0
 11
150.2
 21
-17.0
 31
0.0
  0
LINE
  5
38E
330
18
100
AcDbEntity
  8
GUIDE
100
AcDbLine
 10
150.2
 20
-17.0
 30
0.0
 11
158.2
 21
-17.0
 31
0.0
  0
LINE
  5
38F
330
18
100
AcDbEntity
  8
GUIDE
100
AcDbLine
 10
158.2
 20
-17.0
 30
0.0
 11
158.2
 21
-57.0
 31
0.0
  0
LINE
  5
390
330
18
100
AcDbEntity
  8
GUIDE
100
AcDbLine
 10
158.2
 20
-57.0
 30
0.0
 11
150.2
 21
-57.0
 31
0.0
  0
LINE
  5
391
330
18
100
AcDbEntity
  8
GUIDE
100
AcDbLine
 10
74.3
 20
-124.125
 30
0.0
 11
74.3
 21
-138.725
 31
0.0
  0
LINE
  5
392
330
18
100
AcDbEntity
  8
GUIDE
100
AcDbLine
 10
6.0
 20
-124.125
 30
0.0
 11
74.3
 21
-124.125
 31
0.0
  0
LINE
  5
393
330
18
100
AcDbEntity
  8
GUIDE
100
AcDbLine
 10
16.2
 20
-152.025
 30
0.0
 11
64.09999999999999
 21
-152.025
 31
0.0
  0
ARC
  5
394
330
18
100
AcDbEntity
  8
GUIDE
100
AcDbCircle
 10
74.3
 20
-130.125
 30
0.0
 40
6.0
100
AcDbArc
 50
320.645827
 51
90.0
  0
LINE
  5
395
330
18
100
AcDbEntity
  8
GUIDE
100
AcDbLine
 10
64.09999999999999
 20
-152.025
 30
0.0
 11
78.939446
 21
-133.929673
 31
0.0
  0
ARC
  5
396
330
18
100
AcDbEntity
  8
GUIDE
100
AcDbCircle
 10
6.0
 20
-130.125
 30
0.0
 40
6.0
100
AcDbArc
 50
90.0
 51
219.354173
  0
LINE
  5
397
330
18
100
AcDbEntity
  8
GUIDE
100
AcDbLine
 10
16.2
 20
-152.025
 30
0.0
 11
1.360554
 21
-133.929673
 31
0.0
  0
ARC
  5
398
330
18
100
AcDbEntity
  8
GUIDE
100
AcDbCircle
 10
8.9
 20
-127.925
 30
0.0
 40
6.8
100
AcDbArc
 50
33.974476
 51
155.511503
  0
ARC
  5
399
330
18
100
AcDbEntity
  8
GUIDE
100
AcDbCircle
 10
21.0
 20
-127.925
 30
0.0
 40
6.8
100
AcDbArc
 50
33.974476
 51
146.025524
  0
ARC
  5
39A
330
18
100
AcDbEntity
  8
GUIDE
100
AcDbCircle
 10
33.0
 20
-127.925
 30
0.0
 40
6.8
100
AcDbArc
 50
33.974476
 51
146.025524
  0
ARC
  5
39B
330
18
100
AcDbEntity
  8
GUIDE
100
AcDbCircle
 10
45.1
 20
-127.925
 30
0.0
 40
6.8
100
AcDbArc
 50
33.974476
 51
146.025524
  0
ARC
  5
39C
330
18
100
AcDbEntity
  8
GUIDE
100
AcDbCircle
 10
57.2
 20
-127.925
 30
0.0
 40
6.8
100
AcDbArc
 50
33.974476
 51
146.025524
  0
ARC
  5
39D
330
18
100
AcDbEntity
  8
GUIDE
100
AcDbCircle
 10
69.3
 20
-127.925
 30
0.0
 40
6.8
100
AcDbArc
 50
33.60107100000001
 51
146.025524
  0
LINE
  5
39E
330
18
100
AcDbEntity
  8
0
100
AcDbLine
 10
5.29306
 20
-138.725
 30
0.0
 11
75.00694
 21
-138.725
 31
0.0
  0
LINE
  5
39F
330
18
100
AcDbEntity
  8
GUIDE
100
AcDbLine
 10
6.0
 20
-4.25
 30
0.0
 11
80.3
 21
-4.25
 31
0.0
  0
LINE
  5
3A0
330
18
100
AcDbEntity
  8
GUIDE
100
AcDbLine
 10
6.0
 20
-70.25
 30
0.0
 11
80.3
 21
-70.25
 31
0.0
  0
LINE
  5
3A1
330
18
100
AcDbEntity
  8
GUIDE
100
AcDbLine
 10
0.0
 20
0.0
 30
0.0
 11
74.3
 21
0.0
 31
0.0
  0
LINE
  5
3A2
330
18
100
AcDbEntity
  8
GUIDE
100
AcDbLine
 10
0.0
 20
-74.5
 30
0.0
 11
74.3
 21
-74.5
 31
0.0
  0
LINE
  5
3A3
330
18
100
AcDbEntity
  8
GUIDE
100
AcDbLine
 10
0.0
 20
-74.5
 30
0.0
 11
0.0
 21
-72.375
 31
0.0
  0
LINE
  5
3A4
330
18
100
AcDbEntity
  8
GUIDE
100
AcDbLine
 10
80.3
 20
-2.125
 30
0.0
 11
80.3
 21
-4.25
 31
0.0
  0
LINE
  5
3A5
330
18
100
AcDbEntity
  8
GUIDE
100
AcDbLine
 10
74.3
 20
0.0
 30
0.0
 11
74.3
 21
-2.125
 31
0.0
  0
LINE
  5
3A6
330
18
100
AcDbEntity
  8
GUIDE
100
AcDbLine
 10
6.0
 20
-2.125
 30
0.0
 11
6.0
 21
-4.25
 31
0.0
  0
LINE
  5
3A7
330
18
100
AcDbEntity
  8
GUIDE
100
AcDbLine
 10
0.0
 20
-2.125
 30
0.0
 11
6.0
 21
-2.125
 31
0.0
  0
LINE
  5
3A8
330
18
100
AcDbEntity
  8
GUIDE
100
AcDbLine
 10
0.0
 20
-72.375
 30
0.0
 11
6.0
 21
-72.375
 31
0.0
  0
LINE
  5
3A9
330
18
100
AcDbEntity
  8
GUIDE
100
AcDbLine
 10
0.0
 20
-2.125
 30
0.0
 11
0.0
 21
0.0
 31
0.0
  0
LINE
  5
3AA
330
18
100
AcDbEntity
  8
GUIDE
100
AcDbLine
 10
6.0
 20
-70.25
 30
0.0
 11
6.0
 21
-72.375
 31
0.0
  0
LINE
  5
3AB
330
18
100
AcDbEntity
  8
GUIDE
100
AcDbLine
 10
74.3
 20
-2.125
 30
0.0
 11
80.3
 21
-2.125
 31
0.0
  0
LINE
  5
3AC
330
18
100
AcDbEntity
  8
GUIDE
100
AcDbLine
 10
74.3
 20
-72.375
 30
0.0
 11
74.3
 21
-74.5
 31
0.0
  0
LINE
  5
3AD
330
18
100
AcDbEntity
  8
GUIDE
100
AcDbLine
 10
80.3
 20
-70.25
 30
0.0
 11
80.3
 21
-72.375
 31
0.0
  0
LINE
  5
3AE
330
18
100
AcDbEntity
  8
GUIDE
100
AcDbLine
 10
74.3
 20
-72.375
 30
0.0
 11
80.3
 21
-72.375
 31
0.0
  0
LINE
  5
3AF
330
18
100
AcDbEntity
  8
GUIDE
100
AcDbLine
 10
9.9
 20
-4.25
 30
0.0
 11
9.9
 21
0.0
 31
0.0
  0
LINE
  5
3B0
330
18
100
AcDbEntity
  8
GUIDE
100
AcDbLine
 10
7.9
 20
-4.25
 30
0.0
 11
7.9
 21
0.0
 31
0.0
  0
LINE
  5
3B1
330
18
100
AcDbEntity
  8
GUIDE
100
AcDbLine
 10
20.0
 20
-4.25
 30
0.0
 11
20.0
 21
0.0
 31
0.0
  0
LINE
  5
3B2
330
18
100
AcDbEntity
  8
GUIDE
100
AcDbLine
 10
22.0
 20
-4.25
 30
0.0
 11
22.0
 21
0.0
 31
0.0
  0
LINE
  5
3B3
330
18
100
AcDbEntity
  8
GUIDE
100
AcDbLine
 10
32.0
 20
-4.25
 30
0.0
 11
32.0
 21
0.0
 31
0.0
  0
LINE
  5
3B4
330
18
100
AcDbEntity
  8
GUIDE
100
AcDbLine
 10
34.0
 20
-4.25
 30
0.0
 11
34.0
 21
0.0
 31
0.0
  0
LINE
  5
3B5
330
18
100
AcDbEntity
  8
GUIDE
100
AcDbLine
 10
44.1
 20
-4.25
 30
0.0
 11
44.1
 21
0.0
 31
0.0
  0
LINE
  5
3B6
330
18
100
AcDbEntity
  8
GUIDE
100
AcDbLine
 10
46.1
 20
-4.25
 30
0.0
 11
46.1
 21
0.0
 31
0.0
  0
LINE
  5
3B7
330
18
100
AcDbEntity
  8
GUIDE
100
AcDbLine
 10
56.2
 20
-4.25
 30
0.0
 11
56.2
 21
0.0
 31
0.0
  0
LINE
  5
3B8
330
18
100
AcDbEntity
  8
GUIDE
100
AcDbLine
 10
58.2
 20
-4.25
 30
0.0
 11
58.2
 21
0.0
 31
0.0
  0
LINE
  5
3B9
330
18
100
AcDbEntity
  8
GUIDE
100
AcDbLine
 10
68.3
 20
-4.25
 30
0.0
 11
68.3
 21
0.0
 31
0.0
  0
LINE
  5
3BA
330
18
100
AcDbEntity
  8
GUIDE
100
AcDbLine
 10
70.3
 20
-4.25
 30
0.0
 11
70.3
 21
0.0
 31
0.0
  0
LINE
  5
3BB
330
18
100
AcDbEntity
  8
GUIDE
100
AcDbLine
 10
68.3
 20
-74.5
 30
0.0
 11
68.3
 21
-70.25
 31
0.0
  0
LINE
  5
3BC
330
18
100
AcDbEntity
  8
GUIDE
100
AcDbLine
 10
70.3
 20
-74.5
 30
0.0
 11
70.3
 21
-70.25
 31
0.0
  0
LINE
  5
3BD
330
18
100
AcDbEntity
  8
GUIDE
100
AcDbLine
 10
56.2
 20
-70.25
 30
0.0
 11
56.2
 21
-74.5
 31
0.0
  0
LINE
  5
3BE
330
18
100
AcDbEntity
  8
GUIDE
100
AcDbLine
 10
58.2
 20
-70.25
 30
0.0
 11
58.2
 21
-74.5
 31
0.0
  0
LINE
  5
3BF
330
18
100
AcDbEntity
  8
GUIDE
100
AcDbLine
 10
46.1
 20
-70.25
 30
0.0
 11
46.1
 21
-74.5
 31
0.0
  0
LINE
  5
3C0
330
18
100
AcDbEntity
  8
GUIDE
100
AcDbLine
 10
44.1
 20
-70.25
 30
0.0
 11
44.1
 21
-74.5
 31
0.0
  0
LINE
  5
3C1
330
18
100
AcDbEntity
  8
GUIDE
100
AcDbLine
 10
32.0
 20
-74.5
 30
0.0
 11
32.0
 21
-70.25
 31
0.0
  0
LINE
  5
3C2
330
18
100
AcDbEntity
  8
GUIDE
100
AcDbLine
 10
34.0
 20
-74.5
 30
0.0
 11
34.0
 21
-70.25
 31
0.0
  0
LINE
  5
3C3
330
18
100
AcDbEntity
  8
GUIDE
100
AcDbLine
 10
22.0
 20
-70.25
 30
0.0
 11
22.0
 21
-74.5
 31
0.0
  0
LINE
  5
3C4
330
18
100
AcDbEntity
  8
GUIDE
100
AcDbLine
 10
20.0
 20
-70.25
 30
0.0
 11
20.0
 21
-74.5
 31
0.0
  0
LINE
  5
3C5
330
18
100
AcDbEntity
  8
GUIDE
100
AcDbLine
 10
9.9
 20
-70.25
 30
0.0
 11
9.9
 21
-74.5
 31
0.0
  0
LINE
  5
3C6
330
18
100
AcDbEntity
  8
GUIDE
100
AcDbLine
 10
7.9
 20
-70.25
 30
0.0
 11
7.9
 21
-74.5
 31
0.0
  0
POLYLINE
  5
3C7
330
18
100
AcDbEntity
  8
GUIDE
100
AcDb2dPolyline
 66
     1
 10
0.0
 20
0.0
 30
0.0
 70
     1
  0
VERTEX
  5
764
330
3C7
100
AcDbEntity
  8
GUIDE
100
AcDbVertex
100
AcDb2dVertex
 10
53.2
 20
-21.15
 30
0.0
  0
VERTEX
  5
765
330
3C7
100
AcDbEntity
  8
GUIDE
100
AcDbVertex
100
AcDb2dVertex
 10
53.2
 20
-20.85
 30
0.0
  0
VERTEX
  5
766
330
3C7
100
AcDbEntity
  8
GUIDE
100
AcDbVertex
100
AcDb2dVertex
 10
61.2
 20
-20.85
 30
0.0
  0
VERTEX
  5
767
330
3C7
100
AcDbEntity
  8
GUIDE
100
AcDbVertex
100
AcDb2dVertex
 10
61.2
 20
-21.15
 30
0.0
  0
SEQEND
  5
763
330
3C7
100
AcDbEntity
  8
GUIDE
  0
POLYLINE
  5
3CD
330
18
100
AcDbEntity
  8
GUIDE
100
AcDb2dPolyline
 66
     1
 10
0.0
 20
0.0
 30
0.0
 70
     1
  0
VERTEX
  5
769
330
3CD
100
AcDbEntity
  8
GUIDE
100
AcDbVertex
100
AcDb2dVertex
 10
50.4
 20
-36.95
 30
0.0
  0
VERTEX
  5
76A
330
3CD
100
AcDbEntity
  8
GUIDE
100
AcDbVertex
100
AcDb2dVertex
 10
50.4
 20
-30.35
 30
0.0
  0
VERTEX
  5
76B
330
3CD
100
AcDbEntity
  8
GUIDE
100
AcDbVertex
100
AcDb2dVertex
 10
64.0
 20
-30.35
 30
0.0
  0
VERTEX
  5
76C
330
3CD
100
AcDbEntity
  8
GUIDE
100
AcDbVertex
100
AcDb2dVertex
 10
64.0
 20
-36.95
 30
0.0
  0
SEQEND
  5
768
330
3CD
100
AcDbEntity
  8
GUIDE
  0
POLYLINE
  5
3D3
330
18
100
AcDbEntity
  8
GUIDE
100
AcDb2dPolyline
 66
     1
 10
0.0
 20
0.0
 30
0.0
 70
     1
  0
VERTEX
  5
76E
330
3D3
100
AcDbEntity
  8
GUIDE
100
AcDbVertex
100
AcDb2dVertex
 10
53.2
 20
-37.25
 30
0.0
  0
VERTEX
  5
76F
330
3D3
100
AcDbEntity
  8
GUIDE
100
AcDbVertex
100
AcDb2dVertex
 10
53.2
 20
-36.95
 30
0.0
  0
VERTEX
  5
770
330
3D3
100
AcDbEntity
  8
GUIDE
100
AcDbVertex
100
AcDb2dVertex
 10
61.2
 20
-36.95
 30
0.0
  0
VERTEX
  5
771
330
3D3
100
AcDbEntity
  8
GUIDE
100
AcDbVertex
100
AcDb2dVertex
 10
61.2
 20
-37.25
 30
0.0
  0
SEQEND
  5
76D
330
3D3
100
AcDbEntity
  8
GUIDE
  0
POLYLINE
  5
3D9
330
18
100
AcDbEntity
  8
GUIDE
100
AcDb2dPolyline
 66
     1
 10
0.0
 20
0.0
 30
0.0
 70
     1
  0
VERTEX
  5
773
330
3D9
100
AcDbEntity
  8
GUIDE
100
AcDbVertex
100
AcDb2dVertex
 10
54.7
 20
-70.25
 30
0.0
  0
VERTEX
  5
774
330
3D9
100
AcDbEntity
  8
GUIDE
100
AcDbVertex
100
AcDb2dVertex
 10
54.7
 20
-69.45
 30
0.0
  0
VERTEX
  5
775
330
3D9
100
AcDbEntity
  8
GUIDE
100
AcDbVertex
100
AcDb2dVertex
 10
59.7
 20
-69.45
 30
0.0
  0
VERTEX
  5
776
330
3D9
100
AcDbEntity
  8
GUIDE
100
AcDbVertex
100
AcDb2dVertex
 10
59.7
 20
-70.25
 30
0.0
  0
SEQEND
  5
772
330
3D9
100
AcDbEntity
  8
GUIDE
  0
POLYLINE
  5
3DF
330
18
100
AcDbEntity
  8
GUIDE
100
AcDb2dPolyline
 66
     1
 10
0.0
 20
0.0
 30
0.0
 70
     1
  0
VERTEX
  5
778
330
3DF
100
AcDbEntity
  8
GUIDE
100
AcDbVertex
100
AcDb2dVertex
 10
53.2
 20
-30.35
 30
0.0
  0
VERTEX
  5
779
330
3DF
100
AcDbEntity
  8
GUIDE
100
AcDbVertex
100
AcDb2dVertex
 10
53.2
 20
-21.15
 30
0.0
  0
VERTEX
  5
77A
330
3DF
100
AcDbEntity
  8
GUIDE
100
AcDbVertex
100
AcDb2dVertex
 10
61.2
 20
-21.15
 30
0.0
  0
VERTEX
  5
77B
330
3DF
100
AcDbEntity
  8
GUIDE
100
AcDbVertex
100
AcDb2dVertex
 10
61.2
 20
-30.35
 30
0.0
  0
SEQEND
  5
777
330
3DF
100
AcDbEntity
  8
GUIDE
  0
POLYLINE
  5
3E5
330
18
100
AcDbEntity
  8
GUIDE
100
AcDb2dPolyline
 66
     1
 10
0.0
 20
0.0
 30
0.0
 70
     1
  0
VERTEX
  5
77D
330
3E5
100
AcDbEntity
  8
GUIDE
100
AcDbVertex
100
AcDb2dVertex
 10
54.7
 20
-5.05
 30
0.0
  0
VERTEX
  5
77E
330
3E5
100
AcDbEntity
  8
GUIDE
100
AcDbVertex
100
AcDb2dVertex
 10
54.7
 20
-4.25
 30
0.0
  0
VERTEX
  5
77F
330
3E5
100
AcDbEntity
  8
GUIDE
100
AcDbVertex
100
AcDb2dVertex
 10
59.7
 20
-4.25
 30
0.0
  0
VERTEX
  5
780
330
3E5
100
AcDbEntity
  8
GUIDE
100
AcDbVertex
100
AcDb2dVertex
 10
59.7
 20
-5.05
 30
0.0
  0
SEQEND
  5
77C
330
3E5
100
AcDbEntity
  8
GUIDE
  0
POLYLINE
  5
3EB
330
18
100
AcDbEntity
  8
GUIDE
100
AcDb2dPolyline
 66
     1
 10
0.0
 20
0.0
 30
0.0
 70
     1
  0
VERTEX
  5
782
330
3EB
100
AcDbEntity
  8
GUIDE
100
AcDbVertex
100
AcDb2dVertex
 10
50.4
 20
-20.85
 30
0.0
  0
VERTEX
  5
783
330
3EB
100
AcDbEntity
  8
GUIDE
100
AcDbVertex
100
AcDb2dVertex
 10
50.4
 20
-14.25
 30
0.0
  0
VERTEX
  5
784
330
3EB
100
AcDbEntity
  8
GUIDE
100
AcDbVertex
100
AcDb2dVertex
 10
64.0
 20
-14.25
 30
0.0
  0
VERTEX
  5
785
330
3EB
100
AcDbEntity
  8
GUIDE
100
AcDbVertex
100
AcDb2dVertex
 10
64.0
 20
-20.85
 30
0.0
  0
SEQEND
  5
781
330
3EB
100
AcDbEntity
  8
GUIDE
  0
POLYLINE
  5
3F1
330
18
100
AcDbEntity
  8
GUIDE
100
AcDb2dPolyline
 66
     1
 10
0.0
 20
0.0
 30
0.0
 70
     1
  0
VERTEX
  5
787
330
3F1
100
AcDbEntity
  8
GUIDE
100
AcDbVertex
100
AcDb2dVertex
 10
53.2
 20
-14.25
 30
0.0
  0
VERTEX
  5
788
330
3F1
100
AcDbEntity
  8
GUIDE
100
AcDbVertex
100
AcDb2dVertex
 10
53.2
 20
-5.05
 30
0.0
  0
VERTEX
  5
789
330
3F1
100
AcDbEntity
  8
GUIDE
100
AcDbVertex
100
AcDb2dVertex
 10
61.2
 20
-5.05
 30
0.0
  0
VERTEX
  5
78A
330
3F1
100
AcDbEntity
  8
GUIDE
100
AcDbVertex
100
AcDb2dVertex
 10
61.2
 20
-14.25
 30
0.0
  0
SEQEND
  5
786
330
3F1
100
AcDbEntity
  8
GUIDE
  0
LINE
  5
3F7
330
18
100
AcDbEntity
  8
GUIDE
100
AcDbLine
 10
65.3
 20
-21.15
 30
0.0
 11
65.3
 21
-21.45
 31
0.0
  0
LINE
  5
3F8
330
18
100
AcDbEntity
  8
GUIDE
100
AcDbLine
 10
65.3
 20
-21.45
 30
0.0
 11
73.3
 21
-21.45
 31
0.0
  0
LINE
  5
3F9
330
18
100
AcDbEntity
  8
GUIDE
100
AcDbLine
 10
73.3
 20
-21.45
 30
0.0
 11
73.3
 21
-21.15
 31
0.0
  0
LINE
  5
3FA
330
18
100
AcDbEntity
  8
GUIDE
100
AcDbLine
 10
73.3
 20
-21.15
 30
0.0
 11
65.3
 21
-21.15
 31
0.0
  0
LINE
  5
3FB
330
18
100
AcDbEntity
  8
GUIDE
100
AcDbLine
 10
62.5
 20
-5.35
 30
0.0
 11
62.5
 21
-11.95
 31
0.0
  0
LINE
  5
3FC
330
18
100
AcDbEntity
  8
GUIDE
100
AcDbLine
 10
62.5
 20
-11.95
 30
0.0
 11
76.09999999999999
 21
-11.95
 31
0.0
  0
LINE
  5
3FD
330
18
100
AcDbEntity
  8
GUIDE
100
AcDbLine
 10
76.09999999999999
 20
-11.95
 30
0.0
 11
76.09999999999999
 21
-5.35
 31
0.0
  0
LINE
  5
3FE
330
18
100
AcDbEntity
  8
GUIDE
100
AcDbLine
 10
76.09999999999999
 20
-5.35
 30
0.0
 11
62.5
 21
-5.35
 31
0.0
  0
LINE
  5
3FF
330
18
100
AcDbEntity
  8
GUIDE
100
AcDbLine
 10
65.3
 20
-5.05
 30
0.0
 11
65.3
 21
-5.35
 31
0.0
  0
LINE
  5
400
330
18
100
AcDbEntity
  8
GUIDE
100
AcDbLine
 10
65.3
 20
-5.35
 30
0.0
 11
73.3
 21
-5.35
 31
0.0
  0
LINE
  5
401
330
18
100
AcDbEntity
  8
GUIDE
100
AcDbLine
 10
73.3
 20
-5.35
 30
0.0
 11
73.3
 21
-5.05
 31
0.0
  0
LINE
  5
402
330
18
100
AcDbEntity
  8
GUIDE
100
AcDbLine
 10
73.3
 20
-5.05
 30
0.0
 11
65.3
 21
-5.05
 31
0.0
  0
LINE
  5
403
330
18
100
AcDbEntity
  8
GUIDE
100
AcDbLine
 10
66.8
 20
-4.25
 30
0.0
 11
66.8
 21
-5.05
 31
0.0
  0
LINE
  5
404
330
18
100
AcDbEntity
  8
GUIDE
100
AcDbLine
 10
66.8
 20
-5.05
 30
0.0
 11
71.8
 21
-5.05
 31
0.0
  0
LINE
  5
405
330
18
100
AcDbEntity
  8
GUIDE
100
AcDbLine
 10
71.8
 20
-5.05
 30
0.0
 11
71.8
 21
-4.25
 31
0.0
  0
LINE
  5
406
330
18
100
AcDbEntity
  8
GUIDE
100
AcDbLine
 10
71.8
 20
-4.25
 30
0.0
 11
66.8
 21
-4.25
 31
0.0
  0
LINE
  5
407
330
18
100
AcDbEntity
  8
GUIDE
100
AcDbLine
 10
65.3
 20
-11.95
 30
0.0
 11
65.3
 21
-21.15
 31
0.0
  0
LINE
  5
408
330
18
100
AcDbEntity
  8
GUIDE
100
AcDbLine
 10
65.3
 20
-21.15
 30
0.0
 11
73.3
 21
-21.15
 31
0.0
  0
LINE
  5
409
330
18
100
AcDbEntity
  8
GUIDE
100
AcDbLine
 10
73.3
 20
-21.15
 30
0.0
 11
73.3
 21
-11.95
 31
0.0
  0
LINE
  5
40A
330
18
100
AcDbEntity
  8
GUIDE
100
AcDbLine
 10
73.3
 20
-11.95
 30
0.0
 11
65.3
 21
-11.95
 31
0.0
  0
LINE
  5
40B
330
18
100
AcDbEntity
  8
GUIDE
100
AcDbLine
 10
66.8
 20
-69.45
 30
0.0
 11
66.8
 21
-70.25
 31
0.0
  0
LINE
  5
40C
330
18
100
AcDbEntity
  8
GUIDE
100
AcDbLine
 10
66.8
 20
-70.25
 30
0.0
 11
71.8
 21
-70.25
 31
0.0
  0
LINE
  5
40D
330
18
100
AcDbEntity
  8
GUIDE
100
AcDbLine
 10
71.8
 20
-70.25
 30
0.0
 11
71.8
 21
-69.45
 31
0.0
  0
LINE
  5
40E
330
18
100
AcDbEntity
  8
GUIDE
100
AcDbLine
 10
71.8
 20
-69.45
 30
0.0
 11
66.8
 21
-69.45
 31
0.0
  0
LINE
  5
40F
330
18
100
AcDbEntity
  8
GUIDE
100
AcDbLine
 10
62.5
 20
-21.45
 30
0.0
 11
62.5
 21
-28.05
 31
0.0
  0
LINE
  5
410
330
18
100
AcDbEntity
  8
GUIDE
100
AcDbLine
 10
62.5
 20
-28.05
 30
0.0
 11
76.09999999999999
 21
-28.05
 31
0.0
  0
LINE
  5
411
330
18
100
AcDbEntity
  8
GUIDE
100
AcDbLine
 10
76.09999999999999
 20
-28.05
 30
0.0
 11
76.09999999999999
 21
-21.45
 31
0.0
  0
LINE
  5
412
330
18
100
AcDbEntity
  8
GUIDE
100
AcDbLine
 10
76.09999999999999
 20
-21.45
 30
0.0
 11
62.5
 21
-21.45
 31
0.0
  0
LINE
  5
413
330
18
100
AcDbEntity
  8
GUIDE
100
AcDbLine
 10
65.3
 20
-28.05
 30
0.0
 11
65.3
 21
-37.25
 31
0.0
  0
LINE
  5
414
330
18
100
AcDbEntity
  8
GUIDE
100
AcDbLine
 10
65.3
 20
-37.25
 30
0.0
 11
73.3
 21
-37.25
 31
0.0
  0
LINE
  5
415
330
18
100
AcDbEntity
  8
GUIDE
100
AcDbLine
 10
73.3
 20
-37.25
 30
0.0
 11
73.3
 21
-28.05
 31
0.0
  0
LINE
  5
416
330
18
100
AcDbEntity
  8
GUIDE
100
AcDbLine
 10
73.3
 20
-28.05
 30
0.0
 11
65.3
 21
-28.05
 31
0.0
  0
POLYLINE
  5
417
330
18
100
AcDbEntity
  8
GUIDE
100
AcDb2dPolyline
 66
     1
 10
0.0
 20
0.0
 30
0.0
 70
     1
  0
VERTEX
  5
78C
330
417
100
AcDbEntity
  8
GUIDE
100
AcDbVertex
100
AcDb2dVertex
 10
29.0
 20
-21.15
 30
0.0
  0
VERTEX
  5
78D
330
417
100
AcDbEntity
  8
GUIDE
100
AcDbVertex
100
AcDb2dVertex
 10
29.0
 20
-20.85
 30
0.0
  0
VERTEX
  5
78E
330
417
100
AcDbEntity
  8
GUIDE
100
AcDbVertex
100
AcDb2dVertex
 10
37.0
 20
-20.85
 30
0.0
  0
VERTEX
  5
78F
330
417
100
AcDbEntity
  8
GUIDE
100
AcDbVertex
100
AcDb2dVertex
 10
37.0
 20
-21.15
 30
0.0
  0
SEQEND
  5
78B
330
417
100
AcDbEntity
  8
GUIDE
  0
POLYLINE
  5
41D
330
18
100
AcDbEntity
  8
GUIDE
100
AcDb2dPolyline
 66
     1
 10
0.0
 20
0.0
 30
0.0
 70
     1
  0
VERTEX
  5
791
330
41D
100
AcDbEntity
  8
GUIDE
100
AcDbVertex
100
AcDb2dVertex
 10
26.2
 20
-36.95
 30
0.0
  0
VERTEX
  5
792
330
41D
100
AcDbEntity
  8
GUIDE
100
AcDbVertex
100
AcDb2dVertex
 10
26.2
 20
-30.35
 30
0.0
  0
VERTEX
  5
793
330
41D
100
AcDbEntity
  8
GUIDE
100
AcDbVertex
100
AcDb2dVertex
 10
39.8
 20
-30.35
 30
0.0
  0
VERTEX
  5
794
330
41D
100
AcDbEntity
  8
GUIDE
100
AcDbVertex
100
AcDb2dVertex
 10
39.8
 20
-36.95
 30
0.0
  0
SEQEND
  5
790
330
41D
100
AcDbEntity
  8
GUIDE
  0
POLYLINE
  5
423
330
18
100
AcDbEntity
  8
GUIDE
100
AcDb2dPolyline
 66
     1
 10
0.0
 20
0.0
 30
0.0
 70
     1
  0
VERTEX
  5
796
330
423
100
AcDbEntity
  8
GUIDE
100
AcDbVertex
100
AcDb2dVertex
 10
29.0
 20
-37.25
 30
0.0
  0
VERTEX
  5
797
330
423
100
AcDbEntity
  8
GUIDE
100
AcDbVertex
100
AcDb2dVertex
 10
29.0
 20
-36.95
 30
0.0
  0
VERTEX
  5
798
330
423
100
AcDbEntity
  8
GUIDE
100
AcDbVertex
100
AcDb2dVertex
 10
37.0
 20
-36.95
 30
0.0
  0
VERTEX
  5
799
330
423
100
AcDbEntity
  8
GUIDE
100
AcDbVertex
100
AcDb2dVertex
 10
37.0
 20
-37.25
 30
0.0
  0
SEQEND
  5
795
330
423
100
AcDbEntity
  8
GUIDE
  0
POLYLINE
  5
429
330
18
100
AcDbEntity
  8
GUIDE
100
AcDb2dPolyline
 66
     1
 10
0.0
 20
0.0
 30
0.0
 70
     1
  0
VERTEX
  5
79B
330
429
100
AcDbEntity
  8
GUIDE
100
AcDbVertex
100
AcDb2dVertex
 10
30.5
 20
-70.25
 30
0.0
  0
VERTEX
  5
79C
330
429
100
AcDbEntity
  8
GUIDE
100
AcDbVertex
100
AcDb2dVertex
 10
30.5
 20
-69.45
 30
0.0
  0
VERTEX
  5
79D
330
429
100
AcDbEntity
  8
GUIDE
100
AcDbVertex
100
AcDb2dVertex
 10
35.5
 20
-69.45
 30
0.0
  0
VERTEX
  5
79E
330
429
100
AcDbEntity
  8
GUIDE
100
AcDbVertex
100
AcDb2dVertex
 10
35.5
 20
-70.25
 30
0.0
  0
SEQEND
  5
79A
330
429
100
AcDbEntity
  8
GUIDE
  0
POLYLINE
  5
42F
330
18
100
AcDbEntity
  8
GUIDE
100
AcDb2dPolyline
 66
     1
 10
0.0
 20
0.0
 30
0.0
 70
     1
  0
VERTEX
  5
7A0
330
42F
100
AcDbEntity
  8
GUIDE
100
AcDbVertex
100
AcDb2dVertex
 10
29.0
 20
-30.35
 30
0.0
  0
VERTEX
  5
7A1
330
42F
100
AcDbEntity
  8
GUIDE
100
AcDbVertex
100
AcDb2dVertex
 10
29.0
 20
-21.15
 30
0.0
  0
VERTEX
  5
7A2
330
42F
100
AcDbEntity
  8
GUIDE
100
AcDbVertex
100
AcDb2dVertex
 10
37.0
 20
-21.15
 30
0.0
  0
VERTEX
  5
7A3
330
42F
100
AcDbEntity
  8
GUIDE
100
AcDbVertex
100
AcDb2dVertex
 10
37.0
 20
-30.35
 30
0.0
  0
SEQEND
  5
79F
330
42F
100
AcDbEntity
  8
GUIDE
  0
POLYLINE
  5
435
330
18
100
AcDbEntity
  8
GUIDE
100
AcDb2dPolyline
 66
     1
 10
0.0
 20
0.0
 30
0.0
 70
     1
  0
VERTEX
  5
7A5
330
435
100
AcDbEntity
  8
GUIDE
100
AcDbVertex
100
AcDb2dVertex
 10
30.5
 20
-5.05
 30
0.0
  0
VERTEX
  5
7A6
330
435
100
AcDbEntity
  8
GUIDE
100
AcDbVertex
100
AcDb2dVertex
 10
30.5
 20
-4.25
 30
0.0
  0
VERTEX
  5
7A7
330
435
100
AcDbEntity
  8
GUIDE
100
AcDbVertex
100
AcDb2dVertex
 10
35.5
 20
-4.25
 30
0.0
  0
VERTEX
  5
7A8
330
435
100
AcDbEntity
  8
GUIDE
100
AcDbVertex
100
AcDb2dVertex
 10
35.5
 20
-5.05
 30
0.0
  0
SEQEND
  5
7A4
330
435
100
AcDbEntity
  8
GUIDE
  0
POLYLINE
  5
43B
330
18
100
AcDbEntity
  8
GUIDE
100
AcDb2dPolyline
 66
     1
 10
0.0
 20
0.0
 30
0.0
 70
     1
  0
VERTEX
  5
7AA
330
43B
100
AcDbEntity
  8
GUIDE
100
AcDbVertex
100
AcDb2dVertex
 10
26.2
 20
-20.85
 30
0.0
  0
VERTEX
  5
7AB
330
43B
100
AcDbEntity
  8
GUIDE
100
AcDbVertex
100
AcDb2dVertex
 10
26.2
 20
-14.25
 30
0.0
  0
VERTEX
  5
7AC
330
43B
100
AcDbEntity
  8
GUIDE
100
AcDbVertex
100
AcDb2dVertex
 10
39.8
 20
-14.25
 30
0.0
  0
VERTEX
  5
7AD
330
43B
100
AcDbEntity
  8
GUIDE
100
AcDbVertex
100
AcDb2dVertex
 10
39.8
 20
-20.85
 30
0.0
  0
SEQEND
  5
7A9
330
43B
100
AcDbEntity
  8
GUIDE
  0
POLYLINE
  5
441
330
18
100
AcDbEntity
  8
GUIDE
100
AcDb2dPolyline
 66
     1
 10
0.0
 20
0.0
 30
0.0
 70
     1
  0
VERTEX
  5
7AF
330
441
100
AcDbEntity
  8
GUIDE
100
AcDbVertex
100
AcDb2dVertex
 10
29.0
 20
-14.25
 30
0.0
  0
VERTEX
  5
7B0
330
441
100
AcDbEntity
  8
GUIDE
100
AcDbVertex
100
AcDb2dVertex
 10
29.0
 20
-5.05
 30
0.0
  0
VERTEX
  5
7B1
330
441
100
AcDbEntity
  8
GUIDE
100
AcDbVertex
100
AcDb2dVertex
 10
37.0
 20
-5.05
 30
0.0
  0
VERTEX
  5
7B2
330
441
100
AcDbEntity
  8
GUIDE
100
AcDbVertex
100
AcDb2dVertex
 10
37.0
 20
-14.25
 30
0.0
  0
SEQEND
  5
7AE
330
441
100
AcDbEntity
  8
GUIDE
  0
LINE
  5
447
330
18
100
AcDbEntity
  8
GUIDE
100
AcDbLine
 10
17.0
 20
-21.15
 30
0.0
 11
17.0
 21
-21.45
 31
0.0
  0
LINE
  5
448
330
18
100
AcDbEntity
  8
GUIDE
100
AcDbLine
 10
17.0
 20
-21.45
 30
0.0
 11
25.0
 21
-21.45
 31
0.0
  0
LINE
  5
449
330
18
100
AcDbEntity
  8
GUIDE
100
AcDbLine
 10
25.0
 20
-21.45
 30
0.0
 11
25.0
 21
-21.15
 31
0.0
  0
LINE
  5
44A
330
18
100
AcDbEntity
  8
GUIDE
100
AcDbLine
 10
25.0
 20
-21.15
 30
0.0
 11
17.0
 21
-21.15
 31
0.0
  0
LINE
  5
44B
330
18
100
AcDbEntity
  8
GUIDE
100
AcDbLine
 10
14.2
 20
-5.35
 30
0.0
 11
14.2
 21
-11.95
 31
0.0
  0
LINE
  5
44C
330
18
100
AcDbEntity
  8
GUIDE
100
AcDbLine
 10
14.2
 20
-11.95
 30
0.0
 11
27.8
 21
-11.95
 31
0.0
  0
LINE
  5
44D
330
18
100
AcDbEntity
  8
GUIDE
100
AcDbLine
 10
27.8
 20
-11.95
 30
0.0
 11
27.8
 21
-5.35
 31
0.0
  0
LINE
  5
44E
330
18
100
AcDbEntity
  8
GUIDE
100
AcDbLine
 10
27.8
 20
-5.35
 30
0.0
 11
14.2
 21
-5.35
 31
0.0
  0
LINE
  5
44F
330
18
100
AcDbEntity
  8
GUIDE
100
AcDbLine
 10
17.0
 20
-5.05
 30
0.0
 11
17.0
 21
-5.35
 31
0.0
  0
LINE
  5
450
330
18
100
AcDbEntity
  8
GUIDE
100
AcDbLine
 10
17.0
 20
-5.35
 30
0.0
 11
25.0
 21
-5.35
 31
0.0
  0
LINE
  5
451
330
18
100
AcDbEntity
  8
GUIDE
100
AcDbLine
 10
25.0
 20
-5.35
 30
0.0
 11
25.0
 21
-5.05
 31
0.0
  0
LINE
  5
452
330
18
100
AcDbEntity
  8
GUIDE
100
AcDbLine
 10
25.0
 20
-5.05
 30
0.0
 11
17.0
 21
-5.05
 31
0.0
  0
LINE
  5
453
330
18
100
AcDbEntity
  8
GUIDE
100
AcDbLine
 10
18.5
 20
-4.25
 30
0.0
 11
18.5
 21
-5.05
 31
0.0
  0
LINE
  5
454
330
18
100
AcDbEntity
  8
GUIDE
100
AcDbLine
 10
18.5
 20
-5.05
 30
0.0
 11
23.5
 21
-5.05
 31
0.0
  0
LINE
  5
455
330
18
100
AcDbEntity
  8
GUIDE
100
AcDbLine
 10
23.5
 20
-5.05
 30
0.0
 11
23.5
 21
-4.25
 31
0.0
  0
LINE
  5
456
330
18
100
AcDbEntity
  8
GUIDE
100
AcDbLine
 10
23.5
 20
-4.25
 30
0.0
 11
18.5
 21
-4.25
 31
0.0
  0
LINE
  5
457
330
18
100
AcDbEntity
  8
GUIDE
100
AcDbLine
 10
17.0
 20
-11.95
 30
0.0
 11
17.0
 21
-21.15
 31
0.0
  0
LINE
  5
458
330
18
100
AcDbEntity
  8
GUIDE
100
AcDbLine
 10
17.0
 20
-21.15
 30
0.0
 11
25.0
 21
-21.15
 31
0.0
  0
LINE
  5
459
330
18
100
AcDbEntity
  8
GUIDE
100
AcDbLine
 10
25.0
 20
-21.15
 30
0.0
 11
25.0
 21
-11.95
 31
0.0
  0
LINE
  5
45A
330
18
100
AcDbEntity
  8
GUIDE
100
AcDbLine
 10
25.0
 20
-11.95
 30
0.0
 11
17.0
 21
-11.95
 31
0.0
  0
LINE
  5
45B
330
18
100
AcDbEntity
  8
GUIDE
100
AcDbLine
 10
18.5
 20
-69.45
 30
0.0
 11
18.5
 21
-70.25
 31
0.0
  0
LINE
  5
45C
330
18
100
AcDbEntity
  8
GUIDE
100
AcDbLine
 10
18.5
 20
-70.25
 30
0.0
 11
23.5
 21
-70.25
 31
0.0
  0
LINE
  5
45D
330
18
100
AcDbEntity
  8
GUIDE
100
AcDbLine
 10
23.5
 20
-70.25
 30
0.0
 11
23.5
 21
-69.45
 31
0.0
  0
LINE
  5
45E
330
18
100
AcDbEntity
  8
GUIDE
100
AcDbLine
 10
23.5
 20
-69.45
 30
0.0
 11
18.5
 21
-69.45
 31
0.0
  0
LINE
  5
45F
330
18
100
AcDbEntity
  8
GUIDE
100
AcDbLine
 10
14.2
 20
-21.45
 30
0.0
 11
14.2
 21
-28.05
 31
0.0
  0
LINE
  5
460
330
18
100
AcDbEntity
  8
GUIDE
100
AcDbLine
 10
14.2
 20
-28.05
 30
0.0
 11
27.8
 21
-28.05
 31
0.0
  0
LINE
  5
461
330
18
100
AcDbEntity
  8
GUIDE
100
AcDbLine
 10
27.8
 20
-28.05
 30
0.0
 11
27.8
 21
-21.45
 31
0.0
  0
LINE
  5
462
330
18
100
AcDbEntity
  8
GUIDE
100
AcDbLine
 10
27.8
 20
-21.45
 30
0.0
 11
14.2
 21
-21.45
 31
0.0
  0
LINE
  5
463
330
18
100
AcDbEntity
  8
GUIDE
100
AcDbLine
 10
17.0
 20
-28.05
 30
0.0
 11
17.0
 21
-37.25
 31
0.0
  0
LINE
  5
464
330
18
100
AcDbEntity
  8
GUIDE
100
AcDbLine
 10
17.0
 20
-37.25
 30
0.0
 11
25.0
 21
-37.25
 31
0.0
  0
LINE
  5
465
330
18
100
AcDbEntity
  8
GUIDE
100
AcDbLine
 10
25.0
 20
-37.25
 30
0.0
 11
25.0
 21
-28.05
 31
0.0
  0
LINE
  5
466
330
18
100
AcDbEntity
  8
GUIDE
100
AcDbLine
 10
25.0
 20
-28.05
 30
0.0
 11
17.0
 21
-28.05
 31
0.0
  0
POLYLINE
  5
467
330
18
100
AcDbEntity
  8
GUIDE
100
AcDb2dPolyline
 66
     1
 10
0.0
 20
0.0
 30
0.0
 70
     1
  0
VERTEX
  5
7B4
330
467
100
AcDbEntity
  8
GUIDE
100
AcDbVertex
100
AcDb2dVertex
 10
4.9
 20
-21.15
 30
0.0
  0
VERTEX
  5
7B5
330
467
100
AcDbEntity
  8
GUIDE
100
AcDbVertex
100
AcDb2dVertex
 10
4.9
 20
-20.85
 30
0.0
  0
VERTEX
  5
7B6
330
467
100
AcDbEntity
  8
GUIDE
100
AcDbVertex
100
AcDb2dVertex
 10
12.9
 20
-20.85
 30
0.0
  0
VERTEX
  5
7B7
330
467
100
AcDbEntity
  8
GUIDE
100
AcDbVertex
100
AcDb2dVertex
 10
12.9
 20
-21.15
 30
0.0
  0
SEQEND
  5
7B3
330
467
100
AcDbEntity
  8
GUIDE
  0
POLYLINE
  5
46D
330
18
100
AcDbEntity
  8
GUIDE
100
AcDb2dPolyline
 66
     1
 10
0.0
 20
0.0
 30
0.0
 70
     1
  0
VERTEX
  5
7B9
330
46D
100
AcDbEntity
  8
GUIDE
100
AcDbVertex
100
AcDb2dVertex
 10
2.1
 20
-36.95
 30
0.0
  0
VERTEX
  5
7BA
330
46D
100
AcDbEntity
  8
GUIDE
100
AcDbVertex
100
AcDb2dVertex
 10
2.1
 20
-30.35
 30
0.0
  0
VERTEX
  5
7BB
330
46D
100
AcDbEntity
  8
GUIDE
100
AcDbVertex
100
AcDb2dVertex
 10
15.7
 20
-30.35
 30
0.0
  0
VERTEX
  5
7BC
330
46D
100
AcDbEntity
  8
GUIDE
100
AcDbVertex
100
AcDb2dVertex
 10
15.7
 20
-36.95
 30
0.0
  0
SEQEND
  5
7B8
330
46D
100
AcDbEntity
  8
GUIDE
  0
POLYLINE
  5
473
330
18
100
AcDbEntity
  8
GUIDE
100
AcDb2dPolyline
 66
     1
 10
0.0
 20
0.0
 30
0.0
 70
     1
  0
VERTEX
  5
7BE
330
473
100
AcDbEntity
  8
GUIDE
100
AcDbVertex
100
AcDb2dVertex
 10
4.9
 20
-37.25
 30
0.0
  0
VERTEX
  5
7BF
330
473
100
AcDbEntity
  8
GUIDE
100
AcDbVertex
100
AcDb2dVertex
 10
4.9
 20
-36.95
 30
0.0
  0
VERTEX
  5
7C0
330
473
100
AcDbEntity
  8
GUIDE
100
AcDbVertex
100
AcDb2dVertex
 10
12.9
 20
-36.95
 30
0.0
  0
VERTEX
  5
7C1
330
473
100
AcDbEntity
  8
GUIDE
100
AcDbVertex
100
AcDb2dVertex
 10
12.9
 20
-37.25
 30
0.0
  0
SEQEND
  5
7BD
330
473
100
AcDbEntity
  8
GUIDE
  0
POLYLINE
  5
479
330
18
100
AcDbEntity
  8
GUIDE
100
AcDb2dPolyline
 66
     1
 10
0.0
 20
0.0
 30
0.0
 70
     1
  0
VERTEX
  5
7C3
330
479
100
AcDbEntity
  8
GUIDE
100
AcDbVertex
100
AcDb2dVertex
 10
6.4
 20
-70.25
 30
0.0
  0
VERTEX
  5
7C4
330
479
100
AcDbEntity
  8
GUIDE
100
AcDbVertex
100
AcDb2dVertex
 10
6.4
 20
-69.45
 30
0.0
  0
VERTEX
  5
7C5
330
479
100
AcDbEntity
  8
GUIDE
100
AcDbVertex
100
AcDb2dVertex
 10
11.4
 20
-69.45
 30
0.0
  0
VERTEX
  5
7C6
330
479
100
AcDbEntity
  8
GUIDE
100
AcDbVertex
100
AcDb2dVertex
 10
11.4
 20
-70.25
 30
0.0
  0
SEQEND
  5
7C2
330
479
100
AcDbEntity
  8
GUIDE
  0
POLYLINE
  5
47F
330
18
100
AcDbEntity
  8
GUIDE
100
AcDb2dPolyline
 66
     1
 10
0.0
 20
0.0
 30
0.0
 70
     1
  0
VERTEX
  5
7C8
330
47F
100
AcDbEntity
  8
GUIDE
100
AcDbVertex
100
AcDb2dVertex
 10
4.9
 20
-30.35
 30
0.0
  0
VERTEX
  5
7C9
330
47F
100
AcDbEntity
  8
GUIDE
100
AcDbVertex
100
AcDb2dVertex
 10
4.9
 20
-21.15
 30
0.0
  0
VERTEX
  5
7CA
330
47F
100
AcDbEntity
  8
GUIDE
100
AcDbVertex
100
AcDb2dVertex
 10
12.9
 20
-21.15
 30
0.0
  0
VERTEX
  5
7CB
330
47F
100
AcDbEntity
  8
GUIDE
100
AcDbVertex
100
AcDb2dVertex
 10
12.9
 20
-30.35
 30
0.0
  0
SEQEND
  5
7C7
330
47F
100
AcDbEntity
  8
GUIDE
  0
POLYLINE
  5
485
330
18
100
AcDbEntity
  8
GUIDE
100
AcDb2dPolyline
 66
     1
 10
0.0
 20
0.0
 30
0.0
 70
     1
  0
VERTEX
  5
7CD
330
485
100
AcDbEntity
  8
GUIDE
100
AcDbVertex
100
AcDb2dVertex
 10
6.4
 20
-5.05
 30
0.0
  0
VERTEX
  5
7CE
330
485
100
AcDbEntity
  8
GUIDE
100
AcDbVertex
100
AcDb2dVertex
 10
6.4
 20
-4.25
 30
0.0
  0
VERTEX
  5
7CF
330
485
100
AcDbEntity
  8
GUIDE
100
AcDbVertex
100
AcDb2dVertex
 10
11.4
 20
-4.25
 30
0.0
  0
VERTEX
  5
7D0
330
485
100
AcDbEntity
  8
GUIDE
100
AcDbVertex
100
AcDb2dVertex
 10
11.4
 20
-5.05
 30
0.0
  0
SEQEND
  5
7CC
330
485
100
AcDbEntity
  8
GUIDE
  0
POLYLINE
  5
48B
330
18
100
AcDbEntity
  8
GUIDE
100
AcDb2dPolyline
 66
     1
 10
0.0
 20
0.0
 30
0.0
 70
     1
  0
VERTEX
  5
7D2
330
48B
100
AcDbEntity
  8
GUIDE
100
AcDbVertex
100
AcDb2dVertex
 10
2.1
 20
-20.85
 30
0.0
  0
VERTEX
  5
7D3
330
48B
100
AcDbEntity
  8
GUIDE
100
AcDbVertex
100
AcDb2dVertex
 10
2.1
 20
-14.25
 30
0.0
  0
VERTEX
  5
7D4
330
48B
100
AcDbEntity
  8
GUIDE
100
AcDbVertex
100
AcDb2dVertex
 10
15.7
 20
-14.25
 30
0.0
  0
VERTEX
  5
7D5
330
48B
100
AcDbEntity
  8
GUIDE
100
AcDbVertex
100
AcDb2dVertex
 10
15.7
 20
-20.85
 30
0.0
  0
SEQEND
  5
7D1
330
48B
100
AcDbEntity
  8
GUIDE
  0
POLYLINE
  5
491
330
18
100
AcDbEntity
  8
GUIDE
100
AcDb2dPolyline
 66
     1
 10
0.0
 20
0.0
 30
0.0
 70
     1
  0
VERTEX
  5
7D7
330
491
100
AcDbEntity
  8
GUIDE
100
AcDbVertex
100
AcDb2dVertex
 10
4.9
 20
-14.25
 30
0.0
  0
VERTEX
  5
7D8
330
491
100
AcDbEntity
  8
GUIDE
100
AcDbVertex
100
AcDb2dVertex
 10
4.9
 20
-5.05
 30
0.0
  0
VERTEX
  5
7D9
330
491
100
AcDbEntity
  8
GUIDE
100
AcDbVertex
100
AcDb2dVertex
 10
12.9
 20
-5.05
 30
0.0
  0
VERTEX
  5
7DA
330
491
100
AcDbEntity
  8
GUIDE
100
AcDbVertex
100
AcDb2dVertex
 10
12.9
 20
-14.25
 30
0.0
  0
SEQEND
  5
7D6
330
491
100
AcDbEntity
  8
GUIDE
  0
LINE
  5
497
330
18
100
AcDbEntity
  8
GUIDE
100
AcDbLine
 10
41.1
 20
-21.15
 30
0.0
 11
41.1
 21
-21.45
 31
0.0
  0
LINE
  5
498
330
18
100
AcDbEntity
  8
GUIDE
100
AcDbLine
 10
41.1
 20
-21.45
 30
0.0
 11
49.1
 21
-21.45
 31
0.0
  0
LINE
  5
499
330
18
100
AcDbEntity
  8
GUIDE
100
AcDbLine
 10
49.1
 20
-21.45
 30
0.0
 11
49.1
 21
-21.15
 31
0.0
  0
LINE
  5
49A
330
18
100
AcDbEntity
  8
GUIDE
100
AcDbLine
 10
49.1
 20
-21.15
 30
0.0
 11
41.1
 21
-21.15
 31
0.0
  0
LINE
  5
49B
330
18
100
AcDbEntity
  8
GUIDE
100
AcDbLine
 10
38.3
 20
-5.35
 30
0.0
 11
38.3
 21
-11.95
 31
0.0
  0
LINE
  5
49C
330
18
100
AcDbEntity
  8
GUIDE
100
AcDbLine
 10
38.3
 20
-11.95
 30
0.0
 11
51.9
 21
-11.95
 31
0.0
  0
LINE
  5
49D
330
18
100
AcDbEntity
  8
GUIDE
100
AcDbLine
 10
51.9
 20
-11.95
 30
0.0
 11
51.9
 21
-5.35
 31
0.0
  0
LINE
  5
49E
330
18
100
AcDbEntity
  8
GUIDE
100
AcDbLine
 10
51.9
 20
-5.35
 30
0.0
 11
38.3
 21
-5.35
 31
0.0
  0
LINE
  5
49F
330
18
100
AcDbEntity
  8
GUIDE
100
AcDbLine
 10
41.1
 20
-5.05
 30
0.0
 11
41.1
 21
-5.35
 31
0.0
  0
LINE
  5
4A0
330
18
100
AcDbEntity
  8
GUIDE
100
AcDbLine
 10
41.1
 20
-5.35
 30
0.0
 11
49.1
 21
-5.35
 31
0.0
  0
LINE
  5
4A1
330
18
100
AcDbEntity
  8
GUIDE
100
AcDbLine
 10
49.1
 20
-5.35
 30
0.0
 11
49.1
 21
-5.05
 31
0.0
  0
LINE
  5
4A2
330
18
100
AcDbEntity
  8
GUIDE
100
AcDbLine
 10
49.1
 20
-5.05
 30
0.0
 11
41.1
 21
-5.05
 31
0.0
  0
LINE
  5
4A3
330
18
100
AcDbEntity
  8
GUIDE
100
AcDbLine
 10
42.6
 20
-4.25
 30
0.0
 11
42.6
 21
-5.05
 31
0.0
  0
LINE
  5
4A4
330
18
100
AcDbEntity
  8
GUIDE
100
AcDbLine
 10
42.6
 20
-5.05
 30
0.0
 11
47.6
 21
-5.05
 31
0.0
  0
LINE
  5
4A5
330
18
100
AcDbEntity
  8
GUIDE
100
AcDbLine
 10
47.6
 20
-5.05
 30
0.0
 11
47.6
 21
-4.25
 31
0.0
  0
LINE
  5
4A6
330
18
100
AcDbEntity
  8
GUIDE
100
AcDbLine
 10
47.6
 20
-4.25
 30
0.0
 11
42.6
 21
-4.25
 31
0.0
  0
LINE
  5
4A7
330
18
100
AcDbEntity
  8
GUIDE
100
AcDbLine
 10
41.1
 20
-11.95
 30
0.0
 11
41.1
 21
-21.15
 31
0.0
  0
LINE
  5
4A8
330
18
100
AcDbEntity
  8
GUIDE
100
AcDbLine
 10
41.1
 20
-21.15
 30
0.0
 11
49.1
 21
-21.15
 31
0.0
  0
LINE
  5
4A9
330
18
100
AcDbEntity
  8
GUIDE
100
AcDbLine
 10
49.1
 20
-21.15
 30
0.0
 11
49.1
 21
-11.95
 31
0.0
  0
LINE
  5
4AA
330
18
100
AcDbEntity
  8
GUIDE
100
AcDbLine
 10
49.1
 20
-11.95
 30
0.0
 11
41.1
 21
-11.95
 31
0.0
  0
LINE
  5
4AB
330
18
100
AcDbEntity
  8
GUIDE
100
AcDbLine
 10
42.6
 20
-69.45
 30
0.0
 11
42.6
 21
-70.25
 31
0.0
  0
LINE
  5
4AC
330
18
100
AcDbEntity
  8
GUIDE
100
AcDbLine
 10
42.6
 20
-70.25
 30
0.0
 11
47.6
 21
-70.25
 31
0.0
  0
LINE
  5
4AD
330
18
100
AcDbEntity
  8
GUIDE
100
AcDbLine
 10
47.6
 20
-70.25
 30
0.0
 11
47.6
 21
-69.45
 31
0.0
  0
LINE
  5
4AE
330
18
100
AcDbEntity
  8
GUIDE
100
AcDbLine
 10
47.6
 20
-69.45
 30
0.0
 11
42.6
 21
-69.45
 31
0.0
  0
LINE
  5
4AF
330
18
100
AcDbEntity
  8
GUIDE
100
AcDbLine
 10
38.3
 20
-21.45
 30
0.0
 11
38.3
 21
-28.05
 31
0.0
  0
LINE
  5
4B0
330
18
100
AcDbEntity
  8
GUIDE
100
AcDbLine
 10
38.3
 20
-28.05
 30
0.0
 11
51.9
 21
-28.05
 31
0.0
  0
LINE
  5
4B1
330
18
100
AcDbEntity
  8
GUIDE
100
AcDbLine
 10
51.9
 20
-28.05
 30
0.0
 11
51.9
 21
-21.45
 31
0.0
  0
LINE
  5
4B2
330
18
100
AcDbEntity
  8
GUIDE
100
AcDbLine
 10
51.9
 20
-21.45
 30
0.0
 11
38.3
 21
-21.45
 31
0.0
  0
LINE
  5
4B3
330
18
100
AcDbEntity
  8
GUIDE
100
AcDbLine
 10
41.1
 20
-28.05
 30
0.0
 11
41.1
 21
-37.25
 31
0.0
  0
LINE
  5
4B4
330
18
100
AcDbEntity
  8
GUIDE
100
AcDbLine
 10
41.1
 20
-37.25
 30
0.0
 11
49.1
 21
-37.25
 31
0.0
  0
LINE
  5
4B5
330
18
100
AcDbEntity
  8
GUIDE
100
AcDbLine
 10
49.1
 20
-37.25
 30
0.0
 11
49.1
 21
-28.05
 31
0.0
  0
LINE
  5
4B6
330
18
100
AcDbEntity
  8
GUIDE
100
AcDbLine
 10
49.1
 20
-28.05
 30
0.0
 11
41.1
 21
-28.05
 31
0.0
  0
POLYLINE
  5
4B7
330
18
100
AcDbEntity
  8
GUIDE
100
AcDb2dPolyline
 66
     1
 10
0.0
 20
0.0
 30
0.0
 70
     1
  0
VERTEX
  5
7DC
330
4B7
100
AcDbEntity
  8
GUIDE
100
AcDbVertex
100
AcDb2dVertex
 10
4.9
 20
-53.35
 30
0.0
  0
VERTEX
  5
7DD
330
4B7
100
AcDbEntity
  8
GUIDE
100
AcDbVertex
100
AcDb2dVertex
 10
4.9
 20
-53.05
 30
0.0
  0
VERTEX
  5
7DE
330
4B7
100
AcDbEntity
  8
GUIDE
100
AcDbVertex
100
AcDb2dVertex
 10
12.9
 20
-53.05
 30
0.0
  0
VERTEX
  5
7DF
330
4B7
100
AcDbEntity
  8
GUIDE
100
AcDbVertex
100
AcDb2dVertex
 10
12.9
 20
-53.35
 30
0.0
  0
SEQEND
  5
7DB
330
4B7
100
AcDbEntity
  8
GUIDE
  0
POLYLINE
  5
4BD
330
18
100
AcDbEntity
  8
GUIDE
100
AcDb2dPolyline
 66
     1
 10
0.0
 20
0.0
 30
0.0
 70
     1
  0
VERTEX
  5
7E1
330
4BD
100
AcDbEntity
  8
GUIDE
100
AcDbVertex
100
AcDb2dVertex
 10
29.0
 20
-53.35
 30
0.0
  0
VERTEX
  5
7E2
330
4BD
100
AcDbEntity
  8
GUIDE
100
AcDbVertex
100
AcDb2dVertex
 10
29.0
 20
-53.05
 30
0.0
  0
VERTEX
  5
7E3
330
4BD
100
AcDbEntity
  8
GUIDE
100
AcDbVertex
100
AcDb2dVertex
 10
37.0
 20
-53.05
 30
0.0
  0
VERTEX
  5
7E4
330
4BD
100
AcDbEntity
  8
GUIDE
100
AcDbVertex
100
AcDb2dVertex
 10
37.0
 20
-53.35
 30
0.0
  0
SEQEND
  5
7E0
330
4BD
100
AcDbEntity
  8
GUIDE
  0
POLYLINE
  5
4C3
330
18
100
AcDbEntity
  8
GUIDE
100
AcDb2dPolyline
 66
     1
 10
0.0
 20
0.0
 30
0.0
 70
     1
  0
VERTEX
  5
7E6
330
4C3
100
AcDbEntity
  8
GUIDE
100
AcDbVertex
100
AcDb2dVertex
 10
53.2
 20
-53.35
 30
0.0
  0
VERTEX
  5
7E7
330
4C3
100
AcDbEntity
  8
GUIDE
100
AcDbVertex
100
AcDb2dVertex
 10
53.2
 20
-53.05
 30
0.0
  0
VERTEX
  5
7E8
330
4C3
100
AcDbEntity
  8
GUIDE
100
AcDbVertex
100
AcDb2dVertex
 10
61.2
 20
-53.05
 30
0.0
  0
VERTEX
  5
7E9
330
4C3
100
AcDbEntity
  8
GUIDE
100
AcDbVertex
100
AcDb2dVertex
 10
61.2
 20
-53.35
 30
0.0
  0
SEQEND
  5
7E5
330
4C3
100
AcDbEntity
  8
GUIDE
  0
LINE
  5
4C9
330
18
100
AcDbEntity
  8
GUIDE
100
AcDbLine
 10
49.1
 20
-53.35
 30
0.0
 11
49.1
 21
-44.15
 31
0.0
  0
LINE
  5
4CA
330
18
100
AcDbEntity
  8
GUIDE
100
AcDbLine
 10
41.1
 20
-44.15
 30
0.0
 11
41.1
 21
-53.35
 31
0.0
  0
LINE
  5
4CB
330
18
100
AcDbEntity
  8
GUIDE
100
AcDbLine
 10
25.0
 20
-53.35
 30
0.0
 11
25.0
 21
-44.15
 31
0.0
  0
LINE
  5
4CC
330
18
100
AcDbEntity
  8
GUIDE
100
AcDbLine
 10
17.0
 20
-44.15
 30
0.0
 11
17.0
 21
-53.35
 31
0.0
  0
LINE
  5
4CD
330
18
100
AcDbEntity
  8
GUIDE
100
AcDbLine
 10
73.3
 20
-53.35
 30
0.0
 11
73.3
 21
-44.15
 31
0.0
  0
LINE
  5
4CE
330
18
100
AcDbEntity
  8
GUIDE
100
AcDbLine
 10
65.3
 20
-44.15
 30
0.0
 11
65.3
 21
-53.35
 31
0.0
  0
POLYLINE
  5
4CF
330
18
100
AcDbEntity
  8
GUIDE
100
AcDb2dPolyline
 66
     1
 10
0.0
 20
0.0
 30
0.0
 70
     1
  0
VERTEX
  5
7EB
330
4CF
100
AcDbEntity
  8
GUIDE
100
AcDbVertex
100
AcDb2dVertex
 10
26.2
 20
-69.15000000000001
 30
0.0
  0
VERTEX
  5
7EC
330
4CF
100
AcDbEntity
  8
GUIDE
100
AcDbVertex
100
AcDb2dVertex
 10
26.2
 20
-62.55
 30
0.0
  0
VERTEX
  5
7ED
330
4CF
100
AcDbEntity
  8
GUIDE
100
AcDbVertex
100
AcDb2dVertex
 10
39.8
 20
-62.55
 30
0.0
  0
VERTEX
  5
7EE
330
4CF
100
AcDbEntity
  8
GUIDE
100
AcDbVertex
100
AcDb2dVertex
 10
39.8
 20
-69.15000000000001
 30
0.0
  0
SEQEND
  5
7EA
330
4CF
100
AcDbEntity
  8
GUIDE
  0
POLYLINE
  5
4D5
330
18
100
AcDbEntity
  8
GUIDE
100
AcDb2dPolyline
 66
     1
 10
0.0
 20
0.0
 30
0.0
 70
     1
  0
VERTEX
  5
7F0
330
4D5
100
AcDbEntity
  8
GUIDE
100
AcDbVertex
100
AcDb2dVertex
 10
2.1
 20
-69.15000000000001
 30
0.0
  0
VERTEX
  5
7F1
330
4D5
100
AcDbEntity
  8
GUIDE
100
AcDbVertex
100
AcDb2dVertex
 10
2.1
 20
-62.55
 30
0.0
  0
VERTEX
  5
7F2
330
4D5
100
AcDbEntity
  8
GUIDE
100
AcDbVertex
100
AcDb2dVertex
 10
15.7
 20
-62.55
 30
0.0
  0
VERTEX
  5
7F3
330
4D5
100
AcDbEntity
  8
GUIDE
100
AcDbVertex
100
AcDb2dVertex
 10
15.7
 20
-69.15000000000001
 30
0.0
  0
SEQEND
  5
7EF
330
4D5
100
AcDbEntity
  8
GUIDE
  0
LINE
  5
4DB
330
18
100
AcDbEntity
  8
GUIDE
100
AcDbLine
 10
25.0
 20
-69.45
 30
0.0
 11
25.0
 21
-60.25
 31
0.0
  0
LINE
  5
4DC
330
18
100
AcDbEntity
  8
GUIDE
100
AcDbLine
 10
17.0
 20
-60.25
 30
0.0
 11
17.0
 21
-69.45
 31
0.0
  0
POLYLINE
  5
4DD
330
18
100
AcDbEntity
  8
GUIDE
100
AcDb2dPolyline
 66
     1
 10
0.0
 20
0.0
 30
0.0
 70
     1
  0
VERTEX
  5
7F5
330
4DD
100
AcDbEntity
  8
GUIDE
100
AcDbVertex
100
AcDb2dVertex
 10
4.9
 20
-69.45
 30
0.0
  0
VERTEX
  5
7F6
330
4DD
100
AcDbEntity
  8
GUIDE
100
AcDbVertex
100
AcDb2dVertex
 10
4.9
 20
-69.15000000000001
 30
0.0
  0
VERTEX
  5
7F7
330
4DD
100
AcDbEntity
  8
GUIDE
100
AcDbVertex
100
AcDb2dVertex
 10
12.9
 20
-69.15000000000001
 30
0.0
  0
VERTEX
  5
7F8
330
4DD
100
AcDbEntity
  8
GUIDE
100
AcDbVertex
100
AcDb2dVertex
 10
12.9
 20
-69.45
 30
0.0
  0
SEQEND
  5
7F4
330
4DD
100
AcDbEntity
  8
GUIDE
  0
LINE
  5
4E3
330
18
100
AcDbEntity
  8
GUIDE
100
AcDbLine
 10
17.0
 20
-69.45
 30
0.0
 11
25.0
 21
-69.45
 31
0.0
  0
POLYLINE
  5
4E4
330
18
100
AcDbEntity
  8
GUIDE
100
AcDb2dPolyline
 66
     1
 10
0.0
 20
0.0
 30
0.0
 70
     1
  0
VERTEX
  5
7FA
330
4E4
100
AcDbEntity
  8
GUIDE
100
AcDbVertex
100
AcDb2dVertex
 10
4.9
 20
-62.55
 30
0.0
  0
VERTEX
  5
7FB
330
4E4
100
AcDbEntity
  8
GUIDE
100
AcDbVertex
100
AcDb2dVertex
 10
4.9
 20
-53.35
 30
0.0
  0
VERTEX
  5
7FC
330
4E4
100
AcDbEntity
  8
GUIDE
100
AcDbVertex
100
AcDb2dVertex
 10
12.9
 20
-53.35
 30
0.0
  0
VERTEX
  5
7FD
330
4E4
100
AcDbEntity
  8
GUIDE
100
AcDbVertex
100
AcDb2dVertex
 10
12.9
 20
-62.55
 30
0.0
  0
SEQEND
  5
7F9
330
4E4
100
AcDbEntity
  8
GUIDE
  0
LINE
  5
4EA
330
18
100
AcDbEntity
  8
GUIDE
100
AcDbLine
 10
27.8
 20
-53.65
 30
0.0
 11
14.2
 21
-53.65
 31
0.0
  0
LINE
  5
4EB
330
18
100
AcDbEntity
  8
GUIDE
100
AcDbLine
 10
14.2
 20
-60.25
 30
0.0
 11
27.8
 21
-60.25
 31
0.0
  0
LINE
  5
4EC
330
18
100
AcDbEntity
  8
GUIDE
100
AcDbLine
 10
14.2
 20
-53.65
 30
0.0
 11
14.2
 21
-60.25
 31
0.0
  0
LINE
  5
4ED
330
18
100
AcDbEntity
  8
GUIDE
100
AcDbLine
 10
27.8
 20
-60.25
 30
0.0
 11
27.8
 21
-53.65
 31
0.0
  0
LINE
  5
4EE
330
18
100
AcDbEntity
  8
GUIDE
100
AcDbLine
 10
25.0
 20
-60.25
 30
0.0
 11
17.0
 21
-60.25
 31
0.0
  0
LINE
  5
4EF
330
18
100
AcDbEntity
  8
GUIDE
100
AcDbLine
 10
17.0
 20
-53.35
 30
0.0
 11
25.0
 21
-53.35
 31
0.0
  0
LINE
  5
4F0
330
18
100
AcDbEntity
  8
GUIDE
100
AcDbLine
 10
25.0
 20
-53.35
 30
0.0
 11
17.0
 21
-53.35
 31
0.0
  0
LINE
  5
4F1
330
18
100
AcDbEntity
  8
GUIDE
100
AcDbLine
 10
17.0
 20
-53.65
 30
0.0
 11
25.0
 21
-53.65
 31
0.0
  0
LINE
  5
4F2
330
18
100
AcDbEntity
  8
GUIDE
100
AcDbLine
 10
17.0
 20
-53.35
 30
0.0
 11
17.0
 21
-53.65
 31
0.0
  0
LINE
  5
4F3
330
18
100
AcDbEntity
  8
GUIDE
100
AcDbLine
 10
25.0
 20
-53.65
 30
0.0
 11
25.0
 21
-53.35
 31
0.0
  0
POLYLINE
  5
4F4
330
18
100
AcDbEntity
  8
GUIDE
100
AcDb2dPolyline
 66
     1
 10
0.0
 20
0.0
 30
0.0
 70
     1
  0
VERTEX
  5
7FF
330
4F4
100
AcDbEntity
  8
GUIDE
100
AcDbVertex
100
AcDb2dVertex
 10
50.4
 20
-69.15000000000001
 30
0.0
  0
VERTEX
  5
800
330
4F4
100
AcDbEntity
  8
GUIDE
100
AcDbVertex
100
AcDb2dVertex
 10
50.4
 20
-62.55
 30
0.0
  0
VERTEX
  5
801
330
4F4
100
AcDbEntity
  8
GUIDE
100
AcDbVertex
100
AcDb2dVertex
 10
64.0
 20
-62.55
 30
0.0
  0
VERTEX
  5
802
330
4F4
100
AcDbEntity
  8
GUIDE
100
AcDbVertex
100
AcDb2dVertex
 10
64.0
 20
-69.15000000000001
 30
0.0
  0
SEQEND
  5
7FE
330
4F4
100
AcDbEntity
  8
GUIDE
  0
LINE
  5
4FA
330
18
100
AcDbEntity
  8
GUIDE
100
AcDbLine
 10
49.1
 20
-69.45
 30
0.0
 11
49.1
 21
-60.25
 31
0.0
  0
LINE
  5
4FB
330
18
100
AcDbEntity
  8
GUIDE
100
AcDbLine
 10
41.1
 20
-60.25
 30
0.0
 11
41.1
 21
-69.45
 31
0.0
  0
LINE
  5
4FC
330
18
100
AcDbEntity
  8
GUIDE
100
AcDbLine
 10
73.3
 20
-69.45
 30
0.0
 11
73.3
 21
-60.25
 31
0.0
  0
LINE
  5
4FD
330
18
100
AcDbEntity
  8
GUIDE
100
AcDbLine
 10
65.3
 20
-60.25
 30
0.0
 11
65.3
 21
-69.45
 31
0.0
  0
POLYLINE
  5
4FE
330
18
100
AcDbEntity
  8
GUIDE
100
AcDb2dPolyline
 66
     1
 10
0.0
 20
0.0
 30
0.0
 70
     1
  0
VERTEX
  5
804
330
4FE
100
AcDbEntity
  8
GUIDE
100
AcDbVertex
100
AcDb2dVertex
 10
29.0
 20
-69.45
 30
0.0
  0
VERTEX
  5
805
330
4FE
100
AcDbEntity
  8
GUIDE
100
AcDbVertex
100
AcDb2dVertex
 10
29.0
 20
-69.15000000000001
 30
0.0
  0
VERTEX
  5
806
330
4FE
100
AcDbEntity
  8
GUIDE
100
AcDbVertex
100
AcDb2dVertex
 10
37.0
 20
-69.15000000000001
 30
0.0
  0
VERTEX
  5
807
330
4FE
100
AcDbEntity
  8
GUIDE
100
AcDbVertex
100
AcDb2dVertex
 10
37.0
 20
-69.45
 30
0.0
  0
SEQEND
  5
803
330
4FE
100
AcDbEntity
  8
GUIDE
  0
LINE
  5
504
330
18
100
AcDbEntity
  8
GUIDE
100
AcDbLine
 10
41.1
 20
-69.45
 30
0.0
 11
49.1
 21
-69.45
 31
0.0
  0
POLYLINE
  5
505
330
18
100
AcDbEntity
  8
GUIDE
100
AcDb2dPolyline
 66
     1
 10
0.0
 20
0.0
 30
0.0
 70
     1
  0
VERTEX
  5
809
330
505
100
AcDbEntity
  8
GUIDE
100
AcDbVertex
100
AcDb2dVertex
 10
53.2
 20
-69.45
 30
0.0
  0
VERTEX
  5
80A
330
505
100
AcDbEntity
  8
GUIDE
100
AcDbVertex
100
AcDb2dVertex
 10
53.2
 20
-69.15000000000001
 30
0.0
  0
VERTEX
  5
80B
330
505
100
AcDbEntity
  8
GUIDE
100
AcDbVertex
100
AcDb2dVertex
 10
61.2
 20
-69.15000000000001
 30
0.0
  0
VERTEX
  5
80C
330
505
100
AcDbEntity
  8
GUIDE
100
AcDbVertex
100
AcDb2dVertex
 10
61.2
 20
-69.45
 30
0.0
  0
SEQEND
  5
808
330
505
100
AcDbEntity
  8
GUIDE
  0
LINE
  5
50B
330
18
100
AcDbEntity
  8
GUIDE
100
AcDbLine
 10
65.3
 20
-69.45
 30
0.0
 11
73.3
 21
-69.45
 31
0.0
  0
POLYLINE
  5
50C
330
18
100
AcDbEntity
  8
GUIDE
100
AcDb2dPolyline
 66
     1
 10
0.0
 20
0.0
 30
0.0
 70
     1
  0
VERTEX
  5
80E
330
50C
100
AcDbEntity
  8
GUIDE
100
AcDbVertex
100
AcDb2dVertex
 10
29.0
 20
-62.55
 30
0.0
  0
VERTEX
  5
80F
330
50C
100
AcDbEntity
  8
GUIDE
100
AcDbVertex
100
AcDb2dVertex
 10
29.0
 20
-53.35
 30
0.0
  0
VERTEX
  5
810
330
50C
100
AcDbEntity
  8
GUIDE
100
AcDbVertex
100
AcDb2dVertex
 10
37.0
 20
-53.35
 30
0.0
  0
VERTEX
  5
811
330
50C
100
AcDbEntity
  8
GUIDE
100
AcDbVertex
100
AcDb2dVertex
 10
37.0
 20
-62.55
 30
0.0
  0
SEQEND
  5
80D
330
50C
100
AcDbEntity
  8
GUIDE
  0
LINE
  5
512
330
18
100
AcDbEntity
  8
GUIDE
100
AcDbLine
 10
51.9
 20
-53.65
 30
0.0
 11
38.3
 21
-53.65
 31
0.0
  0
LINE
  5
513
330
18
100
AcDbEntity
  8
GUIDE
100
AcDbLine
 10
38.3
 20
-60.25
 30
0.0
 11
51.9
 21
-60.25
 31
0.0
  0
LINE
  5
514
330
18
100
AcDbEntity
  8
GUIDE
100
AcDbLine
 10
38.3
 20
-53.65
 30
0.0
 11
38.3
 21
-60.25
 31
0.0
  0
LINE
  5
515
330
18
100
AcDbEntity
  8
GUIDE
100
AcDbLine
 10
51.9
 20
-60.25
 30
0.0
 11
51.9
 21
-53.65
 31
0.0
  0
LINE
  5
516
330
18
100
AcDbEntity
  8
GUIDE
100
AcDbLine
 10
49.1
 20
-60.25
 30
0.0
 11
41.1
 21
-60.25
 31
0.0
  0
LINE
  5
517
330
18
100
AcDbEntity
  8
GUIDE
100
AcDbLine
 10
41.1
 20
-53.35
 30
0.0
 11
49.1
 21
-53.35
 31
0.0
  0
LINE
  5
518
330
18
100
AcDbEntity
  8
GUIDE
100
AcDbLine
 10
49.1
 20
-53.35
 30
0.0
 11
41.1
 21
-53.35
 31
0.0
  0
LINE
  5
519
330
18
100
AcDbEntity
  8
GUIDE
100
AcDbLine
 10
41.1
 20
-53.65
 30
0.0
 11
49.1
 21
-53.65
 31
0.0
  0
LINE
  5
51A
330
18
100
AcDbEntity
  8
GUIDE
100
AcDbLine
 10
41.1
 20
-53.35
 30
0.0
 11
41.1
 21
-53.65
 31
0.0
  0
LINE
  5
51B
330
18
100
AcDbEntity
  8
GUIDE
100
AcDbLine
 10
49.1
 20
-53.65
 30
0.0
 11
49.1
 21
-53.35
 31
0.0
  0
POLYLINE
  5
51C
330
18
100
AcDbEntity
  8
GUIDE
100
AcDb2dPolyline
 66
     1
 10
0.0
 20
0.0
 30
0.0
 70
     1
  0
VERTEX
  5
813
330
51C
100
AcDbEntity
  8
GUIDE
100
AcDbVertex
100
AcDb2dVertex
 10
53.2
 20
-62.55
 30
0.0
  0
VERTEX
  5
814
330
51C
100
AcDbEntity
  8
GUIDE
100
AcDbVertex
100
AcDb2dVertex
 10
53.2
 20
-53.35
 30
0.0
  0
VERTEX
  5
815
330
51C
100
AcDbEntity
  8
GUIDE
100
AcDbVertex
100
AcDb2dVertex
 10
61.2
 20
-53.35
 30
0.0
  0
VERTEX
  5
816
330
51C
100
AcDbEntity
  8
GUIDE
100
AcDbVertex
100
AcDb2dVertex
 10
61.2
 20
-62.55
 30
0.0
  0
SEQEND
  5
812
330
51C
100
AcDbEntity
  8
GUIDE
  0
LINE
  5
522
330
18
100
AcDbEntity
  8
GUIDE
100
AcDbLine
 10
76.09999999999999
 20
-53.65
 30
0.0
 11
62.5
 21
-53.65
 31
0.0
  0
LINE
  5
523
330
18
100
AcDbEntity
  8
GUIDE
100
AcDbLine
 10
62.5
 20
-60.25
 30
0.0
 11
76.09999999999999
 21
-60.25
 31
0.0
  0
LINE
  5
524
330
18
100
AcDbEntity
  8
GUIDE
100
AcDbLine
 10
62.5
 20
-53.65
 30
0.0
 11
62.5
 21
-60.25
 31
0.0
  0
LINE
  5
525
330
18
100
AcDbEntity
  8
GUIDE
100
AcDbLine
 10
76.09999999999999
 20
-60.25
 30
0.0
 11
76.09999999999999
 21
-53.65
 31
0.0
  0
LINE
  5
526
330
18
100
AcDbEntity
  8
GUIDE
100
AcDbLine
 10
73.3
 20
-60.25
 30
0.0
 11
65.3
 21
-60.25
 31
0.0
  0
LINE
  5
527
330
18
100
AcDbEntity
  8
GUIDE
100
AcDbLine
 10
65.3
 20
-53.35
 30
0.0
 11
73.3
 21
-53.35
 31
0.0
  0
LINE
  5
528
330
18
100
AcDbEntity
  8
GUIDE
100
AcDbLine
 10
73.3
 20
-53.35
 30
0.0
 11
65.3
 21
-53.35
 31
0.0
  0
LINE
  5
529
330
18
100
AcDbEntity
  8
GUIDE
100
AcDbLine
 10
65.3
 20
-53.65
 30
0.0
 11
73.3
 21
-53.65
 31
0.0
  0
LINE
  5
52A
330
18
100
AcDbEntity
  8
GUIDE
100
AcDbLine
 10
65.3
 20
-53.35
 30
0.0
 11
65.3
 21
-53.65
 31
0.0
  0
LINE
  5
52B
330
18
100
AcDbEntity
  8
GUIDE
100
AcDbLine
 10
73.3
 20
-53.65
 30
0.0
 11
73.3
 21
-53.35
 31
0.0
  0
POLYLINE
  5
52C
330
18
100
AcDbEntity
  8
GUIDE
100
AcDb2dPolyline
 66
     1
 10
0.0
 20
0.0
 30
0.0
 70
     1
  0
VERTEX
  5
818
330
52C
100
AcDbEntity
  8
GUIDE
100
AcDbVertex
100
AcDb2dVertex
 10
26.2
 20
-53.05
 30
0.0
  0
VERTEX
  5
819
330
52C
100
AcDbEntity
  8
GUIDE
100
AcDbVertex
100
AcDb2dVertex
 10
26.2
 20
-46.45
 30
0.0
  0
VERTEX
  5
81A
330
52C
100
AcDbEntity
  8
GUIDE
100
AcDbVertex
100
AcDb2dVertex
 10
39.8
 20
-46.45
 30
0.0
  0
VERTEX
  5
81B
330
52C
100
AcDbEntity
  8
GUIDE
100
AcDbVertex
100
AcDb2dVertex
 10
39.8
 20
-53.05
 30
0.0
  0
SEQEND
  5
817
330
52C
100
AcDbEntity
  8
GUIDE
  0
POLYLINE
  5
532
330
18
100
AcDbEntity
  8
GUIDE
100
AcDb2dPolyline
 66
     1
 10
0.0
 20
0.0
 30
0.0
 70
     1
  0
VERTEX
  5
81D
330
532
100
AcDbEntity
  8
GUIDE
100
AcDbVertex
100
AcDb2dVertex
 10
4.9
 20
-46.45
 30
0.0
  0
VERTEX
  5
81E
330
532
100
AcDbEntity
  8
GUIDE
100
AcDbVertex
100
AcDb2dVertex
 10
4.9
 20
-37.25
 30
0.0
  0
VERTEX
  5
81F
330
532
100
AcDbEntity
  8
GUIDE
100
AcDbVertex
100
AcDb2dVertex
 10
12.9
 20
-37.25
 30
0.0
  0
VERTEX
  5
820
330
532
100
AcDbEntity
  8
GUIDE
100
AcDbVertex
100
AcDb2dVertex
 10
12.9
 20
-46.45
 30
0.0
  0
SEQEND
  5
81C
330
532
100
AcDbEntity
  8
GUIDE
  0
LINE
  5
538
330
18
100
AcDbEntity
  8
GUIDE
100
AcDbLine
 10
27.8
 20
-44.15
 30
0.0
 11
27.8
 21
-37.55
 31
0.0
  0
LINE
  5
539
330
18
100
AcDbEntity
  8
GUIDE
100
AcDbLine
 10
14.2
 20
-37.55
 30
0.0
 11
14.2
 21
-44.15
 31
0.0
  0
POLYLINE
  5
53A
330
18
100
AcDbEntity
  8
GUIDE
100
AcDb2dPolyline
 66
     1
 10
0.0
 20
0.0
 30
0.0
 70
     1
  0
VERTEX
  5
822
330
53A
100
AcDbEntity
  8
GUIDE
100
AcDbVertex
100
AcDb2dVertex
 10
2.1
 20
-53.05
 30
0.0
  0
VERTEX
  5
823
330
53A
100
AcDbEntity
  8
GUIDE
100
AcDbVertex
100
AcDb2dVertex
 10
2.1
 20
-46.45
 30
0.0
  0
VERTEX
  5
824
330
53A
100
AcDbEntity
  8
GUIDE
100
AcDbVertex
100
AcDb2dVertex
 10
15.7
 20
-46.45
 30
0.0
  0
VERTEX
  5
825
330
53A
100
AcDbEntity
  8
GUIDE
100
AcDbVertex
100
AcDb2dVertex
 10
15.7
 20
-53.05
 30
0.0
  0
SEQEND
  5
821
330
53A
100
AcDbEntity
  8
GUIDE
  0
LINE
  5
540
330
18
100
AcDbEntity
  8
GUIDE
100
AcDbLine
 10
14.2
 20
-44.15
 30
0.0
 11
27.8
 21
-44.15
 31
0.0
  0
LINE
  5
541
330
18
100
AcDbEntity
  8
GUIDE
100
AcDbLine
 10
25.0
 20
-44.15
 30
0.0
 11
17.0
 21
-44.15
 31
0.0
  0
LINE
  5
542
330
18
100
AcDbEntity
  8
GUIDE
100
AcDbLine
 10
27.8
 20
-37.55
 30
0.0
 11
14.2
 21
-37.55
 31
0.0
  0
LINE
  5
543
330
18
100
AcDbEntity
  8
GUIDE
100
AcDbLine
 10
18.5
 20
-37.25
 30
0.0
 11
23.5
 21
-37.25
 31
0.0
  0
LINE
  5
544
330
18
100
AcDbEntity
  8
GUIDE
100
AcDbLine
 10
25.0
 20
-37.25
 30
0.0
 11
17.0
 21
-37.25
 31
0.0
  0
LINE
  5
545
330
18
100
AcDbEntity
  8
GUIDE
100
AcDbLine
 10
17.0
 20
-37.55
 30
0.0
 11
25.0
 21
-37.55
 31
0.0
  0
LINE
  5
546
330
18
100
AcDbEntity
  8
GUIDE
100
AcDbLine
 10
17.0
 20
-37.25
 30
0.0
 11
17.0
 21
-37.55
 31
0.0
  0
LINE
  5
547
330
18
100
AcDbEntity
  8
GUIDE
100
AcDbLine
 10
25.0
 20
-37.55
 30
0.0
 11
25.0
 21
-37.25
 31
0.0
  0
POLYLINE
  5
548
330
18
100
AcDbEntity
  8
GUIDE
100
AcDb2dPolyline
 66
     1
 10
0.0
 20
0.0
 30
0.0
 70
     1
  0
VERTEX
  5
827
330
548
100
AcDbEntity
  8
GUIDE
100
AcDbVertex
100
AcDb2dVertex
 10
29.0
 20
-46.45
 30
0.0
  0
VERTEX
  5
828
330
548
100
AcDbEntity
  8
GUIDE
100
AcDbVertex
100
AcDb2dVertex
 10
29.0
 20
-37.25
 30
0.0
  0
VERTEX
  5
829
330
548
100
AcDbEntity
  8
GUIDE
100
AcDbVertex
100
AcDb2dVertex
 10
37.0
 20
-37.25
 30
0.0
  0
VERTEX
  5
82A
330
548
100
AcDbEntity
  8
GUIDE
100
AcDbVertex
100
AcDb2dVertex
 10
37.0
 20
-46.45
 30
0.0
  0
SEQEND
  5
826
330
548
100
AcDbEntity
  8
GUIDE
  0
POLYLINE
  5
54E
330
18
100
AcDbEntity
  8
GUIDE
100
AcDb2dPolyline
 66
     1
 10
0.0
 20
0.0
 30
0.0
 70
     1
  0
VERTEX
  5
82C
330
54E
100
AcDbEntity
  8
GUIDE
100
AcDbVertex
100
AcDb2dVertex
 10
53.2
 20
-46.45
 30
0.0
  0
VERTEX
  5
82D
330
54E
100
AcDbEntity
  8
GUIDE
100
AcDbVertex
100
AcDb2dVertex
 10
53.2
 20
-37.25
 30
0.0
  0
VERTEX
  5
82E
330
54E
100
AcDbEntity
  8
GUIDE
100
AcDbVertex
100
AcDb2dVertex
 10
61.2
 20
-37.25
 30
0.0
  0
VERTEX
  5
82F
330
54E
100
AcDbEntity
  8
GUIDE
100
AcDbVertex
100
AcDb2dVertex
 10
61.2
 20
-46.45
 30
0.0
  0
SEQEND
  5
82B
330
54E
100
AcDbEntity
  8
GUIDE
  0
LINE
  5
554
330
18
100
AcDbEntity
  8
GUIDE
100
AcDbLine
 10
51.9
 20
-44.15
 30
0.0
 11
51.9
 21
-37.55
 31
0.0
  0
LINE
  5
555
330
18
100
AcDbEntity
  8
GUIDE
100
AcDbLine
 10
38.3
 20
-37.55
 30
0.0
 11
38.3
 21
-44.15
 31
0.0
  0
LINE
  5
556
330
18
100
AcDbEntity
  8
GUIDE
100
AcDbLine
 10
76.09999999999999
 20
-44.15
 30
0.0
 11
76.09999999999999
 21
-37.55
 31
0.0
  0
LINE
  5
557
330
18
100
AcDbEntity
  8
GUIDE
100
AcDbLine
 10
62.5
 20
-37.55
 30
0.0
 11
62.5
 21
-44.15
 31
0.0
  0
POLYLINE
  5
558
330
18
100
AcDbEntity
  8
GUIDE
100
AcDb2dPolyline
 66
     1
 10
0.0
 20
0.0
 30
0.0
 70
     1
  0
VERTEX
  5
831
330
558
100
AcDbEntity
  8
GUIDE
100
AcDbVertex
100
AcDb2dVertex
 10
50.4
 20
-53.05
 30
0.0
  0
VERTEX
  5
832
330
558
100
AcDbEntity
  8
GUIDE
100
AcDbVertex
100
AcDb2dVertex
 10
50.4
 20
-46.45
 30
0.0
  0
VERTEX
  5
833
330
558
100
AcDbEntity
  8
GUIDE
100
AcDbVertex
100
AcDb2dVertex
 10
64.0
 20
-46.45
 30
0.0
  0
VERTEX
  5
834
330
558
100
AcDbEntity
  8
GUIDE
100
AcDbVertex
100
AcDb2dVertex
 10
64.0
 20
-53.05
 30
0.0
  0
SEQEND
  5
830
330
558
100
AcDbEntity
  8
GUIDE
  0
LINE
  5
55E
330
18
100
AcDbEntity
  8
GUIDE
100
AcDbLine
 10
38.3
 20
-44.15
 30
0.0
 11
51.9
 21
-44.15
 31
0.0
  0
LINE
  5
55F
330
18
100
AcDbEntity
  8
GUIDE
100
AcDbLine
 10
49.1
 20
-44.15
 30
0.0
 11
41.1
 21
-44.15
 31
0.0
  0
LINE
  5
560
330
18
100
AcDbEntity
  8
GUIDE
100
AcDbLine
 10
62.5
 20
-44.15
 30
0.0
 11
76.09999999999999
 21
-44.15
 31
0.0
  0
LINE
  5
561
330
18
100
AcDbEntity
  8
GUIDE
100
AcDbLine
 10
73.3
 20
-44.15
 30
0.0
 11
65.3
 21
-44.15
 31
0.0
  0
LINE
  5
562
330
18
100
AcDbEntity
  8
GUIDE
100
AcDbLine
 10
51.9
 20
-37.55
 30
0.0
 11
38.3
 21
-37.55
 31
0.0
  0
LINE
  5
563
330
18
100
AcDbEntity
  8
GUIDE
100
AcDbLine
 10
42.6
 20
-37.25
 30
0.0
 11
47.6
 21
-37.25
 31
0.0
  0
LINE
  5
564
330
18
100
AcDbEntity
  8
GUIDE
100
AcDbLine
 10
49.1
 20
-37.25
 30
0.0
 11
41.1
 21
-37.25
 31
0.0
  0
LINE
  5
565
330
18
100
AcDbEntity
  8
GUIDE
100
AcDbLine
 10
41.1
 20
-37.55
 30
0.0
 11
49.1
 21
-37.55
 31
0.0
  0
LINE
  5
566
330
18
100
AcDbEntity
  8
GUIDE
100
AcDbLine
 10
41.1
 20
-37.25
 30
0.0
 11
41.1
 21
-37.55
 31
0.0
  0
LINE
  5
567
330
18
100
AcDbEntity
  8
GUIDE
100
AcDbLine
 10
49.1
 20
-37.55
 30
0.0
 11
49.1
 21
-37.25
 31
0.0
  0
LINE
  5
568
330
18
100
AcDbEntity
  8
GUIDE
100
AcDbLine
 10
76.09999999999999
 20
-37.55
 30
0.0
 11
62.5
 21
-37.55
 31
0.0
  0
LINE
  5
569
330
18
100
AcDbEntity
  8
GUIDE
100
AcDbLine
 10
66.8
 20
-37.25
 30
0.0
 11
71.8
 21
-37.25
 31
0.0
  0
LINE
  5
56A
330
18
100
AcDbEntity
  8
GUIDE
100
AcDbLine
 10
73.3
 20
-37.25
 30
0.0
 11
65.3
 21
-37.25
 31
0.0
  0
LINE
  5
56B
330
18
100
AcDbEntity
  8
GUIDE
100
AcDbLine
 10
65.3
 20
-37.55
 30
0.0
 11
73.3
 21
-37.55
 31
0.0
  0
LINE
  5
56C
330
18
100
AcDbEntity
  8
GUIDE
100
AcDbLine
 10
65.3
 20
-37.25
 30
0.0
 11
65.3
 21
-37.55
 31
0.0
  0
LINE
  5
56D
330
18
100
AcDbEntity
  8
GUIDE
100
AcDbLine
 10
73.3
 20
-37.55
 30
0.0
 11
73.3
 21
-37.25
 31
0.0
  0
ENDSEC
  0
SECTION
  2
OBJECTS
  0
DICTIONARY
  5
C
330
0
100
AcDbDictionary
  3
ACAD_GROUP
350
D
  3
ACAD_LAYOUT
350
56F
  3
ACAD_MLINESTYLE
350
E
1001
ACAD
1000
TREAT_AS_HARD
1070
     0
  0
DICTIONARY
  5
835
330
56E
100
AcDbDictionary
  3
ACAD_XREC_ROUNDTRIP
360
836
  0
DICTIONARY
  5
D
102
{ACAD_REACTORS
330
C
102
}
330
C
100
AcDbDictionary
1001
ACAD
1000
TREAT_AS_HARD
1070
     0
  0
DICTIONARY
  5
56F
102
{ACAD_REACTORS
330
C
102
}
330
C
100
AcDbDictionary
1001
ACAD
1000
TREAT_AS_HARD
1070
     0
  0
DICTIONARY
  5
E
102
{ACAD_REACTORS
330
C
102
}
330
C
100
AcDbDictionary
  3
STANDARD
350
1B
1001
ACAD
1000
TREAT_AS_HARD
1070
     0
  0
XRECORD
  5
836
102
{ACAD_REACTORS
330
835
102
}
330
835
100
AcDbXrecord
102
UCS
 74
     0
 71
     1
 10
0.0
 20
0.0
 30
0.0
 10
1.0
 20
0.0
 30
0.0
 10
0.0
 20
1.0
 30
0.0
146
0.0
 79
     0
102
VIEW
281
     0
  0
MLINESTYLE
  5
1B
102
{ACAD_REACTORS
330
E
102
}
330
E
100
AcDbMlineStyle
  2
STANDARD
 70
     0
  3

 62
     0
 51
90.0
 52
90.0
 71
     2
 49
0.5
 62
   256
  6
BYLAYER
 49
-0.5
 62
   256
  6
BYLAYER
  0
ENDSEC
  0
EOF
