  0
SECTION
  2
HEADER
  9
$ACADVER
  1
AC1009
  9
$DWGCODEPAGE
  3
ansi_1252
  9
$INSBASE
 10
0.0
 20
0.0
 30
0.0
  9
$EXTMIN
 10
-89.80032
 20
-130.36069
 30
0.0
  9
$EXTMAX
 10
89.80032
 20
130.36069
 30
0.0
  9
$LIMMIN
 10
0.0
 20
0.0
  9
$LIMMAX
 10
12.0
 20
9.0
  9
$ORTHOMODE
 70
     0
  9
$REGENMODE
 70
     1
  9
$FILLMODE
 70
     1
  9
$QTEXTMODE
 70
     0
  9
$MIRRTEXT
 70
     1
  9
$DRAGMODE
 70
     2
  9
$LTSCALE
 40
0.94629
  9
$OSMODE
 70
    37
  9
$ATTMODE
 70
     1
  9
$TEXTSIZE
 40
0.2
  9
$TRACEWID
 40
0.05
  9
$TEXTSTYLE
  7
STANDARD
  9
$CLAYER
  8
0
  9
$CELTYPE
  6
BYBLOCK
  9
$CECOLOR
 62
   256
  9
$DIMSCALE
 40
1.0
  9
$DIMASZ
 40
0.18
  9
$DIMEXO
 40
0.0625
  9
$DIMDLI
 40
0.38
  9
$DIMRND
 40
0.0
  9
$DIMDLE
 40
0.0
  9
$DIMEXE
 40
0.18
  9
$DIMTP
 40
0.0
  9
$DIMTM
 40
0.0
  9
$DIMTXT
 40
0.18
  9
$DIMCEN
 40
0.09
  9
$DIMTSZ
 40
0.0
  9
$DIMTOL
 70
     0
  9
$DIMLIM
 70
     0
  9
$DIMTIH
 70
     1
  9
$DIMTOH
 70
     1
  9
$DIMSE1
 70
     0
  9
$DIMSE2
 70
     0
  9
$DIMTAD
 70
     0
  9
$DIMZIN
 70
     0
  9
$DIMBLK
  1

  9
$DIMASO
 70
     1
  9
$DIMSHO
 70
     1
  9
$DIMPOST
  1

  9
$DIMAPOST
  1

  9
$DIMALT
 70
     0
  9
$DIMALTD
 70
     2
  9
$DIMALTF
 40
25.4
  9
$DIMLFAC
 40
1.0
  9
$DIMTOFL
 70
     0
  9
$DIMTVP
 40
0.0
  9
$DIMTIX
 70
     0
  9
$DIMSOXD
 70
     0
  9
$DIMSAH
 70
     0
  9
$DIMBLK1
  1

  9
$DIMBLK2
  1

  9
$DIMSTYLE
  2
STANDARD
  9
$DIMCLRD
 70
     0
  9
$DIMCLRE
 70
     0
  9
$DIMCLRT
 70
     0
  9
$DIMTFAC
 40
1.0
  9
$DIMGAP
 40
0.09
  9
$LUNITS
 70
     2
  9
$LUPREC
 70
     4
  9
$SKETCHINC
 40
0.1
  9
$FILLETRAD
 40
0.5
  9
$AUNITS
 70
     0
  9
$AUPREC
 70
     0
  9
$MENU
  1
.
  9
$ELEVATION
 40
0.0
  9
$PELEVATION
 40
0.0
  9
$THICKNESS
 40
0.0
  9
$LIMCHECK
 70
     0
  9
$CHAMFERA
 40
0.5
  9
$CHAMFERB
 40
0.5
  9
$SKPOLY
 70
     0
  9
$TDCREATE
 40
2453619.4960911
  9
$TDUPDATE
 40
2453619.496091111
  9
$TDINDWG
 40
0.0000000116
  9
$TDUSRTIMER
 40
0.0000000116
  9
$USRTIMER
 70
     1
  9
$ANGBASE
 50
0.0
  9
$ANGDIR
 70
     0
  9
$PDMODE
 70
     0
  9
$PDSIZE
 40
0.0
  9
$PLINEWID
 40
0.0
  9
$COORDS
 70
     1
  9
$SPLFRAME
 70
     0
  9
$SPLINETYPE
 70
     6
  9
$SPLINESEGS
 70
     8
  9
$ATTDIA
 70
     0
  9
$ATTREQ
 70
     1
  9
$HANDLING
 70
     1
  9
$HANDSEED
  5
30B
  9
$SURFTAB1
 70
     6
  9
$SURFTAB2
 70
     6
  9
$SURFTYPE
 70
     6
  9
$SURFU
 70
     6
  9
$SURFV
 70
     6
  9
$UCSNAME
  2

  9
$UCSORG
 10
0.0
 20
0.0
 30
0.0
  9
$UCSXDIR
 10
1.0
 20
0.0
 30
0.0
  9
$UCSYDIR
 10
0.0
 20
1.0
 30
0.0
  9
$PUCSNAME
  2

  9
$PUCSORG
 10
0.0
 20
0.0
 30
0.0
  9
$PUCSXDIR
 10
1.0
 20
0.0
 30
0.0
  9
$PUCSYDIR
 10
0.0
 20
1.0
 30
0.0
  9
$USERI1
 70
     0
  9
$USERI2
 70
     0
  9
$USERI3
 70
     0
  9
$USERI4
 70
     0
  9
$USERI5
 70
     0
  9
$USERR1
 40
0.0
  9
$USERR2
 40
0.0
  9
$USERR3
 40
0.0
  9
$USERR4
 40
0.0
  9
$USERR5
 40
0.0
  9
$WORLDVIEW
 70
     1
  9
$SHADEDGE
 70
     3
  9
$SHADEDIF
 70
    70
  9
$TILEMODE
 70
     1
  9
$MAXACTVP
 70
    64
  9
$PLIMCHECK
 70
     0
  9
$PEXTMIN
 10
1.000000000000000E+20
 20
1.000000000000000E+20
 30
1.000000000000000E+20
  9
$PEXTMAX
 10
-1.000000000000000E+20
 20
-1.000000000000000E+20
 30
-1.000000000000000E+20
  9
$PLIMMIN
 10
0.0
 20
0.0
  9
$PLIMMAX
 10
12.0
 20
9.0
  9
$UNITMODE
 70
     0
  9
$VISRETAIN
 70
     1
  9
$PLINEGEN
 70
     0
  9
$PSLTSCALE
 70
     1
  0
ENDSEC
  0
SECTION
  2
TABLES
  0
TABLE
  2
VPORT
 70
     1
  0
VPORT
  2
*ACTIVE
 70
     0
 10
0.0
 20
0.0
 11
1.0
 21
1.0
 12
10.42990654205607
 22
4.5
 13
0.0
 23
0.0
 14
0.5
 24
0.5
 15
0.5
 25
0.5
 16
0.0
 26
0.0
 36
1.0
 17
0.0
 27
0.0
 37
0.0
 40
9.0
 41
1.972972972850329
 42
50.0
 43
0.0
 44
0.0
 50
0.0
 51
0.0
 71
     0
 72
   100
 73
     1
 74
     3
 75
     0
 76
     0
 77
     0
 78
     0
  0
ENDTAB
  0
TABLE
  2
LTYPE
 70
     9
  0
LTYPE
  2
CONTINUOUS
 70
     0
  3
Solid Line
 72
    65
 73
     0
 40
0.0
  0
LTYPE
  2
MCDASH1
 70
     0
  3
MiniCad+ Generated
 72
    65
 73
     4
 40
1.056912
 49
0.528262
 49
-0.264325
 49
0.0
 49
-0.264325
  0
LTYPE
  2
MCDASH2
 70
     0
  3
MiniCad+ Generated
 72
    65
 73
     2
 40
3.527692
 49
2.469229
 49
-1.058463
  0
LTYPE
  2
MCDASH3
 70
     0
  3
MiniCad+ Generated
 72
    65
 73
     2
 40
6.35
 49
5.291537
 49
-1.058463
  0
LTYPE
  2
MCDASH4
 70
     0
  3
MiniCad+ Generated
 72
    65
 73
     2
 40
7.760767
 49
6.702692
 49
-1.058075
  0
LTYPE
  2
MCDASH5
 70
     0
  3
MiniCad+ Generated
 72
    65
 73
     2
 40
1.058075
 49
0.352692
 49
-0.705383
  0
LTYPE
  2
MCDASH6
 70
     0
  3
MiniCad+ Generated
 72
    65
 73
     4
 40
5.291538
 49
3.175
 49
-1.058075
 49
0.352692
 49
-0.705771
  0
LTYPE
  2
MCDASH7
 70
     0
  3
MiniCad+ Generated
 72
    65
 73
     6
 40
9.525001
 49
3.175
 49
-1.058075
 49
3.175
 49
-1.058463
 49
0.352692
 49
-0.705771
  0
LTYPE
  2
MCDASH8
 70
     0
  3
MiniCad+ Generated
 72
    65
 73
     6
 40
6.350001000000001
 49
3.175
 49
-1.058075
 49
0.352692
 49
-0.705771
 49
0.352692
 49
-0.705771
  0
ENDTAB
  0
TABLE
  2
LAYER
 70
     3
  0
LAYER
  2
0
 70
     0
 62
     7
  6
CONTINUOUS
  0
LAYER
  2
GUIDE
 70
     0
 62
     7
  6
CONTINUOUS
  0
LAYER
  2
AXIS
 70
     0
 62
     1
  6
CONTINUOUS
  0
ENDTAB
  0
TABLE
  2
STYLE
 70
     1
  0
STYLE
  2
STANDARD
 70
     0
 40
0.0
 41
1.0
 50
0.0
 71
     0
 42
0.2
  3
txt
  4

  0
ENDTAB
  0
TABLE
  2
VIEW
 70
     0
  0
ENDTAB
  0
TABLE
  2
UCS
 70
     0
  0
ENDTAB
  0
TABLE
  2
APPID
 70
     1
  0
APPID
  2
ACAD
 70
     0
  0
ENDTAB
  0
TABLE
  2
DIMSTYLE
 70
     1
  0
DIMSTYLE
  2
STANDARD
 70
     0
  3

  4

  5

  6

  7

 40
1.0
 41
0.18
 42
0.0625
 43
0.38
 44
0.18
 45
0.0
 46
0.0
 47
0.0
 48
0.0
140
0.18
141
0.09
142
0.0
143
25.4
144
1.0
145
0.0
146
1.0
147
0.09
 71
     0
 72
     0
 73
     1
 74
     1
 75
     0
 76
     0
 77
     0
 78
     0
170
     0
171
     2
172
     0
173
     0
174
     0
175
     0
176
     0
177
     0
178
     0
  0
ENDTAB
  0
ENDSEC
  0
SECTION
  2
BLOCKS
  0
BLOCK
  8
0
  2
$MODEL_SPACE
 70
     0
 10
0.0
 20
0.0
 30
0.0
  3
$MODEL_SPACE
  1

  0
ENDBLK
  5
306
  8
0
  0
BLOCK
 67
     1
  8
0
  2
$PAPER_SPACE
 70
     0
 10
0.0
 20
0.0
 30
0.0
  3
$PAPER_SPACE
  1

  0
ENDBLK
  5
304
 67
     1
  8
0
  0
BLOCK
  8
0
  2
$ARROW1$
 70
     0
 10
0.0
 20
0.0
 30
0.0
  3
$ARROW1$
  1

  0
SOLID
  5
2F
  8
0
 62
     0
 10
-25.4
 20
4.318
 30
0.0
 11
-25.4
 21
-4.318
 31
0.0
 12
0.0
 22
0.0
 32
0.0
 13
0.0
 23
0.0
 33
0.0
  0
ENDBLK
  5
2D5
  8
0
  0
BLOCK
  8
0
  2
$ARROW2$
 70
     0
 10
0.0
 20
0.0
 30
0.0
  3
$ARROW2$
  1

  0
SOLID
  5
33
  8
0
 62
     0
 10
-25.4
 20
12.7
 30
0.0
 11
-25.4
 21
-12.7
 31
0.0
 12
0.0
 22
0.0
 32
0.0
 13
0.0
 23
0.0
 33
0.0
  0
ENDBLK
  5
2D7
  8
0
  0
BLOCK
  8
0
  2
$ARROW3$
 70
     0
 10
0.0
 20
0.0
 30
0.0
  3
$ARROW3$
  1

  0
POLYLINE
  5
37
  8
0
  6
BYBLOCK
 62
     0
 66
     1
 10
0.0
 20
0.0
 30
0.0
 70
     1
 40
0.5
 41
0.5
  0
VERTEX
  5
279
  8
0
  6
BYBLOCK
 62
     0
 10
-6.35
 20
0.0
 30
0.0
 42
1.0
  0
VERTEX
  5
27A
  8
0
  6
BYBLOCK
 62
     0
 10
6.35
 20
0.0
 30
0.0
 42
1.0
  0
SEQEND
  5
2D8
  8
0
  6
BYBLOCK
 62
     0
  0
ENDBLK
  5
2DA
  8
0
  0
BLOCK
  8
0
  2
$ARROW4$
 70
     0
 10
0.0
 20
0.0
 30
0.0
  3
$ARROW4$
  1

  0
LINE
  5
3E
  8
0
  6
BYBLOCK
 62
     0
 10
12.7
 20
12.7
 30
0.0
 11
-12.7
 21
-12.7
 31
0.0
  0
ENDBLK
  5
2DC
  8
0
  0
BLOCK
  8
0
  2
$ARROW5$
 70
     0
 10
0.0
 20
0.0
 30
0.0
  3
$ARROW5$
  1

  0
LINE
  5
42
  8
0
  6
BYBLOCK
 62
     0
 10
12.7
 20
12.7
 30
0.0
 11
-12.7
 21
-12.7
 31
0.0
  0
LINE
  5
43
  8
0
  6
BYBLOCK
 62
     0
 10
-12.7
 20
12.7
 30
0.0
 11
12.7
 21
-12.7
 31
0.0
  0
ENDBLK
  5
2DE
  8
0
  0
BLOCK
  8
0
  2
A$CE185
 70
     0
 10
0.0
 20
0.0
 30
0.0
  3
A$CE185
  1

  0
POLYLINE
  5
47
  8
0
 62
     1
 66
     1
 10
0.0
 20
0.0
 30
0.0
 70
     1
  0
VERTEX
  5
27C
  8
0
 62
     1
 10
0.06402
 20
9.2586
 30
0.0
  0
VERTEX
  5
27D
  8
0
 62
     1
 10
0.06402
 20
9.5586
 30
0.0
  0
VERTEX
  5
27E
  8
0
 62
     1
 10
8.064019999999999
 20
9.5586
 30
0.0
  0
VERTEX
  5
27F
  8
0
 62
     1
 10
8.064019999999999
 20
9.2586
 30
0.0
  0
SEQEND
  5
2DF
  8
0
 62
     1
  0
POLYLINE
  5
4D
  8
0
 62
     1
 66
     1
 10
0.0
 20
0.0
 30
0.0
 70
     1
  0
VERTEX
  5
281
  8
0
 62
     1
 10
-2.73598
 20
-6.54141
 30
0.0
  0
VERTEX
  5
282
  8
0
 62
     1
 10
-2.73598
 20
0.0586
 30
0.0
  0
VERTEX
  5
283
  8
0
 62
     1
 10
10.86402
 20
0.0586
 30
0.0
  0
VERTEX
  5
284
  8
0
 62
     1
 10
10.86402
 20
-6.54141
 30
0.0
  0
SEQEND
  5
2E0
  8
0
 62
     1
  0
POLYLINE
  5
53
  8
0
 62
     1
 66
     1
 10
0.0
 20
0.0
 30
0.0
 70
     1
  0
VERTEX
  5
286
  8
0
 62
     1
 10
0.06402
 20
-6.84141
 30
0.0
  0
VERTEX
  5
287
  8
0
 62
     1
 10
0.06402
 20
-6.54141
 30
0.0
  0
VERTEX
  5
288
  8
0
 62
     1
 10
8.064019999999999
 20
-6.54141
 30
0.0
  0
VERTEX
  5
289
  8
0
 62
     1
 10
8.064019999999999
 20
-6.84141
 30
0.0
  0
SEQEND
  5
2E1
  8
0
 62
     1
  0
POLYLINE
  5
59
  8
0
 62
     1
 66
     1
 10
0.0
 20
0.0
 30
0.0
 70
     1
  0
VERTEX
  5
28B
  8
0
 62
     1
 10
1.56402
 20
-7.64141
 30
0.0
  0
VERTEX
  5
28C
  8
0
 62
     1
 10
1.56402
 20
-6.84141
 30
0.0
  0
VERTEX
  5
28D
  8
0
 62
     1
 10
6.56402
 20
-6.84141
 30
0.0
  0
VERTEX
  5
28E
  8
0
 62
     1
 10
6.56402
 20
-7.64141
 30
0.0
  0
SEQEND
  5
2E2
  8
0
 62
     1
  0
POLYLINE
  5
5F
  8
0
 62
     1
 66
     1
 10
0.0
 20
0.0
 30
0.0
 70
     1
  0
VERTEX
  5
290
  8
0
 62
     1
 10
0.06402
 20
0.0586
 30
0.0
  0
VERTEX
  5
291
  8
0
 62
     1
 10
0.06402
 20
9.2586
 30
0.0
  0
VERTEX
  5
292
  8
0
 62
     1
 10
8.064019999999999
 20
9.2586
 30
0.0
  0
VERTEX
  5
293
  8
0
 62
     1
 10
8.064019999999999
 20
0.0586
 30
0.0
  0
SEQEND
  5
2E3
  8
0
 62
     1
  0
POLYLINE
  5
65
  8
0
 62
     1
 66
     1
 10
0.0
 20
0.0
 30
0.0
 70
     1
  0
VERTEX
  5
295
  8
0
 62
     1
 10
1.56402
 20
25.3586
 30
0.0
  0
VERTEX
  5
296
  8
0
 62
     1
 10
1.56402
 20
26.1586
 30
0.0
  0
VERTEX
  5
297
  8
0
 62
     1
 10
6.56402
 20
26.1586
 30
0.0
  0
VERTEX
  5
298
  8
0
 62
     1
 10
6.56402
 20
25.3586
 30
0.0
  0
SEQEND
  5
2E4
  8
0
 62
     1
  0
POLYLINE
  5
6B
  8
0
 62
     1
 66
     1
 10
0.0
 20
0.0
 30
0.0
 70
     1
  0
VERTEX
  5
29A
  8
0
 62
     1
 10
-2.73598
 20
9.5586
 30
0.0
  0
VERTEX
  5
29B
  8
0
 62
     1
 10
-2.73598
 20
16.15859
 30
0.0
  0
VERTEX
  5
29C
  8
0
 62
     1
 10
10.86402
 20
16.15859
 30
0.0
  0
VERTEX
  5
29D
  8
0
 62
     1
 10
10.86402
 20
9.5586
 30
0.0
  0
SEQEND
  5
2E5
  8
0
 62
     1
  0
POLYLINE
  5
71
  8
0
 62
     1
 66
     1
 10
0.0
 20
0.0
 30
0.0
 70
     1
  0
VERTEX
  5
29F
  8
0
 62
     1
 10
0.06402
 20
16.15859
 30
0.0
  0
VERTEX
  5
2A0
  8
0
 62
     1
 10
0.06402
 20
25.3586
 30
0.0
  0
VERTEX
  5
2A1
  8
0
 62
     1
 10
8.064019999999999
 20
25.3586
 30
0.0
  0
VERTEX
  5
2A2
  8
0
 62
     1
 10
8.064019999999999
 20
16.15859
 30
0.0
  0
SEQEND
  5
2E6
  8
0
 62
     1
  0
ENDBLK
  5
2E8
  8
0
  0
ENDSEC
  0
SECTION
  2
ENTITIES
  0
LINE
  5
78
  8
GUIDE
 10
9.79968
 20
-46.73222
 30
0.0
 11
9.79968
 21
-73.93222
 31
0.0
  0
LINE
  5
79
  8
GUIDE
 10
12.79968
 20
-58.83222
 30
0.0
 11
12.79968
 21
-61.83222
 31
0.0
  0
LINE
  5
7A
  8
GUIDE
 10
-63.34027
 20
-54.33222
 30
0.0
 11
-63.34027
 21
-56.33222
 31
0.0
  0
LINE
  5
7B
  8
GUIDE
 10
-16.66037
 20
-54.33222
 30
0.0
 11
-16.66037
 21
-56.33222
 31
0.0
  0
LINE
  5
7C
  8
GUIDE
 10
-86.70032000000001
 20
-73.93222
 30
0.0
 11
9.79968
 21
-73.93222
 31
0.0
  0
LINE
  5
7D
  8
GUIDE
 10
-86.70032000000001
 20
-46.73222
 30
0.0
 11
9.79968
 21
-46.73222
 31
0.0
  0
LINE
  5
7E
  8
GUIDE
 10
-63.34027
 20
-54.33222
 30
0.0
 11
-16.66037
 21
-54.33222
 31
0.0
  0
LINE
  5
7F
  8
GUIDE
 10
-63.34027
 20
-66.33222000000001
 30
0.0
 11
-16.66037
 21
-66.33222000000001
 31
0.0
  0
LINE
  5
80
  8
GUIDE
 10
-63.34027
 20
-56.33222
 30
0.0
 11
-16.66037
 21
-56.33222
 31
0.0
  0
LINE
  5
81
  8
GUIDE
 10
-63.34027
 20
-64.33222000000001
 30
0.0
 11
-16.66037
 21
-64.33222000000001
 31
0.0
  0
LINE
  5
82
  8
GUIDE
 10
-63.34027
 20
-64.33222000000001
 30
0.0
 11
-63.34027
 21
-66.33222000000001
 31
0.0
  0
LINE
  5
83
  8
GUIDE
 10
-16.66037
 20
-64.33222000000001
 30
0.0
 11
-16.66037
 21
-66.33222000000001
 31
0.0
  0
LINE
  5
84
  8
GUIDE
 10
-43.50032
 20
-56.33222
 30
0.0
 11
-43.50032
 21
-64.33222000000001
 31
0.0
  0
LINE
  5
85
  8
GUIDE
 10
-36.50032
 20
-56.33222
 30
0.0
 11
-36.50032
 21
-64.33222000000001
 31
0.0
  0
LINE
  5
86
  8
GUIDE
 10
9.79968
 20
-61.83222
 30
0.0
 11
12.79968
 21
-61.83222
 31
0.0
  0
LINE
  5
87
  8
GUIDE
 10
9.79968
 20
-58.83222
 30
0.0
 11
12.79968
 21
-58.83222
 31
0.0
  0
ARC
  5
88
  8
GUIDE
 10
2.79968
 20
-50.53222
 30
0.0
 40
6.8
 50
33.974487
 51
146.025528
  0
ARC
  5
89
  8
GUIDE
 10
2.79968
 20
-70.13222
 30
0.0
 40
6.8
 50
213.974487
 51
326.025528
  0
ARC
  5
8A
  8
GUIDE
 10
-69.70032000000001
 20
-50.53222
 30
0.0
 40
6.8
 50
33.974487
 51
146.025528
  0
ARC
  5
8B
  8
GUIDE
 10
-57.70032
 20
-50.53222
 30
0.0
 40
6.8
 50
33.974487
 51
146.025528
  0
ARC
  5
8C
  8
GUIDE
 10
-45.60032
 20
-50.53222
 30
0.0
 40
6.8
 50
33.974487
 51
146.025528
  0
ARC
  5
8D
  8
GUIDE
 10
-33.50032
 20
-50.53222
 30
0.0
 40
6.8
 50
33.974487
 51
146.025528
  0
ARC
  5
8E
  8
GUIDE
 10
-21.40032
 20
-50.53222
 30
0.0
 40
6.8
 50
33.974487
 51
146.025528
  0
ARC
  5
8F
  8
GUIDE
 10
-9.300319999999999
 20
-50.53222
 30
0.0
 40
6.8
 50
33.974487
 51
146.025528
  0
ARC
  5
90
  8
GUIDE
 10
-9.300319999999999
 20
-70.13222
 30
0.0
 40
6.8
 50
213.974487
 51
326.025528
  0
ARC
  5
91
  8
GUIDE
 10
-21.40032
 20
-70.13222
 30
0.0
 40
6.8
 50
213.974487
 51
326.025528
  0
ARC
  5
92
  8
GUIDE
 10
-33.50032
 20
-70.13222
 30
0.0
 40
6.8
 50
213.974487
 51
326.025528
  0
ARC
  5
93
  8
GUIDE
 10
-45.60032
 20
-70.13222
 30
0.0
 40
6.8
 50
213.974487
 51
326.025528
  0
ARC
  5
94
  8
GUIDE
 10
-57.70032
 20
-70.13222
 30
0.0
 40
6.8
 50
213.974487
 51
326.025528
  0
ARC
  5
95
  8
GUIDE
 10
-69.70032000000001
 20
-70.13222
 30
0.0
 40
6.8
 50
213.974487
 51
326.025528
  0
ARC
  5
96
  8
GUIDE
 10
-81.80032
 20
-50.53222
 30
0.0
 40
6.8
 50
33.974472
 51
223.896927
  0
ARC
  5
97
  8
GUIDE
 10
-81.80032
 20
-70.13222
 30
0.0
 40
6.8
 50
136.103073
 51
326.025528
  0
LINE
  5
98
  8
GUIDE
 10
-45.00032
 20
-54.33222
 30
0.0
 11
-35.00032
 21
-54.33222
 31
0.0
  0
ARC
  5
99
  8
GUIDE
 10
-40.00032
 20
-64.74366000000001
 30
0.0
 40
3.5
 50
206.992554
 51
333.007431
  0
ARC
  5
9A
  8
GUIDE
 10
-40.00032
 20
-62.18815
 30
0.0
 40
9.095050000000001
 50
59.741226
 51
120.258774
  0
INSERT
  5
9B
  8
GUIDE
  2
A$CE185
 10
-85.86434
 20
-5.97638
 30
0.0
  0
INSERT
  5
9C
  8
GUIDE
  2
A$CE185
 10
-73.76434
 20
12.54081
 30
0.0
 42
-1.0
  0
INSERT
  5
9D
  8
GUIDE
  2
A$CE185
 10
-61.76434
 20
-5.97638
 30
0.0
  0
INSERT
  5
9E
  8
GUIDE
  2
A$CE185
 10
-49.66434
 20
12.54081
 30
0.0
 42
-1.0
  0
INSERT
  5
9F
  8
GUIDE
  2
A$CE185
 10
-25.46434
 20
12.54081
 30
0.0
 42
-1.0
  0
INSERT
  5
A0
  8
GUIDE
  2
A$CE185
 10
-37.56434
 20
-5.97638
 30
0.0
  0
LINE
  5
A1
  8
GUIDE
 10
-86.70032000000001
 20
20.18222
 30
0.0
 11
9.79968
 21
20.18222
 31
0.0
  0
LINE
  5
A2
  8
GUIDE
 10
-86.70032000000001
 20
-13.61778
 30
0.0
 11
9.79968
 21
-13.61778
 31
0.0
  0
LINE
  5
A3
  8
GUIDE
 10
-89.80032
 20
24.43222
 30
0.0
 11
9.79968
 21
24.43222
 31
0.0
  0
LINE
  5
A4
  8
GUIDE
 10
-89.80032
 20
-17.86778
 30
0.0
 11
9.79968
 21
-17.86778
 31
0.0
  0
LINE
  5
A5
  8
GUIDE
 10
9.79968
 20
24.43222
 30
0.0
 11
9.79968
 21
20.18222
 31
0.0
  0
LINE
  5
A6
  8
GUIDE
 10
-89.80032
 20
-17.86778
 30
0.0
 11
-89.80032
 21
24.43222
 31
0.0
  0
LINE
  5
A7
  8
GUIDE
 10
9.79968
 20
-13.61778
 30
0.0
 11
9.79968
 21
-17.86778
 31
0.0
  0
LINE
  5
A8
  8
GUIDE
 10
-80.80032
 20
20.18222
 30
0.0
 11
-80.80032
 21
24.43222
 31
0.0
  0
LINE
  5
A9
  8
GUIDE
 10
-82.80032
 20
20.18222
 30
0.0
 11
-82.80032
 21
24.43222
 31
0.0
  0
LINE
  5
AA
  8
GUIDE
 10
-70.70032000000001
 20
20.18222
 30
0.0
 11
-70.70032000000001
 21
24.43222
 31
0.0
  0
LINE
  5
AB
  8
GUIDE
 10
-68.70032000000001
 20
20.18222
 30
0.0
 11
-68.70032000000001
 21
24.43222
 31
0.0
  0
LINE
  5
AC
  8
GUIDE
 10
-58.70032
 20
20.18222
 30
0.0
 11
-58.70032
 21
24.43222
 31
0.0
  0
LINE
  5
AD
  8
GUIDE
 10
-56.70032
 20
20.18222
 30
0.0
 11
-56.70032
 21
24.43222
 31
0.0
  0
LINE
  5
AE
  8
GUIDE
 10
-46.60032
 20
20.18222
 30
0.0
 11
-46.60032
 21
24.43222
 31
0.0
  0
LINE
  5
AF
  8
GUIDE
 10
-44.60032
 20
20.18222
 30
0.0
 11
-44.60032
 21
24.43222
 31
0.0
  0
LINE
  5
B0
  8
GUIDE
 10
-34.50032
 20
20.18222
 30
0.0
 11
-34.50032
 21
24.43222
 31
0.0
  0
LINE
  5
B1
  8
GUIDE
 10
-32.50032
 20
20.18222
 30
0.0
 11
-32.50032
 21
24.43222
 31
0.0
  0
LINE
  5
B2
  8
GUIDE
 10
-22.40032
 20
20.18222
 30
0.0
 11
-22.40032
 21
24.43222
 31
0.0
  0
LINE
  5
B3
  8
GUIDE
 10
-20.40032
 20
20.18222
 30
0.0
 11
-20.40032
 21
24.43222
 31
0.0
  0
LINE
  5
B4
  8
GUIDE
 10
-22.40032
 20
-17.86778
 30
0.0
 11
-22.40032
 21
-13.61778
 31
0.0
  0
LINE
  5
B5
  8
GUIDE
 10
-20.40032
 20
-17.86778
 30
0.0
 11
-20.40032
 21
-13.61778
 31
0.0
  0
LINE
  5
B6
  8
GUIDE
 10
-34.50032
 20
-13.61778
 30
0.0
 11
-34.50032
 21
-17.86778
 31
0.0
  0
LINE
  5
B7
  8
GUIDE
 10
-32.50032
 20
-13.61778
 30
0.0
 11
-32.50032
 21
-17.86778
 31
0.0
  0
LINE
  5
B8
  8
GUIDE
 10
-44.60032
 20
-13.61778
 30
0.0
 11
-44.60032
 21
-17.86778
 31
0.0
  0
LINE
  5
B9
  8
GUIDE
 10
-46.60032
 20
-13.61778
 30
0.0
 11
-46.60032
 21
-17.86778
 31
0.0
  0
LINE
  5
BA
  8
GUIDE
 10
-58.70032
 20
-17.86778
 30
0.0
 11
-58.70032
 21
-13.61778
 31
0.0
  0
LINE
  5
BB
  8
GUIDE
 10
-56.70032
 20
-17.86778
 30
0.0
 11
-56.70032
 21
-13.61778
 31
0.0
  0
LINE
  5
BC
  8
GUIDE
 10
-68.70032000000001
 20
-13.61778
 30
0.0
 11
-68.70032000000001
 21
-17.86778
 31
0.0
  0
LINE
  5
BD
  8
GUIDE
 10
-70.70032000000001
 20
-13.61778
 30
0.0
 11
-70.70032000000001
 21
-17.86778
 31
0.0
  0
LINE
  5
BE
  8
GUIDE
 10
-80.80032
 20
-13.61778
 30
0.0
 11
-80.80032
 21
-17.86778
 31
0.0
  0
LINE
  5
BF
  8
GUIDE
 10
-82.80032
 20
-13.61778
 30
0.0
 11
-82.80032
 21
-17.86778
 31
0.0
  0
LINE
  5
C0
  8
GUIDE
 10
-86.70032000000001
 20
20.18222
 30
0.0
 11
-86.70032000000001
 21
24.43222
 31
0.0
  0
LINE
  5
C1
  8
GUIDE
 10
-86.70032000000001
 20
-13.61778
 30
0.0
 11
-86.70032000000001
 21
-17.86778
 31
0.0
  0
LINE
  5
C2
  8
GUIDE
 10
9.29968
 20
19.68222
 30
0.0
 11
12.79968
 21
19.68222
 31
0.0
  0
LINE
  5
C3
  8
GUIDE
 10
12.79968
 20
19.68222
 30
0.0
 11
12.79968
 21
-13.11778
 31
0.0
  0
ARC
  5
C4
  8
GUIDE
 10
9.197329999999999
 20
20.31227
 30
0.0
 40
0.63831
 50
191.755997
 51
279.227081
  0
LINE
  5
C5
  8
GUIDE
 10
9.29968
 20
-13.11778
 30
0.0
 11
12.79968
 21
-13.11778
 31
0.0
  0
ARC
  5
C6
  8
GUIDE
 10
9.197329999999999
 20
-13.74783
 30
0.0
 40
0.63831
 50
80.772919
 51
168.244003
  0
LINE
  5
C7
  8
GUIDE
 10
-8.300319999999999
 20
20.18222
 30
0.0
 11
-8.300319999999999
 21
24.43222
 31
0.0
  0
LINE
  5
C8
  8
GUIDE
 10
-10.30032
 20
20.18222
 30
0.0
 11
-10.30032
 21
24.43222
 31
0.0
  0
LINE
  5
C9
  8
GUIDE
 10
3.79968
 20
20.18222
 30
0.0
 11
3.79968
 21
24.43222
 31
0.0
  0
LINE
  5
CA
  8
GUIDE
 10
1.79968
 20
20.18222
 30
0.0
 11
1.79968
 21
24.43222
 31
0.0
  0
INSERT
  5
CB
  8
GUIDE
  2
A$CE185
 10
-13.36434
 20
-5.97638
 30
0.0
  0
INSERT
  5
CC
  8
GUIDE
  2
A$CE185
 10
-1.26434
 20
12.54081
 30
0.0
 42
-1.0
  0
LINE
  5
CD
  8
GUIDE
 10
-8.300319999999999
 20
-13.61778
 30
0.0
 11
-8.300319999999999
 21
-17.86778
 31
0.0
  0
LINE
  5
CE
  8
GUIDE
 10
-10.30032
 20
-13.61778
 30
0.0
 11
-10.30032
 21
-17.86778
 31
0.0
  0
LINE
  5
CF
  8
GUIDE
 10
3.79968
 20
-17.86778
 30
0.0
 11
3.79968
 21
-13.61778
 31
0.0
  0
LINE
  5
D0
  8
GUIDE
 10
1.79968
 20
-17.86778
 30
0.0
 11
1.79968
 21
-13.61778
 31
0.0
  0
CIRCLE
  5
D1
  8
GUIDE
 10
-40.00032
 20
70.93222
 30
0.0
 40
3.5
  0
LINE
  5
D2
  8
GUIDE
 10
-60.60377
 20
26.20275
 30
0.0
 11
-45.77956
 21
72.54481
 31
0.0
  0
ARC
  5
D3
  8
GUIDE
 10
-63.34027
 20
27.43222
 30
0.0
 40
3.0
 50
270.0
 51
335.806305
  0
ARC
  5
D4
  8
GUIDE
 10
-16.66037
 20
27.43222
 30
0.0
 40
3.0
 50
204.193695
 51
270.0
  0
ARC
  5
D5
  8
GUIDE
 10
-40.00032
 20
70.93222
 30
0.0
 40
6.0
 50
15.59079
 51
164.40921
  0
LINE
  5
D6
  8
GUIDE
 10
-19.39687
 20
26.20275
 30
0.0
 11
-34.22109
 21
72.54481
 31
0.0
  0
LINE
  5
D7
  8
GUIDE
 10
-43.46442
 20
71.43222
 30
0.0
 11
-36.53622
 21
71.43222
 31
0.0
  0
LINE
  5
D8
  8
GUIDE
 10
-43.46442
 20
70.43222
 30
0.0
 11
-36.50032
 21
70.43222
 31
0.0
  0
POLYLINE
  5
D9
  8
GUIDE
 66
     1
 10
0.0
 20
0.0
 30
0.0
 70
     1
  0
VERTEX
  5
1D2
  8
GUIDE
 10
76.20032000000001
 20
-12.54713
 30
0.0
  0
VERTEX
  5
1D3
  8
GUIDE
 10
76.20032000000001
 20
-5.94713
 30
0.0
  0
VERTEX
  5
1D4
  8
GUIDE
 10
89.80032
 20
-5.94713
 30
0.0
  0
VERTEX
  5
1D5
  8
GUIDE
 10
89.80032
 20
-12.54713
 30
0.0
  0
SEQEND
  5
2E9
  8
GUIDE
  0
POLYLINE
  5
DF
  8
GUIDE
 66
     1
 10
0.0
 20
0.0
 30
0.0
 70
     1
  0
VERTEX
  5
1D7
  8
GUIDE
 10
80.50032
 20
19.35287
 30
0.0
  0
VERTEX
  5
1D8
  8
GUIDE
 10
80.50032
 20
20.15287
 30
0.0
  0
VERTEX
  5
1D9
  8
GUIDE
 10
85.50032
 20
20.15287
 30
0.0
  0
VERTEX
  5
1DA
  8
GUIDE
 10
85.50032
 20
19.35287
 30
0.0
  0
SEQEND
  5
2EA
  8
GUIDE
  0
LINE
  5
E5
  8
GUIDE
 10
74.70032000000001
 20
17.40287
 30
0.0
 11
74.70032000000001
 21
-10.89713
 31
0.0
  0
POLYLINE
  5
E6
  8
GUIDE
 66
     1
 10
0.0
 20
0.0
 30
0.0
 70
     1
  0
VERTEX
  5
1DC
  8
GUIDE
 10
80.50032
 20
-13.64713
 30
0.0
  0
VERTEX
  5
1DD
  8
GUIDE
 10
80.50032
 20
-12.54713
 30
0.0
  0
VERTEX
  5
1DE
  8
GUIDE
 10
85.50032
 20
-12.54713
 30
0.0
  0
VERTEX
  5
1DF
  8
GUIDE
 10
85.50032
 20
-13.64713
 30
0.0
  0
SEQEND
  5
2EB
  8
GUIDE
  0
ARC
  5
EC
  8
GUIDE
 10
77.03139
 20
17.91546
 30
0.0
 40
2.38677
 50
110.377258
 51
192.40181
  0
ARC
  5
ED
  8
GUIDE
 10
77.03139
 20
-11.40973
 30
0.0
 40
2.38677
 50
167.59819
 51
249.622742
  0
POLYLINE
  5
EE
  8
GUIDE
 66
     1
 10
0.0
 20
0.0
 30
0.0
  0
VERTEX
  5
1E1
  8
GUIDE
 10
86.80032
 20
24.40287
 30
0.0
  0
VERTEX
  5
1E2
  8
GUIDE
 10
86.80032
 20
21.15287
 30
0.0
  0
VERTEX
  5
1E3
  8
GUIDE
 10
86.78801
 20
20.99644
 30
0.0
  0
VERTEX
  5
1E4
  8
GUIDE
 10
86.75138
 20
20.84386
 30
0.0
  0
VERTEX
  5
1E5
  8
GUIDE
 10
86.69132999999999
 20
20.69888
 30
0.0
  0
VERTEX
  5
1E6
  8
GUIDE
 10
86.60935000000001
 20
20.56509
 30
0.0
  0
VERTEX
  5
1E7
  8
GUIDE
 10
86.50743
 20
20.44576
 30
0.0
  0
VERTEX
  5
1E8
  8
GUIDE
 10
86.38811
 20
20.34385
 30
0.0
  0
VERTEX
  5
1E9
  8
GUIDE
 10
86.25432000000001
 20
20.26186
 30
0.0
  0
VERTEX
  5
1EA
  8
GUIDE
 10
86.10935000000001
 20
20.20182
 30
0.0
  0
VERTEX
  5
1EB
  8
GUIDE
 10
85.95677000000001
 20
20.16518
 30
0.0
  0
VERTEX
  5
1EC
  8
GUIDE
 10
85.80032
 20
20.15287
 30
0.0
  0
VERTEX
  5
1ED
  8
GUIDE
 10
76.20032000000001
 20
20.15287
 30
0.0
  0
SEQEND
  5
2EC
  8
GUIDE
  0
POLYLINE
  5
FD
  8
GUIDE
 66
     1
 10
0.0
 20
0.0
 30
0.0
  0
VERTEX
  5
1EF
  8
GUIDE
 10
76.20032000000001
 20
-13.64713
 30
0.0
  0
VERTEX
  5
1F0
  8
GUIDE
 10
85.80032
 20
-13.64713
 30
0.0
  0
VERTEX
  5
1F1
  8
GUIDE
 10
85.96813
 20
-13.6926
 30
0.0
  0
VERTEX
  5
1F2
  8
GUIDE
 10
86.12792
 20
-13.76109
 30
0.0
  0
VERTEX
  5
1F3
  8
GUIDE
 10
86.27657000000001
 20
-13.85125
 30
0.0
  0
VERTEX
  5
1F4
  8
GUIDE
 10
86.41115000000001
 20
-13.96133
 30
0.0
  0
VERTEX
  5
1F5
  8
GUIDE
 10
86.52902
 20
-14.08915
 30
0.0
  0
VERTEX
  5
1F6
  8
GUIDE
 10
86.52903000000001
 20
-14.08916
 30
0.0
  0
VERTEX
  5
1F7
  8
GUIDE
 10
86.62786
 20
-14.2322
 30
0.0
  0
VERTEX
  5
1F8
  8
GUIDE
 10
86.70571
 20
-14.38766
 30
0.0
  0
VERTEX
  5
1F9
  8
GUIDE
 10
86.76105
 20
-14.55248
 30
0.0
  0
VERTEX
  5
1FA
  8
GUIDE
 10
86.7928
 20
-14.72342
 30
0.0
  0
VERTEX
  5
1FB
  8
GUIDE
 10
86.80032
 20
-14.89714
 30
0.0
  0
VERTEX
  5
1FC
  8
GUIDE
 10
86.80032
 20
-14.89713
 30
0.0
  0
VERTEX
  5
1FD
  8
GUIDE
 10
86.80032
 20
-17.89713
 30
0.0
  0
SEQEND
  5
2ED
  8
GUIDE
  0
POLYLINE
  5
10E
  8
GUIDE
 66
     1
 10
0.0
 20
0.0
 30
0.0
 70
     1
  0
VERTEX
  5
1FF
  8
GUIDE
 10
76.20032000000001
 20
3.55287
 30
0.0
  0
VERTEX
  5
200
  8
GUIDE
 10
76.20032000000001
 20
10.15287
 30
0.0
  0
VERTEX
  5
201
  8
GUIDE
 10
89.80032
 20
10.15287
 30
0.0
  0
VERTEX
  5
202
  8
GUIDE
 10
89.80032
 20
3.55287
 30
0.0
  0
SEQEND
  5
2EE
  8
GUIDE
  0
POLYLINE
  5
114
  8
GUIDE
 66
     1
 10
0.0
 20
0.0
 30
0.0
 70
     1
  0
VERTEX
  5
204
  8
GUIDE
 10
79.00032
 20
3.25287
 30
0.0
  0
VERTEX
  5
205
  8
GUIDE
 10
79.00032
 20
3.55287
 30
0.0
  0
VERTEX
  5
206
  8
GUIDE
 10
87.00032
 20
3.55287
 30
0.0
  0
VERTEX
  5
207
  8
GUIDE
 10
87.00032
 20
3.25287
 30
0.0
  0
SEQEND
  5
2EF
  8
GUIDE
  0
POLYLINE
  5
11A
  8
GUIDE
 66
     1
 10
0.0
 20
0.0
 30
0.0
 70
     1
  0
VERTEX
  5
209
  8
GUIDE
 10
79.00032
 20
10.15287
 30
0.0
  0
VERTEX
  5
20A
  8
GUIDE
 10
79.00032
 20
19.35287
 30
0.0
  0
VERTEX
  5
20B
  8
GUIDE
 10
87.00032
 20
19.35287
 30
0.0
  0
VERTEX
  5
20C
  8
GUIDE
 10
87.00032
 20
10.15287
 30
0.0
  0
SEQEND
  5
2F0
  8
GUIDE
  0
POLYLINE
  5
120
  8
GUIDE
 66
     1
 10
0.0
 20
0.0
 30
0.0
 70
     1
  0
VERTEX
  5
20E
  8
GUIDE
 10
79.00032
 20
-5.94713
 30
0.0
  0
VERTEX
  5
20F
  8
GUIDE
 10
79.00032
 20
3.25287
 30
0.0
  0
VERTEX
  5
210
  8
GUIDE
 10
87.00032
 20
3.25287
 30
0.0
  0
VERTEX
  5
211
  8
GUIDE
 10
87.00032
 20
-5.94713
 30
0.0
  0
SEQEND
  5
2F1
  8
GUIDE
  0
POLYLINE
  5
126
  8
GUIDE
 66
     1
 10
0.0
 20
0.0
 30
0.0
  0
VERTEX
  5
213
  8
GUIDE
 10
76.20032000000001
 20
2.95287
 30
0.0
  0
VERTEX
  5
214
  8
GUIDE
 10
76.20032000000001
 20
-3.64713
 30
0.0
  0
VERTEX
  5
215
  8
GUIDE
 10
79.00032
 20
-3.64713
 30
0.0
  0
SEQEND
  5
2F2
  8
GUIDE
  0
POLYLINE
  5
12B
  8
GUIDE
 66
     1
 10
0.0
 20
0.0
 30
0.0
  0
VERTEX
  5
217
  8
GUIDE
 10
87.00032
 20
-3.64713
 30
0.0
  0
VERTEX
  5
218
  8
GUIDE
 10
89.80032
 20
-3.64713
 30
0.0
  0
VERTEX
  5
219
  8
GUIDE
 10
89.80032
 20
2.95287
 30
0.0
  0
VERTEX
  5
21A
  8
GUIDE
 10
87.00032
 20
2.95287
 30
0.0
  0
SEQEND
  5
2F3
  8
GUIDE
  0
LINE
  5
131
  8
GUIDE
 10
79.00032
 20
2.95287
 30
0.0
 11
76.20032000000001
 21
2.95287
 31
0.0
  0
POLYLINE
  5
132
  8
GUIDE
 66
     1
 10
0.0
 20
0.0
 30
0.0
  0
VERTEX
  5
21C
  8
GUIDE
 10
76.20032000000001
 20
19.05287
 30
0.0
  0
VERTEX
  5
21D
  8
GUIDE
 10
76.20032000000001
 20
12.45287
 30
0.0
  0
VERTEX
  5
21E
  8
GUIDE
 10
79.00032
 20
12.45287
 30
0.0
  0
SEQEND
  5
2F4
  8
GUIDE
  0
POLYLINE
  5
137
  8
GUIDE
 66
     1
 10
0.0
 20
0.0
 30
0.0
  0
VERTEX
  5
220
  8
GUIDE
 10
87.00032
 20
12.45287
 30
0.0
  0
VERTEX
  5
221
  8
GUIDE
 10
89.80032
 20
12.45287
 30
0.0
  0
VERTEX
  5
222
  8
GUIDE
 10
89.80032
 20
19.05287
 30
0.0
  0
VERTEX
  5
223
  8
GUIDE
 10
87.00032
 20
19.05287
 30
0.0
  0
SEQEND
  5
2F5
  8
GUIDE
  0
LINE
  5
13D
  8
GUIDE
 10
79.00032
 20
19.05287
 30
0.0
 11
76.20032000000001
 21
19.05287
 31
0.0
  0
LINE
  5
13E
  8
GUIDE
 10
86.80032
 20
24.40287
 30
0.0
 11
59.60032
 21
24.40287
 31
0.0
  0
LINE
  5
13F
  8
GUIDE
 10
59.60032
 20
-17.89713
 30
0.0
 11
86.80032
 21
-17.89713
 31
0.0
  0
LINE
  5
140
  8
GUIDE
 10
71.70032000000001
 20
17.40287
 30
0.0
 11
71.70032000000001
 21
-10.89713
 31
0.0
  0
POLYLINE
  5
141
  8
GUIDE
 66
     1
 10
0.0
 20
0.0
 30
0.0
 70
     1
  0
VERTEX
  5
225
  8
GUIDE
 10
67.40031999999999
 20
3.25287
 30
0.0
  0
VERTEX
  5
226
  8
GUIDE
 10
67.40031999999999
 20
3.55287
 30
0.0
  0
VERTEX
  5
227
  8
GUIDE
 10
59.40032
 20
3.55287
 30
0.0
  0
VERTEX
  5
228
  8
GUIDE
 10
59.40032
 20
3.25287
 30
0.0
  0
SEQEND
  5
2F6
  8
GUIDE
  0
POLYLINE
  5
147
  8
GUIDE
 66
     1
 10
0.0
 20
0.0
 30
0.0
 70
     1
  0
VERTEX
  5
22A
  8
GUIDE
 10
65.90031999999999
 20
-13.64713
 30
0.0
  0
VERTEX
  5
22B
  8
GUIDE
 10
65.90031999999999
 20
-12.54713
 30
0.0
  0
VERTEX
  5
22C
  8
GUIDE
 10
60.90032
 20
-12.54713
 30
0.0
  0
VERTEX
  5
22D
  8
GUIDE
 10
60.90032
 20
-13.64713
 30
0.0
  0
SEQEND
  5
2F7
  8
GUIDE
  0
POLYLINE
  5
14D
  8
GUIDE
 66
     1
 10
0.0
 20
0.0
 30
0.0
 70
     1
  0
VERTEX
  5
22F
  8
GUIDE
 10
67.40031999999999
 20
-5.94713
 30
0.0
  0
VERTEX
  5
230
  8
GUIDE
 10
67.40031999999999
 20
3.25287
 30
0.0
  0
VERTEX
  5
231
  8
GUIDE
 10
59.40032
 20
3.25287
 30
0.0
  0
VERTEX
  5
232
  8
GUIDE
 10
59.40032
 20
-5.94713
 30
0.0
  0
SEQEND
  5
2F8
  8
GUIDE
  0
POLYLINE
  5
153
  8
GUIDE
 66
     1
 10
0.0
 20
0.0
 30
0.0
  0
VERTEX
  5
234
  8
GUIDE
 10
70.20032000000001
 20
-13.64713
 30
0.0
  0
VERTEX
  5
235
  8
GUIDE
 10
60.60032
 20
-13.64713
 30
0.0
  0
VERTEX
  5
236
  8
GUIDE
 10
60.43248
 20
-13.69261
 30
0.0
  0
VERTEX
  5
237
  8
GUIDE
 10
60.27268
 20
-13.7611
 30
0.0
  0
VERTEX
  5
238
  8
GUIDE
 10
60.12404
 20
-13.85128
 30
0.0
  0
VERTEX
  5
239
  8
GUIDE
 10
59.98946
 20
-13.96135
 30
0.0
  0
VERTEX
  5
23A
  8
GUIDE
 10
59.87162
 20
-14.08915
 30
0.0
  0
VERTEX
  5
23B
  8
GUIDE
 10
59.87161
 20
-14.08916
 30
0.0
  0
VERTEX
  5
23C
  8
GUIDE
 10
59.77277
 20
-14.23222
 30
0.0
  0
VERTEX
  5
23D
  8
GUIDE
 10
59.69492
 20
-14.38768
 30
0.0
  0
VERTEX
  5
23E
  8
GUIDE
 10
59.63959
 20
-14.5525
 30
0.0
  0
VERTEX
  5
23F
  8
GUIDE
 10
59.60784
 20
-14.72344
 30
0.0
  0
VERTEX
  5
240
  8
GUIDE
 10
59.60032
 20
-14.89714
 30
0.0
  0
VERTEX
  5
241
  8
GUIDE
 10
59.60032
 20
-14.89713
 30
0.0
  0
VERTEX
  5
242
  8
GUIDE
 10
59.60032
 20
-17.89713
 30
0.0
  0
SEQEND
  5
2F9
  8
GUIDE
  0
POLYLINE
  5
164
  8
GUIDE
 66
     1
 10
0.0
 20
0.0
 30
0.0
 70
     1
  0
VERTEX
  5
244
  8
GUIDE
 10
70.20032000000001
 20
-12.54713
 30
0.0
  0
VERTEX
  5
245
  8
GUIDE
 10
70.20032000000001
 20
-5.94713
 30
0.0
  0
VERTEX
  5
246
  8
GUIDE
 10
56.60032
 20
-5.94713
 30
0.0
  0
VERTEX
  5
247
  8
GUIDE
 10
56.60032
 20
-12.54713
 30
0.0
  0
SEQEND
  5
2FA
  8
GUIDE
  0
ARC
  5
16A
  8
GUIDE
 10
69.36924999999999
 20
-11.40973
 30
0.0
 40
2.38677
 50
290.377258
 51
12.40181
  0
LINE
  5
16B
  8
GUIDE
 10
67.40031999999999
 20
2.95287
 30
0.0
 11
70.20032000000001
 21
2.95287
 31
0.0
  0
POLYLINE
  5
16C
  8
GUIDE
 66
     1
 10
0.0
 20
0.0
 30
0.0
  0
VERTEX
  5
249
  8
GUIDE
 10
70.20032000000001
 20
2.95287
 30
0.0
  0
VERTEX
  5
24A
  8
GUIDE
 10
70.20032000000001
 20
-3.64713
 30
0.0
  0
VERTEX
  5
24B
  8
GUIDE
 10
67.40031999999999
 20
-3.64713
 30
0.0
  0
SEQEND
  5
2FB
  8
GUIDE
  0
POLYLINE
  5
171
  8
GUIDE
 66
     1
 10
0.0
 20
0.0
 30
0.0
  0
VERTEX
  5
24D
  8
GUIDE
 10
59.40032
 20
-3.64713
 30
0.0
  0
VERTEX
  5
24E
  8
GUIDE
 10
56.60032
 20
-3.64713
 30
0.0
  0
VERTEX
  5
24F
  8
GUIDE
 10
56.60032
 20
2.95287
 30
0.0
  0
VERTEX
  5
250
  8
GUIDE
 10
59.40032
 20
2.95287
 30
0.0
  0
SEQEND
  5
2FC
  8
GUIDE
  0
POLYLINE
  5
177
  8
GUIDE
 66
     1
 10
0.0
 20
0.0
 30
0.0
 70
     1
  0
VERTEX
  5
252
  8
GUIDE
 10
67.40031999999999
 20
10.15287
 30
0.0
  0
VERTEX
  5
253
  8
GUIDE
 10
67.40031999999999
 20
19.35287
 30
0.0
  0
VERTEX
  5
254
  8
GUIDE
 10
59.40032
 20
19.35287
 30
0.0
  0
VERTEX
  5
255
  8
GUIDE
 10
59.40032
 20
10.15287
 30
0.0
  0
SEQEND
  5
2FD
  8
GUIDE
  0
POLYLINE
  5
17D
  8
GUIDE
 66
     1
 10
0.0
 20
0.0
 30
0.0
 70
     1
  0
VERTEX
  5
257
  8
GUIDE
 10
70.20032000000001
 20
3.55287
 30
0.0
  0
VERTEX
  5
258
  8
GUIDE
 10
70.20032000000001
 20
10.15287
 30
0.0
  0
VERTEX
  5
259
  8
GUIDE
 10
56.60032
 20
10.15287
 30
0.0
  0
VERTEX
  5
25A
  8
GUIDE
 10
56.60032
 20
3.55287
 30
0.0
  0
SEQEND
  5
2FE
  8
GUIDE
  0
POLYLINE
  5
183
  8
GUIDE
 66
     1
 10
0.0
 20
0.0
 30
0.0
  0
VERTEX
  5
25C
  8
GUIDE
 10
59.60032
 20
24.40287
 30
0.0
  0
VERTEX
  5
25D
  8
GUIDE
 10
59.60032
 20
21.15287
 30
0.0
  0
VERTEX
  5
25E
  8
GUIDE
 10
59.61263
 20
20.99642
 30
0.0
  0
VERTEX
  5
25F
  8
GUIDE
 10
59.64927
 20
20.84384
 30
0.0
  0
VERTEX
  5
260
  8
GUIDE
 10
59.70931
 20
20.69887
 30
0.0
  0
VERTEX
  5
261
  8
GUIDE
 10
59.7913
 20
20.56508
 30
0.0
  0
VERTEX
  5
262
  8
GUIDE
 10
59.89321
 20
20.44576
 30
0.0
  0
VERTEX
  5
263
  8
GUIDE
 10
60.01254
 20
20.34384
 30
0.0
  0
VERTEX
  5
264
  8
GUIDE
 10
60.14633
 20
20.26186
 30
0.0
  0
VERTEX
  5
265
  8
GUIDE
 10
60.29131
 20
20.20181
 30
0.0
  0
VERTEX
  5
266
  8
GUIDE
 10
60.44389
 20
20.16518
 30
0.0
  0
VERTEX
  5
267
  8
GUIDE
 10
60.60034
 20
20.15287
 30
0.0
  0
VERTEX
  5
268
  8
GUIDE
 10
60.60032
 20
20.15287
 30
0.0
  0
VERTEX
  5
269
  8
GUIDE
 10
70.20032000000001
 20
20.15287
 30
0.0
  0
SEQEND
  5
2FF
  8
GUIDE
  0
POLYLINE
  5
193
  8
GUIDE
 66
     1
 10
0.0
 20
0.0
 30
0.0
 70
     1
  0
VERTEX
  5
26B
  8
GUIDE
 10
65.90031999999999
 20
19.35287
 30
0.0
  0
VERTEX
  5
26C
  8
GUIDE
 10
65.90031999999999
 20
20.15287
 30
0.0
  0
VERTEX
  5
26D
  8
GUIDE
 10
60.90032
 20
20.15287
 30
0.0
  0
VERTEX
  5
26E
  8
GUIDE
 10
60.90032
 20
19.35287
 30
0.0
  0
SEQEND
  5
300
  8
GUIDE
  0
POLYLINE
  5
199
  8
GUIDE
 66
     1
 10
0.0
 20
0.0
 30
0.0
  0
VERTEX
  5
270
  8
GUIDE
 10
70.20032000000001
 20
19.05287
 30
0.0
  0
VERTEX
  5
271
  8
GUIDE
 10
70.20032000000001
 20
12.45287
 30
0.0
  0
VERTEX
  5
272
  8
GUIDE
 10
67.40031999999999
 20
12.45287
 30
0.0
  0
SEQEND
  5
301
  8
GUIDE
  0
LINE
  5
19E
  8
GUIDE
 10
67.40031999999999
 20
19.05287
 30
0.0
 11
70.20032000000001
 21
19.05287
 31
0.0
  0
ARC
  5
19F
  8
GUIDE
 10
69.36924999999999
 20
17.91546
 30
0.0
 40
2.38677
 50
347.59819
 51
69.622742
  0
POLYLINE
  5
1A0
  8
GUIDE
 66
     1
 10
0.0
 20
0.0
 30
0.0
  0
VERTEX
  5
274
  8
GUIDE
 10
59.40032
 20
12.45287
 30
0.0
  0
VERTEX
  5
275
  8
GUIDE
 10
56.60032
 20
12.45287
 30
0.0
  0
VERTEX
  5
276
  8
GUIDE
 10
56.60032
 20
19.05287
 30
0.0
  0
VERTEX
  5
277
  8
GUIDE
 10
59.40032
 20
19.05287
 30
0.0
  0
SEQEND
  5
302
  8
GUIDE
  0
LINE
  5
1A6
  8
GUIDE
 10
79.20032000000001
 20
75.90286999999999
 30
0.0
 11
77.20032000000001
 21
75.90286999999999
 31
0.0
  0
LINE
  5
1A7
  8
GUIDE
 10
67.20032000000001
 20
75.90286999999999
 30
0.0
 11
67.20032000000001
 21
65.90286999999999
 31
0.0
  0
LINE
  5
1A8
  8
GUIDE
 10
79.20032000000001
 20
75.90286999999999
 30
0.0
 11
79.20032000000001
 21
65.90286999999999
 31
0.0
  0
LINE
  5
1A9
  8
GUIDE
 10
67.20032000000001
 20
65.90286999999999
 30
0.0
 11
60.60032
 21
24.40287
 31
0.0
  0
LINE
  5
1AA
  8
GUIDE
 10
79.20032000000001
 20
65.90286999999999
 30
0.0
 11
85.80032
 21
24.40287
 31
0.0
  0
LINE
  5
1AB
  8
GUIDE
 10
69.20032000000001
 20
75.90286999999999
 30
0.0
 11
69.20032000000001
 21
65.90286999999999
 31
0.0
  0
LINE
  5
1AC
  8
GUIDE
 10
77.20032000000001
 20
75.90286999999999
 30
0.0
 11
77.20032000000001
 21
65.90286999999999
 31
0.0
  0
ARC
  5
1AD
  8
GUIDE
 10
68.78888000000001
 20
70.90286999999999
 30
0.0
 40
3.5
 50
116.992554
 51
243.007431
  0
ARC
  5
1AE
  8
GUIDE
 10
71.34439
 20
70.90286999999999
 30
0.0
 40
9.095050000000001
 50
329.741226
 51
30.258774
  0
LINE
  5
1AF
  8
GUIDE
 10
67.20032000000001
 20
65.90286999999999
 30
0.0
 11
67.20032000000001
 21
24.40287
 31
0.0
  0
LINE
  5
1B0
  8
GUIDE
 10
79.20032000000001
 20
65.90286999999999
 30
0.0
 11
79.20032000000001
 21
24.40287
 31
0.0
  0
LINE
  5
1B1
  8
GUIDE
 10
77.20032000000001
 20
73.90286999999999
 30
0.0
 11
69.20032000000001
 21
73.90286999999999
 31
0.0
  0
LINE
  5
1B2
  8
GUIDE
 10
69.20032000000001
 20
65.90286999999999
 30
0.0
 11
69.20032000000001
 21
24.40287
 31
0.0
  0
LINE
  5
1B3
  8
GUIDE
 10
77.20032000000001
 20
65.90286999999999
 30
0.0
 11
77.20032000000001
 21
24.40287
 31
0.0
  0
LINE
  5
1B4
  8
GUIDE
 10
69.20032000000001
 20
75.90286999999999
 30
0.0
 11
67.20032000000001
 21
75.90286999999999
 31
0.0
  0
LINE
  5
1B5
  8
GUIDE
 10
-89.80032
 20
-58.83222
 30
0.0
 11
-89.80032
 21
-61.83222
 31
0.0
  0
LINE
  5
1B6
  8
GUIDE
 10
-86.70032000000001
 20
-46.73222
 30
0.0
 11
-86.70032000000001
 21
-58.83222
 31
0.0
  0
LINE
  5
1B7
  8
GUIDE
 10
-89.80032
 20
-58.83222
 30
0.0
 11
-86.70032000000001
 21
-58.83222
 31
0.0
  0
LINE
  5
1B8
  8
GUIDE
 10
-89.80032
 20
-61.83222
 30
0.0
 11
-86.70032000000001
 21
-61.83222
 31
0.0
  0
LINE
  5
1B9
  8
GUIDE
 10
-86.70032000000001
 20
-61.83222
 30
0.0
 11
-86.70032000000001
 21
-73.93222
 31
0.0
  0
LINE
  5
1BA
  8
GUIDE
 10
-120.80032
 20
-58.83222
 30
0.0
 11
-120.80032
 21
-61.83222
 31
0.0
  0
ARC
  5
1BB
  8
GUIDE
 10
-89.42358
 20
-93.15757000000001
 30
0.0
 40
46.50516
 50
86.64308200000001
 51
132.430908
  0
ARC
  5
1BC
  8
GUIDE
 10
-89.42358
 20
-27.50687
 30
0.0
 40
46.50516
 50
227.569092
 51
273.356918
  0
LINE
  5
1BD
  8
GUIDE
 10
-120.80032
 20
-17.86778
 30
0.0
 11
-120.80032
 21
24.43222
 31
0.0
  0
LINE
  5
1BE
  8
GUIDE
 10
-89.80032
 20
24.43222
 30
0.0
 11
-120.80032
 21
24.43222
 31
0.0
  0
LINE
  5
1BF
  8
GUIDE
 10
-89.80032
 20
-17.86778
 30
0.0
 11
-120.80032
 21
-17.86778
 31
0.0
  0
LINE
  5
1C0
  8
AXIS
 62
     1
 10
-40.00032
 20
-54.33222
 30
0.0
 11
-40.00032
 21
-66.33222000000001
 31
0.0
  0
ENDSEC
  0
EOF
